  0
SECTION
  2
HEADER
  9
$ACADVER
  1
AC1015
  9
$ACADMAINTVER
 70
     6
  9
$DWGCODEPAGE
  3
ANSI_1252
  9
$INSBASE
 10
0.0
 20
0.0
 30
0.0
  9
$EXTMIN
 10
1.000000000000000E+20
 20
1.000000000000000E+20
 30
1.000000000000000E+20
  9
$EXTMAX
 10
-1.000000000000000E+20
 20
-1.000000000000000E+20
 30
-1.000000000000000E+20
  9
$LIMMIN
 10
0.0
 20
0.0
  9
$LIMMAX
 10
12.0
 20
9.0
  9
$ORTHOMODE
 70
     0
  9
$REGENMODE
 70
     1
  9
$FILLMODE
 70
     1
  9
$QTEXTMODE
 70
     0
  9
$MIRRTEXT
 70
     1
  9
$LTSCALE
 40
1.0
  9
$ATTMODE
 70
     1
  9
$TEXTSIZE
 40
0.2
  9
$TRACEWID
 40
0.05
  9
$TEXTSTYLE
  7
Standard
  9
$CLAYER
  8
0
  9
$CELTYPE
  6
ByLayer
  9
$CECOLOR
 62
   256
  9
$CELTSCALE
 40
1.0
  9
$DISPSILH
 70
     0
  9
$DIMSCALE
 40
1.0
  9
$DIMASZ
 40
0.18
  9
$DIMEXO
 40
0.0625
  9
$DIMDLI
 40
0.38
  9
$DIMRND
 40
0.0
  9
$DIMDLE
 40
0.0
  9
$DIMEXE
 40
0.18
  9
$DIMTP
 40
0.0
  9
$DIMTM
 40
0.0
  9
$DIMTXT
 40
0.18
  9
$DIMCEN
 40
0.09
  9
$DIMTSZ
 40
0.0
  9
$DIMTOL
 70
     0
  9
$DIMLIM
 70
     0
  9
$DIMTIH
 70
     1
  9
$DIMTOH
 70
     1
  9
$DIMSE1
 70
     0
  9
$DIMSE2
 70
     0
  9
$DIMTAD
 70
     0
  9
$DIMZIN
 70
     0
  9
$DIMBLK
  1

  9
$DIMASO
 70
     1
  9
$DIMSHO
 70
     1
  9
$DIMPOST
  1

  9
$DIMAPOST
  1

  9
$DIMALT
 70
     0
  9
$DIMALTD
 70
     2
  9
$DIMALTF
 40
25.4
  9
$DIMLFAC
 40
1.0
  9
$DIMTOFL
 70
     0
  9
$DIMTVP
 40
0.0
  9
$DIMTIX
 70
     0
  9
$DIMSOXD
 70
     0
  9
$DIMSAH
 70
     0
  9
$DIMBLK1
  1

  9
$DIMBLK2
  1

  9
$DIMSTYLE
  2
Standard
  9
$DIMCLRD
 70
     0
  9
$DIMCLRE
 70
     0
  9
$DIMCLRT
 70
     0
  9
$DIMTFAC
 40
1.0
  9
$DIMGAP
 40
0.09
  9
$DIMJUST
 70
     0
  9
$DIMSD1
 70
     0
  9
$DIMSD2
 70
     0
  9
$DIMTOLJ
 70
     1
  9
$DIMTZIN
 70
     0
  9
$DIMALTZ
 70
     0
  9
$DIMALTTZ
 70
     0
  9
$DIMUPT
 70
     0
  9
$DIMDEC
 70
     4
  9
$DIMTDEC
 70
     4
  9
$DIMALTU
 70
     2
  9
$DIMALTTD
 70
     2
  9
$DIMTXSTY
  7
Standard
  9
$DIMAUNIT
 70
     0
  9
$DIMADEC
 70
     0
  9
$DIMALTRND
 40
0.0
  9
$DIMAZIN
 70
     0
  9
$DIMDSEP
 70
    46
  9
$DIMATFIT
 70
     3
  9
$DIMFRAC
 70
     0
  9
$DIMLDRBLK
  1

  9
$DIMLUNIT
 70
     2
  9
$DIMLWD
 70
    -2
  9
$DIMLWE
 70
    -2
  9
$DIMTMOVE
 70
     0
  9
$LUNITS
 70
     2
  9
$LUPREC
 70
     4
  9
$SKETCHINC
 40
0.1
  9
$FILLETRAD
 40
0.5
  9
$AUNITS
 70
     0
  9
$AUPREC
 70
     0
  9
$MENU
  1
.
  9
$ELEVATION
 40
0.0
  9
$PELEVATION
 40
0.0
  9
$THICKNESS
 40
0.0
  9
$LIMCHECK
 70
     0
  9
$CHAMFERA
 40
0.5
  9
$CHAMFERB
 40
0.5
  9
$CHAMFERC
 40
1.0
  9
$CHAMFERD
 40
0.0
  9
$SKPOLY
 70
     0
  9
$TDCREATE
 40
2456510.578548437
  9
$TDUCREATE
 40
2456510.182715104
  9
$TDUPDATE
 40
2456510.578548449
  9
$TDUUPDATE
 40
2456510.182715116
  9
$TDINDWG
 40
0.0000000116
  9
$TDUSRTIMER
 40
0.0000000116
  9
$USRTIMER
 70
     1
  9
$ANGBASE
 50
0.0
  9
$ANGDIR
 70
     0
  9
$PDMODE
 70
     0
  9
$PDSIZE
 40
0.0
  9
$PLINEWID
 40
0.0
  9
$SPLFRAME
 70
     0
  9
$SPLINETYPE
 70
     6
  9
$SPLINESEGS
 70
     8
  9
$HANDSEED
  5
508
  9
$SURFTAB1
 70
     6
  9
$SURFTAB2
 70
     6
  9
$SURFTYPE
 70
     6
  9
$SURFU
 70
     6
  9
$SURFV
 70
     6
  9
$UCSBASE
  2

  9
$UCSNAME
  2

  9
$UCSORG
 10
0.0
 20
0.0
 30
0.0
  9
$UCSXDIR
 10
1.0
 20
0.0
 30
0.0
  9
$UCSYDIR
 10
0.0
 20
1.0
 30
0.0
  9
$UCSORTHOREF
  2

  9
$UCSORTHOVIEW
 70
     0
  9
$UCSORGTOP
 10
0.0
 20
0.0
 30
0.0
  9
$UCSORGBOTTOM
 10
0.0
 20
0.0
 30
0.0
  9
$UCSORGLEFT
 10
0.0
 20
0.0
 30
0.0
  9
$UCSORGRIGHT
 10
0.0
 20
0.0
 30
0.0
  9
$UCSORGFRONT
 10
0.0
 20
0.0
 30
0.0
  9
$UCSORGBACK
 10
0.0
 20
0.0
 30
0.0
  9
$PUCSBASE
  2

  9
$PUCSNAME
  2

  9
$PUCSORG
 10
0.0
 20
0.0
 30
0.0
  9
$PUCSXDIR
 10
1.0
 20
0.0
 30
0.0
  9
$PUCSYDIR
 10
0.0
 20
1.0
 30
0.0
  9
$PUCSORTHOREF
  2

  9
$PUCSORTHOVIEW
 70
     0
  9
$PUCSORGTOP
 10
0.0
 20
0.0
 30
0.0
  9
$PUCSORGBOTTOM
 10
0.0
 20
0.0
 30
0.0
  9
$PUCSORGLEFT
 10
0.0
 20
0.0
 30
0.0
  9
$PUCSORGRIGHT
 10
0.0
 20
0.0
 30
0.0
  9
$PUCSORGFRONT
 10
0.0
 20
0.0
 30
0.0
  9
$PUCSORGBACK
 10
0.0
 20
0.0
 30
0.0
  9
$USERI1
 70
     0
  9
$USERI2
 70
     0
  9
$USERI3
 70
     0
  9
$USERI4
 70
     0
  9
$USERI5
 70
     0
  9
$USERR1
 40
0.0
  9
$USERR2
 40
0.0
  9
$USERR3
 40
0.0
  9
$USERR4
 40
0.0
  9
$USERR5
 40
0.0
  9
$WORLDVIEW
 70
     1
  9
$SHADEDGE
 70
     3
  9
$SHADEDIF
 70
    70
  9
$TILEMODE
 70
     1
  9
$MAXACTVP
 70
    64
  9
$PINSBASE
 10
0.0
 20
0.0
 30
0.0
  9
$PLIMCHECK
 70
     0
  9
$PEXTMIN
 10
1.000000000000000E+20
 20
1.000000000000000E+20
 30
1.000000000000000E+20
  9
$PEXTMAX
 10
-1.000000000000000E+20
 20
-1.000000000000000E+20
 30
-1.000000000000000E+20
  9
$PLIMMIN
 10
0.0
 20
0.0
  9
$PLIMMAX
 10
12.0
 20
9.0
  9
$UNITMODE
 70
     0
  9
$VISRETAIN
 70
     1
  9
$PLINEGEN
 70
     0
  9
$PSLTSCALE
 70
     1
  9
$TREEDEPTH
 70
  3020
  9
$CMLSTYLE
  2
Standard
  9
$CMLJUST
 70
     0
  9
$CMLSCALE
 40
1.0
  9
$PROXYGRAPHICS
 70
     1
  9
$MEASUREMENT
 70
     0
  9
$CELWEIGHT
370
    -1
  9
$ENDCAPS
280
     0
  9
$JOINSTYLE
280
     0
  9
$LWDISPLAY
290
     1
  9
$INSUNITS
 70
     1
  9
$HYPERLINKBASE
  1

  9
$STYLESHEET
  1

  9
$XEDIT
290
     1
  9
$CEPSNTYPE
380
     0
  9
$PSTYLEMODE
290
     1
  9
$FINGERPRINTGUID
  2
{F060D300-B9E4-4FEA-86A7-01514DED7023}
  9
$VERSIONGUID
  2
{FAEB1C32-E019-11D5-929B-00C0DF256EC4}
  9
$EXTNAMES
290
     1
  9
$PSVPSCALE
 40
0.0
  9
$OLESTARTUP
290
     0
  0
ENDSEC
  0
SECTION
  2
CLASSES
  0
CLASS
  1
ACDBDICTIONARYWDFLT
  2
AcDbDictionaryWithDefault
  3
ObjectDBX Classes
 90
        0
280
     0
281
     0
  0
CLASS
  1
VISUALSTYLE
  2
AcDbVisualStyle
  3
ObjectDBX Classes
 90
     4095
280
     0
281
     0
  0
CLASS
  1
ACDBPLACEHOLDER
  2
AcDbPlaceHolder
  3
ObjectDBX Classes
 90
        0
280
     0
281
     0
  0
CLASS
  1
LAYOUT
  2
AcDbLayout
  3
ObjectDBX Classes
 90
        0
280
     0
281
     0
  0
ENDSEC
  0
SECTION
  2
TABLES
  0
TABLE
  2
VPORT
  5
8
330
0
100
AcDbSymbolTable
 70
     1
  0
VPORT
  5
29
330
8
100
AcDbSymbolTableRecord
100
AcDbViewportTableRecord
  2
*Active
 70
     0
 10
0.0
 20
0.0
 11
1.0
 21
1.0
 12
0.0
 22
0.0
 13
0.0
 23
0.0
 14
0.5
 24
0.5
 15
0.5
 25
0.5
 16
0.0
 26
0.0
 36
1.0
 17
500.6798609859412
 27
740.4805553704355
 37
0.0
 40
1480.961110740871
 41
0.9293711291090996
 42
50.0
 43
0.0
 44
0.0
 50
0.0
 51
0.0
 71
     0
 72
   100
 73
     1
 74
     3
 75
     0
 76
     0
 77
     0
 78
     0
281
     0
 65
     1
110
0.0
120
0.0
130
0.0
111
1.0
121
0.0
131
0.0
112
0.0
122
1.0
132
0.0
 79
     0
146
0.0
  0
ENDTAB
  0
TABLE
  2
LTYPE
  5
5
330
0
100
AcDbSymbolTable
 70
     1
  0
LTYPE
  5
14
330
5
100
AcDbSymbolTableRecord
100
AcDbLinetypeTableRecord
  2
ByBlock
 70
     0
  3

 72
    65
 73
     0
 40
0.0
  0
LTYPE
  5
15
330
5
100
AcDbSymbolTableRecord
100
AcDbLinetypeTableRecord
  2
ByLayer
 70
     0
  3

 72
    65
 73
     0
 40
0.0
  0
LTYPE
  5
16
330
5
100
AcDbSymbolTableRecord
100
AcDbLinetypeTableRecord
  2
Continuous
 70
     0
  3
Solid line
 72
    65
 73
     0
 40
0.0
  0
ENDTAB
  0
TABLE
  2
LAYER
  5
2
330
0
100
AcDbSymbolTable
 70
     2
  0
LAYER
  5
10
330
2
100
AcDbSymbolTableRecord
100
AcDbLayerTableRecord
  2
0
 70
     0
 62
     7
  6
Continuous
370
    -3
390
F
  0
LAYER
  5
3B
330
2
100
AcDbSymbolTableRecord
100
AcDbLayerTableRecord
  2
Layer 1
 70
     0
 62
     7
  6
Continuous
370
    -3
390
F
  0
ENDTAB
  0
TABLE
  2
STYLE
  5
3
330
0
100
AcDbSymbolTable
 70
     1
  0
STYLE
  5
11
330
3
100
AcDbSymbolTableRecord
100
AcDbTextStyleTableRecord
  2
Standard
 70
     0
 40
0.0
 41
1.0
 50
0.0
 71
     0
 42
0.2
  3
txt
  4

  0
ENDTAB
  0
TABLE
  2
VIEW
  5
6
330
0
100
AcDbSymbolTable
 70
     0
  0
ENDTAB
  0
TABLE
  2
UCS
  5
7
330
0
100
AcDbSymbolTable
 70
     0
  0
ENDTAB
  0
TABLE
  2
APPID
  5
9
330
0
100
AcDbSymbolTable
 70
     1
  0
APPID
  5
12
330
9
100
AcDbSymbolTableRecord
100
AcDbRegAppTableRecord
  2
ACAD
 70
     0
  0
ENDTAB
  0
TABLE
  2
DIMSTYLE
  5
A
330
0
100
AcDbSymbolTable
 70
     1
100
AcDbDimStyleTable
  0
DIMSTYLE
105
27
330
A
100
AcDbSymbolTableRecord
100
AcDbDimStyleTableRecord
  2
Standard
 70
     0
340
11
  0
ENDTAB
  0
TABLE
  2
BLOCK_RECORD
  5
1
330
0
100
AcDbSymbolTable
 70
     3
  0
BLOCK_RECORD
  5
1F
330
1
100
AcDbSymbolTableRecord
100
AcDbBlockTableRecord
  2
*Model_Space
340
22
  0
BLOCK_RECORD
  5
1B
330
1
100
AcDbSymbolTableRecord
100
AcDbBlockTableRecord
  2
*Paper_Space
340
1E
  0
BLOCK_RECORD
  5
23
330
1
100
AcDbSymbolTableRecord
100
AcDbBlockTableRecord
  2
*Paper_Space0
340
26
  0
BLOCK_RECORD
  5
3C
330
1
100
AcDbSymbolTableRecord
100
AcDbBlockTableRecord
  2
block 2
340
0
102
{BLKREFS
331
3D
102
}
  0
BLOCK_RECORD
  5
4F4
330
1
100
AcDbSymbolTableRecord
100
AcDbBlockTableRecord
  2
block 3
340
0
102
{BLKREFS
331
4F5
102
}
  0
ENDTAB
  0
ENDSEC
  0
SECTION
  2
BLOCKS
  0
BLOCK
  5
20
330
1F
100
AcDbEntity
  8
0
100
AcDbBlockBegin
  2
*Model_Space
 70
     0
 71
     0
 10
0.0
 20
0.0
 30
0.0
  3
*Model_Space
  1

  0
ENDBLK
  5
21
330
1F
100
AcDbEntity
  8
0
100
AcDbBlockEnd
  0
BLOCK
  5
1C
330
1B
100
AcDbEntity
 67
     1
  8
0
100
AcDbBlockBegin
  2
*Paper_Space
 70
     0
 71
     0
 10
0.0
 20
0.0
 30
0.0
  3
*Paper_Space
  1

  0
ENDBLK
  5
1D
330
1B
100
AcDbEntity
 67
     1
  8
0
100
AcDbBlockEnd
  0
BLOCK
  5
24
330
23
100
AcDbEntity
  8
0
100
AcDbBlockBegin
  2
*Paper_Space0
 70
     0
 71
     0
 10
0.0
 20
0.0
 30
0.0
  3
*Paper_Space0
  1

  0
ENDBLK
  5
25
330
23
100
AcDbEntity
  8
0
100
AcDbBlockEnd
  0
BLOCK
  5
3E
330
3C
100
AcDbEntity
  8
0
100
AcDbBlockBegin
  2
block 2
 70
     0
 71
     0
 10
0.0
 20
0.0
 30
0.0
  3
block 2
  1

  0
SPLINE
  5
40
330
3C
100
AcDbEntity
  8
Layer 1
 62
     7
370
    15
100
AcDbSpline
210
0.0
220
0.0
230
1.0
 70
     8
 71
     3
 72
     8
 73
     4
 74
     0
 42
0.0000000001
 43
0.0000000001
 40
0.0
 40
0.0
 40
0.0
 40
0.0
 40
1.0
 40
1.0
 40
1.0
 40
1.0
 10
448.3707369213275
 20
669.6216591750425
 30
0.0
 10
448.3707369213275
 20
655.8140609797097
 30
0.0
 10
459.5631631338072
 20
644.6212902576815
 30
0.0
 10
473.3705890743657
 20
644.6212902576815
 30
0.0
  0
POLYLINE
  5
41
330
3C
100
AcDbEntity
  8
Layer 1
 62
     7
370
    15
100
AcDb2dPolyline
 66
     1
 10
0.0
 20
0.0
 30
0.0
  0
VERTEX
  5
42
330
41
100
AcDbEntity
  8
Layer 1
 62
     7
370
    15
100
AcDbVertex
100
AcDb2dVertex
 10
708.3705429001643
 20
644.6212902576815
 30
0.0
  0
VERTEX
  5
43
330
41
100
AcDbEntity
  8
Layer 1
 62
     7
370
    15
100
AcDbVertex
100
AcDb2dVertex
 10
708.3705429001643
 20
1049.620858841327
 30
0.0
  0
SEQEND
  5
44
330
41
100
AcDbEntity
  8
Layer 1
370
    15
  0
SPLINE
  5
45
330
3C
100
AcDbEntity
  8
Layer 1
 62
     7
370
    15
100
AcDbSpline
210
0.0
220
0.0
230
1.0
 70
     8
 71
     3
 72
     8
 73
     4
 74
     0
 42
0.0000000001
 43
0.0000000001
 40
0.0
 40
0.0
 40
0.0
 40
0.0
 40
1.0
 40
1.0
 40
1.0
 40
1.0
 10
708.3705429001643
 20
1049.620858841327
 30
0.0
 10
708.3705429001643
 20
1063.428284781886
 30
0.0
 10
697.1774276685876
 20
1074.621055503914
 30
0.0
 10
683.3701739828033
 20
1074.621055503914
 30
0.0
  0
POLYLINE
  5
46
330
3C
100
AcDbEntity
  8
Layer 1
 62
     7
370
    15
100
AcDb2dPolyline
 66
     1
 10
0.0
 20
0.0
 30
0.0
  0
VERTEX
  5
47
330
46
100
AcDbEntity
  8
Layer 1
 62
     7
370
    15
100
AcDbVertex
100
AcDb2dVertex
 10
683.3701739828033
 20
1074.621055503914
 30
0.0
  0
VERTEX
  5
48
330
46
100
AcDbEntity
  8
Layer 1
 62
     7
370
    15
100
AcDbVertex
100
AcDb2dVertex
 10
448.3707369213275
 20
1074.621055503914
 30
0.0
  0
SEQEND
  5
49
330
46
100
AcDbEntity
  8
Layer 1
370
    15
  0
SPLINE
  5
4A
330
3C
100
AcDbEntity
  8
Layer 1
 62
     7
370
    15
100
AcDbSpline
210
0.0
220
0.0
230
1.0
 70
     8
 71
     3
 72
     8
 73
     4
 74
     0
 42
0.0000000001
 43
0.0000000001
 40
0.0
 40
0.0
 40
0.0
 40
0.0
 40
1.0
 40
1.0
 40
1.0
 40
1.0
 10
448.3707369213275
 20
1074.621055503914
 30
0.0
 10
434.5633109807689
 20
1074.621055503914
 30
0.0
 10
423.3703680039665
 20
1063.428284781886
 30
0.0
 10
423.3703680039665
 20
1049.620858841327
 30
0.0
  0
POLYLINE
  5
4B
330
3C
100
AcDbEntity
  8
Layer 1
 62
     7
370
    15
100
AcDb2dPolyline
 66
     1
 10
0.0
 20
0.0
 30
0.0
  0
VERTEX
  5
4C
330
4B
100
AcDbEntity
  8
Layer 1
 62
     7
370
    15
100
AcDbVertex
100
AcDb2dVertex
 10
423.3703680039665
 20
644.6212902576815
 30
0.0
  0
VERTEX
  5
4D
330
4B
100
AcDbEntity
  8
Layer 1
 62
     7
370
    15
100
AcDbVertex
100
AcDb2dVertex
 10
423.3703680039665
 20
1049.620858841327
 30
0.0
  0
SEQEND
  5
4E
330
4B
100
AcDbEntity
  8
Layer 1
370
    15
  0
SPLINE
  5
4F
330
3C
100
AcDbEntity
  8
Layer 1
 62
     7
370
    15
100
AcDbSpline
210
0.0
220
0.0
230
1.0
 70
     8
 71
     3
 72
     8
 73
     4
 74
     0
 42
0.0000000001
 43
0.0000000001
 40
0.0
 40
0.0
 40
0.0
 40
0.0
 40
1.0
 40
1.0
 40
1.0
 40
1.0
 10
423.3703680039665
 20
644.6212902576815
 30
0.0
 10
423.3703680039665
 20
630.8143810814457
 30
0.0
 10
434.5633109807689
 20
619.6216103594176
 30
0.0
 10
448.3707369213275
 20
619.6216103594176
 30
0.0
  0
POLYLINE
  5
50
330
3C
100
AcDbEntity
  8
Layer 1
 62
     7
370
    15
100
AcDb2dPolyline
 66
     1
 10
0.0
 20
0.0
 30
0.0
  0
VERTEX
  5
51
330
50
100
AcDbEntity
  8
Layer 1
 62
     7
370
    15
100
AcDbVertex
100
AcDb2dVertex
 10
683.3701739828033
 20
619.6216103594176
 30
0.0
  0
VERTEX
  5
52
330
50
100
AcDbEntity
  8
Layer 1
 62
     7
370
    15
100
AcDbVertex
100
AcDb2dVertex
 10
448.3707369213275
 20
619.6216103594176
 30
0.0
  0
SEQEND
  5
53
330
50
100
AcDbEntity
  8
Layer 1
370
    15
  0
SPLINE
  5
54
330
3C
100
AcDbEntity
  8
Layer 1
 62
     7
370
    15
100
AcDbSpline
210
0.0
220
0.0
230
1.0
 70
     8
 71
     3
 72
     8
 73
     4
 74
     0
 42
0.0000000001
 43
0.0000000001
 40
0.0
 40
0.0
 40
0.0
 40
0.0
 40
1.0
 40
1.0
 40
1.0
 40
1.0
 10
683.3701739828033
 20
619.6216103594176
 30
0.0
 10
697.1774276685876
 20
619.6216103594176
 30
0.0
 10
708.3705429001643
 20
630.8143810814457
 30
0.0
 10
708.3705429001643
 20
644.6212902576815
 30
0.0
  0
POLYLINE
  5
55
330
3C
100
AcDbEntity
  8
Layer 1
 62
     7
370
    15
100
AcDb2dPolyline
 66
     1
 10
0.0
 20
0.0
 30
0.0
  0
VERTEX
  5
56
330
55
100
AcDbEntity
  8
Layer 1
 62
     7
370
    15
100
AcDbVertex
100
AcDb2dVertex
 10
448.3707369213275
 20
1024.620834433515
 30
0.0
  0
VERTEX
  5
57
330
55
100
AcDbEntity
  8
Layer 1
 62
     7
370
    15
100
AcDbVertex
100
AcDb2dVertex
 10
448.3707369213275
 20
669.6216591750425
 30
0.0
  0
SEQEND
  5
58
330
55
100
AcDbEntity
  8
Layer 1
370
    15
  0
POLYLINE
  5
59
330
3C
100
AcDbEntity
  8
Layer 1
 62
     7
370
    15
100
AcDb2dPolyline
 66
     1
 10
0.0
 20
0.0
 30
0.0
  0
VERTEX
  5
5A
330
59
100
AcDbEntity
  8
Layer 1
 62
     7
370
    15
100
AcDbVertex
100
AcDb2dVertex
 10
658.3698050654423
 20
1049.620858841327
 30
0.0
  0
VERTEX
  5
5B
330
59
100
AcDbEntity
  8
Layer 1
 62
     7
370
    15
100
AcDbVertex
100
AcDb2dVertex
 10
473.3705890743657
 20
1049.620858841327
 30
0.0
  0
SEQEND
  5
5C
330
59
100
AcDbEntity
  8
Layer 1
370
    15
  0
SPLINE
  5
5D
330
3C
100
AcDbEntity
  8
Layer 1
 62
     7
370
    15
100
AcDbSpline
210
0.0
220
0.0
230
1.0
 70
     8
 71
     3
 72
     8
 73
     4
 74
     0
 42
0.0000000001
 43
0.0000000001
 40
0.0
 40
0.0
 40
0.0
 40
0.0
 40
1.0
 40
1.0
 40
1.0
 40
1.0
 10
473.3705890743657
 20
1049.620858841327
 30
0.0
 10
459.5631631338072
 20
1049.620858841327
 30
0.0
 10
448.3707369213275
 20
1038.428432628848
 30
0.0
 10
448.3707369213275
 20
1024.620834433515
 30
0.0
  0
POLYLINE
  5
5E
330
3C
100
AcDbEntity
  8
Layer 1
 62
     7
370
    15
100
AcDb2dPolyline
 66
     1
 10
0.0
 20
0.0
 30
0.0
  0
VERTEX
  5
5F
330
5E
100
AcDbEntity
  8
Layer 1
 62
     7
370
    15
100
AcDbVertex
100
AcDb2dVertex
 10
683.3701739828033
 20
669.6216591750425
 30
0.0
  0
VERTEX
  5
60
330
5E
100
AcDbEntity
  8
Layer 1
 62
     7
370
    15
100
AcDbVertex
100
AcDb2dVertex
 10
683.3701739828033
 20
1024.620834433515
 30
0.0
  0
SEQEND
  5
61
330
5E
100
AcDbEntity
  8
Layer 1
370
    15
  0
SPLINE
  5
62
330
3C
100
AcDbEntity
  8
Layer 1
 62
     7
370
    15
100
AcDbSpline
210
0.0
220
0.0
230
1.0
 70
     8
 71
     3
 72
     8
 73
     4
 74
     0
 42
0.0000000001
 43
0.0000000001
 40
0.0
 40
0.0
 40
0.0
 40
0.0
 40
1.0
 40
1.0
 40
1.0
 40
1.0
 10
658.3698050654423
 20
644.6212902576815
 30
0.0
 10
672.1770587512266
 20
644.6212902576815
 30
0.0
 10
683.3701739828033
 20
655.8140609797097
 30
0.0
 10
683.3701739828033
 20
669.6216591750425
 30
0.0
  0
SPLINE
  5
63
330
3C
100
AcDbEntity
  8
Layer 1
 62
     7
370
    15
100
AcDbSpline
210
0.0
220
0.0
230
1.0
 70
     8
 71
     3
 72
     8
 73
     4
 74
     0
 42
0.0000000001
 43
0.0000000001
 40
0.0
 40
0.0
 40
0.0
 40
0.0
 40
1.0
 40
1.0
 40
1.0
 40
1.0
 10
683.3701739828033
 20
1024.620834433515
 30
0.0
 10
683.3701739828033
 20
1038.428432628848
 30
0.0
 10
672.1770587512266
 20
1049.620858841327
 30
0.0
 10
658.3698050654423
 20
1049.620858841327
 30
0.0
  0
POLYLINE
  5
64
330
3C
100
AcDbEntity
  8
Layer 1
 62
     7
370
    15
100
AcDb2dPolyline
 66
     1
 10
0.0
 20
0.0
 30
0.0
  0
VERTEX
  5
65
330
64
100
AcDbEntity
  8
Layer 1
 62
     7
370
    15
100
AcDbVertex
100
AcDb2dVertex
 10
473.3705890743657
 20
644.6212902576815
 30
0.0
  0
VERTEX
  5
66
330
64
100
AcDbEntity
  8
Layer 1
 62
     7
370
    15
100
AcDbVertex
100
AcDb2dVertex
 10
658.3698050654423
 20
644.6212902576815
 30
0.0
  0
SEQEND
  5
67
330
64
100
AcDbEntity
  8
Layer 1
370
    15
  0
SPLINE
  5
68
330
3C
100
AcDbEntity
  8
Layer 1
 62
     7
370
    15
100
AcDbSpline
210
0.0
220
0.0
230
1.0
 70
    11
 71
     3
 72
    17
 73
    13
 74
     0
 42
0.0000000001
 43
0.0000000001
 40
0.0
 40
0.0
 40
0.0
 40
0.0
 40
1.0
 40
1.0
 40
1.0
 40
2.0
 40
2.0
 40
2.0
 40
3.0
 40
3.0
 40
3.0
 40
4.0
 40
4.0
 40
4.0
 40
4.0
 10
505.8704140987928
 20
919.6212142340704
 30
0.0
 10
505.8704140987928
 20
886.4842187996463
 30
0.0
 10
532.7330293807056
 20
859.621259008185
 30
0.0
 10
565.8700248151298
 20
859.621259008185
 30
0.0
 10
599.0070202495539
 20
859.621259008185
 30
0.0
 10
625.8701522957895
 20
886.4842187996463
 30
0.0
 10
625.8701522957895
 20
919.6212142340704
 30
0.0
 10
625.8701522957895
 20
952.7583819232688
 30
0.0
 10
599.0070202495539
 20
979.6213417147301
 30
0.0
 10
565.8700248151298
 20
979.6213417147301
 30
0.0
 10
532.7330293807056
 20
979.6213417147301
 30
0.0
 10
505.8704140987928
 20
952.7583819232688
 30
0.0
 10
505.8704140987928
 20
919.6212142340704
 30
0.0
  0
SPLINE
  5
69
330
3C
100
AcDbEntity
  8
Layer 1
 62
     7
370
    15
100
AcDbSpline
210
0.0
220
0.0
230
1.0
 70
    11
 71
     3
 72
    17
 73
    13
 74
     0
 42
0.0000000001
 43
0.0000000001
 40
0.0
 40
0.0
 40
0.0
 40
0.0
 40
1.0
 40
1.0
 40
1.0
 40
2.0
 40
2.0
 40
2.0
 40
3.0
 40
3.0
 40
3.0
 40
4.0
 40
4.0
 40
4.0
 40
4.0
 10
508.8702309925741
 20
919.6212142340704
 30
0.0
 10
508.8702309925741
 20
888.140965218503
 30
0.0
 10
534.3901203091108
 20
862.6210759019663
 30
0.0
 10
565.8700248151298
 20
862.6210759019663
 30
0.0
 10
597.3509628497942
 20
862.6210759019663
 30
0.0
 10
622.8701631472338
 20
888.140965218503
 30
0.0
 10
622.8701631472338
 20
919.6212142340704
 30
0.0
 10
622.8701631472338
 20
951.1012909948636
 30
0.0
 10
597.3509628497942
 20
976.621008056626
 30
0.0
 10
565.8700248151298
 20
976.621008056626
 30
0.0
 10
534.3901203091108
 20
976.621008056626
 30
0.0
 10
508.8702309925741
 20
951.1012909948636
 30
0.0
 10
508.8702309925741
 20
919.6212142340704
 30
0.0
  0
SPLINE
  5
6A
330
3C
100
AcDbEntity
  8
Layer 1
 62
     7
370
    15
100
AcDbSpline
210
0.0
220
0.0
230
1.0
 70
    11
 71
     3
 72
    17
 73
    13
 74
     0
 42
0.0000000001
 43
0.0000000001
 40
0.0
 40
0.0
 40
0.0
 40
0.0
 40
1.0
 40
1.0
 40
1.0
 40
2.0
 40
2.0
 40
2.0
 40
3.0
 40
3.0
 40
3.0
 40
4.0
 40
4.0
 40
4.0
 40
4.0
 10
520.8219562500028
 20
919.6212142340704
 30
0.0
 10
520.8219562500028
 20
894.7415959134674
 30
0.0
 10
540.9902342397525
 20
874.5726289046207
 30
0.0
 10
565.8700248151298
 20
874.5726289046207
 30
0.0
 10
590.749815390507
 20
874.5726289046207
 30
0.0
 10
610.9184378898051
 20
894.7415959134674
 30
0.0
 10
610.9184378898051
 20
919.6212142340704
 30
0.0
 10
610.9184378898051
 20
944.5010048094477
 30
0.0
 10
590.749815390507
 20
964.6696273087458
 30
0.0
 10
565.8700248151298
 20
964.6696273087458
 30
0.0
 10
540.9902342397525
 20
964.6696273087458
 30
0.0
 10
520.8219562500028
 20
944.5010048094477
 30
0.0
 10
520.8219562500028
 20
919.6212142340704
 30
0.0
  0
SPLINE
  5
6B
330
3C
100
AcDbEntity
  8
Layer 1
 62
     7
370
    15
100
AcDbSpline
210
0.0
220
0.0
230
1.0
 70
    11
 71
     3
 72
    17
 73
    13
 74
     0
 42
0.0000000001
 43
0.0000000001
 40
0.0
 40
0.0
 40
0.0
 40
0.0
 40
1.0
 40
1.0
 40
1.0
 40
2.0
 40
2.0
 40
2.0
 40
3.0
 40
3.0
 40
3.0
 40
4.0
 40
4.0
 40
4.0
 40
4.0
 10
520.8705320963448
 20
919.6212142340704
 30
0.0
 10
520.8705320963448
 20
894.7682954034781
 30
0.0
 10
541.0177950036344
 20
874.6212047509628
 30
0.0
 10
565.8700248151298
 20
874.6212047509628
 30
0.0
 10
590.7229436457221
 20
874.6212047509628
 30
0.0
 10
610.8702065530116
 20
894.7682954034781
 30
0.0
 10
610.8702065530116
 20
919.6212142340704
 30
0.0
 10
610.8702065530116
 20
944.4739608098885
 30
0.0
 10
590.7229436457221
 20
964.621223717178
 30
0.0
 10
565.8700248151298
 20
964.621223717178
 30
0.0
 10
541.0177950036344
 20
964.621223717178
 30
0.0
 10
520.8705320963448
 20
944.4739608098885
 30
0.0
 10
520.8705320963448
 20
919.6212142340704
 30
0.0
  0
POLYLINE
  5
6C
330
3C
100
AcDbEntity
  8
Layer 1
370
     0
100
AcDb2dPolyline
 66
     1
 10
0.0
 20
0.0
 30
0.0
  0
VERTEX
  5
6D
330
6C
100
AcDbEntity
  8
Layer 1
370
     0
100
AcDbVertex
100
AcDb2dVertex
 10
186.7236585362184
 20
619.6216103594176
 30
0.0
  0
VERTEX
  5
6E
330
6C
100
AcDbEntity
  8
Layer 1
370
     0
100
AcDbVertex
100
AcDb2dVertex
 10
181.723619203701
 20
649.6215018449732
 30
0.0
  0
VERTEX
  5
6F
330
6C
100
AcDbEntity
  8
Layer 1
370
     0
100
AcDbVertex
100
AcDb2dVertex
 10
191.7233533591872
 20
649.6215018449732
 30
0.0
  0
SEQEND
  5
70
330
6C
100
AcDbEntity
  8
Layer 1
370
     0
  0
HATCH
  5
71
330
3C
100
AcDbEntity
  8
Layer 1
 62
     7
100
AcDbHatch
 10
0.0
 20
0.0
 30
0.0
210
0.0
220
0.0
230
1.0
  2
SOLID
 70
     1
 71
     0
 91
        1
 92
        1
 93
        3
 72
     1
 10
186.7236585362184
 20
619.6216103594176
 11
181.723619203701
 21
649.6215018449732
 72
     1
 10
181.723619203701
 20
649.6215018449732
 11
191.7233533591872
 21
649.6215018449732
 72
     1
 10
191.7233533591872
 20
649.6215018449732
 11
186.7236585362184
 21
619.6216103594176
 97
        0
 75
     2
 76
     1
 98
        0
  0
POLYLINE
  5
72
330
3C
100
AcDbEntity
  8
Layer 1
370
     0
100
AcDb2dPolyline
 66
     1
 10
0.0
 20
0.0
 30
0.0
  0
VERTEX
  5
73
330
72
100
AcDbEntity
  8
Layer 1
370
     0
100
AcDbVertex
100
AcDb2dVertex
 10
186.7236585362184
 20
1074.621055503914
 30
0.0
  0
VERTEX
  5
74
330
72
100
AcDbEntity
  8
Layer 1
370
     0
100
AcDbVertex
100
AcDb2dVertex
 10
191.7233533591872
 20
1044.620991763584
 30
0.0
  0
VERTEX
  5
75
330
72
100
AcDbEntity
  8
Layer 1
370
     0
100
AcDbVertex
100
AcDb2dVertex
 10
181.723619203701
 20
1044.620991763584
 30
0.0
  0
SEQEND
  5
76
330
72
100
AcDbEntity
  8
Layer 1
370
     0
  0
HATCH
  5
77
330
3C
100
AcDbEntity
  8
Layer 1
 62
     7
100
AcDbHatch
 10
0.0
 20
0.0
 30
0.0
210
0.0
220
0.0
230
1.0
  2
SOLID
 70
     1
 71
     0
 91
        1
 92
        1
 93
        3
 72
     1
 10
186.7236585362184
 20
1074.621055503914
 11
191.7233533591872
 21
1044.620991763584
 72
     1
 10
191.7233533591872
 20
1044.620991763584
 11
181.723619203701
 21
1044.620991763584
 72
     1
 10
181.723619203701
 20
1044.620991763584
 11
186.7236585362184
 21
1074.621055503914
 97
        0
 75
     2
 76
     1
 98
        0
  0
POLYLINE
  5
78
330
3C
100
AcDbEntity
  8
Layer 1
 62
     7
370
    25
100
AcDb2dPolyline
 66
     1
 10
0.0
 20
0.0
 30
0.0
  0
VERTEX
  5
79
330
78
100
AcDbEntity
  8
Layer 1
 62
     7
370
    25
100
AcDbVertex
100
AcDb2dVertex
 10
382.7096285393052
 20
619.6216103594176
 30
0.0
  0
VERTEX
  5
7A
330
78
100
AcDbEntity
  8
Layer 1
 62
     7
370
    25
100
AcDbVertex
100
AcDb2dVertex
 10
176.7234076164094
 20
619.6216103594176
 30
0.0
  0
SEQEND
  5
7B
330
78
100
AcDbEntity
  8
Layer 1
370
    25
  0
POLYLINE
  5
7C
330
3C
100
AcDbEntity
  8
Layer 1
 62
     7
370
    25
100
AcDb2dPolyline
 66
     1
 10
0.0
 20
0.0
 30
0.0
  0
VERTEX
  5
7D
330
7C
100
AcDbEntity
  8
Layer 1
 62
     7
370
    25
100
AcDbVertex
100
AcDb2dVertex
 10
382.7096285393052
 20
1074.621055503914
 30
0.0
  0
VERTEX
  5
7E
330
7C
100
AcDbEntity
  8
Layer 1
 62
     7
370
    25
100
AcDbVertex
100
AcDb2dVertex
 10
176.7234076164094
 20
1074.621055503914
 30
0.0
  0
SEQEND
  5
7F
330
7C
100
AcDbEntity
  8
Layer 1
370
    25
  0
POLYLINE
  5
80
330
3C
100
AcDbEntity
  8
Layer 1
 62
     7
370
    25
100
AcDb2dPolyline
 66
     1
 10
0.0
 20
0.0
 30
0.0
  0
VERTEX
  5
81
330
80
100
AcDbEntity
  8
Layer 1
 62
     7
370
    25
100
AcDbVertex
100
AcDb2dVertex
 10
186.7236585362184
 20
619.6216103594176
 30
0.0
  0
VERTEX
  5
82
330
80
100
AcDbEntity
  8
Layer 1
 62
     7
370
    25
100
AcDbVertex
100
AcDb2dVertex
 10
186.7236585362184
 20
1074.621055503914
 30
0.0
  0
SEQEND
  5
83
330
80
100
AcDbEntity
  8
Layer 1
370
    25
  0
POLYLINE
  5
84
330
3C
100
AcDbEntity
  8
Layer 1
 62
     7
370
    25
100
AcDb2dPolyline
 66
     1
 10
0.0
 20
0.0
 30
0.0
  0
VERTEX
  5
85
330
84
100
AcDbEntity
  8
Layer 1
 62
     7
370
    25
100
AcDbVertex
100
AcDb2dVertex
 10
174.4865071178367
 20
788.4566105884761
 30
0.0
  0
VERTEX
  5
86
330
84
100
AcDbEntity
  8
Layer 1
 62
     7
370
    25
100
AcDbVertex
100
AcDb2dVertex
 10
132.1530015403125
 20
788.4566105884761
 30
0.0
  0
SEQEND
  5
87
330
84
100
AcDbEntity
  8
Layer 1
370
    25
  0
POLYLINE
  5
88
330
3C
100
AcDbEntity
  8
Layer 1
 62
     7
370
    25
100
AcDb2dPolyline
 66
     1
 10
0.0
 20
0.0
 30
0.0
  0
VERTEX
  5
89
330
88
100
AcDbEntity
  8
Layer 1
 62
     7
370
    25
100
AcDbVertex
100
AcDb2dVertex
 10
132.1530015403125
 20
788.4566105884761
 30
0.0
  0
VERTEX
  5
8A
330
88
100
AcDbEntity
  8
Layer 1
 62
     7
370
    25
100
AcDbVertex
100
AcDb2dVertex
 10
160.3752237554791
 20
772.5814383376706
 30
0.0
  0
SEQEND
  5
8B
330
88
100
AcDbEntity
  8
Layer 1
370
    25
  0
POLYLINE
  5
8C
330
3C
100
AcDbEntity
  8
Layer 1
 62
     7
370
    25
100
AcDb2dPolyline
 66
     1
 10
0.0
 20
0.0
 30
0.0
  0
VERTEX
  5
8D
330
8C
100
AcDbEntity
  8
Layer 1
 62
     7
370
    25
100
AcDbVertex
100
AcDb2dVertex
 10
160.3752237554791
 20
772.5814383376706
 30
0.0
  0
VERTEX
  5
8E
330
8C
100
AcDbEntity
  8
Layer 1
 62
     7
370
    25
100
AcDbVertex
100
AcDb2dVertex
 10
160.3752237554791
 20
793.7484495085941
 30
0.0
  0
SEQEND
  5
8F
330
8C
100
AcDbEntity
  8
Layer 1
370
    25
  0
POLYLINE
  5
90
330
3C
100
AcDbEntity
  8
Layer 1
 62
     7
370
    25
100
AcDb2dPolyline
 66
     1
 10
0.0
 20
0.0
 30
0.0
  0
VERTEX
  5
91
330
90
100
AcDbEntity
  8
Layer 1
 62
     7
370
    25
100
AcDbVertex
100
AcDb2dVertex
 10
167.4311238188193
 20
804.3314383297331
 30
0.0
  0
VERTEX
  5
92
330
90
100
AcDbEntity
  8
Layer 1
 62
     7
370
    25
100
AcDbVertex
100
AcDb2dVertex
 10
174.4865071178367
 20
809.6231049950769
 30
0.0
  0
SEQEND
  5
93
330
90
100
AcDbEntity
  8
Layer 1
370
    25
  0
POLYLINE
  5
94
330
3C
100
AcDbEntity
  8
Layer 1
 62
     7
370
    25
100
AcDb2dPolyline
 66
     1
 10
0.0
 20
0.0
 30
0.0
  0
VERTEX
  5
95
330
94
100
AcDbEntity
  8
Layer 1
 62
     7
370
    25
100
AcDbVertex
100
AcDb2dVertex
 10
174.4865071178367
 20
809.6231049950769
 30
0.0
  0
VERTEX
  5
96
330
94
100
AcDbEntity
  8
Layer 1
 62
     7
370
    25
100
AcDbVertex
100
AcDb2dVertex
 10
174.4865071178367
 20
820.2066105805386
 30
0.0
  0
SEQEND
  5
97
330
94
100
AcDbEntity
  8
Layer 1
370
    25
  0
POLYLINE
  5
98
330
3C
100
AcDbEntity
  8
Layer 1
 62
     7
370
    25
100
AcDb2dPolyline
 66
     1
 10
0.0
 20
0.0
 30
0.0
  0
VERTEX
  5
99
330
98
100
AcDbEntity
  8
Layer 1
 62
     7
370
    25
100
AcDbVertex
100
AcDb2dVertex
 10
174.4865071178367
 20
820.2066105805386
 30
0.0
  0
VERTEX
  5
9A
330
98
100
AcDbEntity
  8
Layer 1
 62
     7
370
    25
100
AcDbVertex
100
AcDb2dVertex
 10
167.4311238188193
 20
825.4982772458824
 30
0.0
  0
SEQEND
  5
9B
330
98
100
AcDbEntity
  8
Layer 1
370
    25
  0
POLYLINE
  5
9C
330
3C
100
AcDbEntity
  8
Layer 1
 62
     7
370
    25
100
AcDb2dPolyline
 66
     1
 10
0.0
 20
0.0
 30
0.0
  0
VERTEX
  5
9D
330
9C
100
AcDbEntity
  8
Layer 1
 62
     7
370
    25
100
AcDbVertex
100
AcDb2dVertex
 10
167.4311238188193
 20
825.4982772458824
 30
0.0
  0
VERTEX
  5
9E
330
9C
100
AcDbEntity
  8
Layer 1
 62
     7
370
    25
100
AcDbVertex
100
AcDb2dVertex
 10
153.320012711236
 20
825.4982772458824
 30
0.0
  0
SEQEND
  5
9F
330
9C
100
AcDbEntity
  8
Layer 1
370
    25
  0
POLYLINE
  5
A0
330
3C
100
AcDbEntity
  8
Layer 1
 62
     7
370
    25
100
AcDb2dPolyline
 66
     1
 10
0.0
 20
0.0
 30
0.0
  0
VERTEX
  5
A1
330
A0
100
AcDbEntity
  8
Layer 1
 62
     7
370
    25
100
AcDbVertex
100
AcDb2dVertex
 10
153.320012711236
 20
825.4982772458824
 30
0.0
  0
VERTEX
  5
A2
330
A0
100
AcDbEntity
  8
Layer 1
 62
     7
370
    25
100
AcDbVertex
100
AcDb2dVertex
 10
146.2641126478958
 20
820.2066105805386
 30
0.0
  0
SEQEND
  5
A3
330
A0
100
AcDbEntity
  8
Layer 1
370
    25
  0
POLYLINE
  5
A4
330
3C
100
AcDbEntity
  8
Layer 1
 62
     7
370
    25
100
AcDb2dPolyline
 66
     1
 10
0.0
 20
0.0
 30
0.0
  0
VERTEX
  5
A5
330
A4
100
AcDbEntity
  8
Layer 1
 62
     7
370
    25
100
AcDbVertex
100
AcDb2dVertex
 10
146.2641126478958
 20
820.2066105805386
 30
0.0
  0
VERTEX
  5
A6
330
A4
100
AcDbEntity
  8
Layer 1
 62
     7
370
    25
100
AcDbVertex
100
AcDb2dVertex
 10
146.2641126478958
 20
804.3314383297331
 30
0.0
  0
SEQEND
  5
A7
330
A4
100
AcDbEntity
  8
Layer 1
370
    25
  0
POLYLINE
  5
A8
330
3C
100
AcDbEntity
  8
Layer 1
 62
     7
370
    25
100
AcDb2dPolyline
 66
     1
 10
0.0
 20
0.0
 30
0.0
  0
VERTEX
  5
A9
330
A8
100
AcDbEntity
  8
Layer 1
 62
     7
370
    25
100
AcDbVertex
100
AcDb2dVertex
 10
146.2641126478958
 20
804.3314383297331
 30
0.0
  0
VERTEX
  5
AA
330
A8
100
AcDbEntity
  8
Layer 1
 62
     7
370
    25
100
AcDbVertex
100
AcDb2dVertex
 10
132.1530015403125
 20
804.3314383297331
 30
0.0
  0
SEQEND
  5
AB
330
A8
100
AcDbEntity
  8
Layer 1
370
    25
  0
POLYLINE
  5
AC
330
3C
100
AcDbEntity
  8
Layer 1
 62
     7
370
    25
100
AcDb2dPolyline
 66
     1
 10
0.0
 20
0.0
 30
0.0
  0
VERTEX
  5
AD
330
AC
100
AcDbEntity
  8
Layer 1
 62
     7
370
    25
100
AcDbVertex
100
AcDb2dVertex
 10
132.1530015403125
 20
804.3314383297331
 30
0.0
  0
VERTEX
  5
AE
330
AC
100
AcDbEntity
  8
Layer 1
 62
     7
370
    25
100
AcDbVertex
100
AcDb2dVertex
 10
132.1530015403125
 20
825.4982772458824
 30
0.0
  0
SEQEND
  5
AF
330
AC
100
AcDbEntity
  8
Layer 1
370
    25
  0
POLYLINE
  5
B0
330
3C
100
AcDbEntity
  8
Layer 1
 62
     7
370
    25
100
AcDb2dPolyline
 66
     1
 10
0.0
 20
0.0
 30
0.0
  0
VERTEX
  5
B1
330
B0
100
AcDbEntity
  8
Layer 1
 62
     7
370
    25
100
AcDbVertex
100
AcDb2dVertex
 10
167.4311238188193
 20
836.0817828313442
 30
0.0
  0
VERTEX
  5
B2
330
B0
100
AcDbEntity
  8
Layer 1
 62
     7
370
    25
100
AcDbVertex
100
AcDb2dVertex
 10
174.4865071178367
 20
841.373449496688
 30
0.0
  0
SEQEND
  5
B3
330
B0
100
AcDbEntity
  8
Layer 1
370
    25
  0
POLYLINE
  5
B4
330
3C
100
AcDbEntity
  8
Layer 1
 62
     7
370
    25
100
AcDb2dPolyline
 66
     1
 10
0.0
 20
0.0
 30
0.0
  0
VERTEX
  5
B5
330
B4
100
AcDbEntity
  8
Layer 1
 62
     7
370
    25
100
AcDbVertex
100
AcDb2dVertex
 10
174.4865071178367
 20
841.373449496688
 30
0.0
  0
VERTEX
  5
B6
330
B4
100
AcDbEntity
  8
Layer 1
 62
     7
370
    25
100
AcDbVertex
100
AcDb2dVertex
 10
174.4865071178367
 20
851.9566105726011
 30
0.0
  0
SEQEND
  5
B7
330
B4
100
AcDbEntity
  8
Layer 1
370
    25
  0
POLYLINE
  5
B8
330
3C
100
AcDbEntity
  8
Layer 1
 62
     7
370
    25
100
AcDb2dPolyline
 66
     1
 10
0.0
 20
0.0
 30
0.0
  0
VERTEX
  5
B9
330
B8
100
AcDbEntity
  8
Layer 1
 62
     7
370
    25
100
AcDbVertex
100
AcDb2dVertex
 10
174.4865071178367
 20
851.9566105726011
 30
0.0
  0
VERTEX
  5
BA
330
B8
100
AcDbEntity
  8
Layer 1
 62
     7
370
    25
100
AcDbVertex
100
AcDb2dVertex
 10
167.4311238188193
 20
857.2482772379449
 30
0.0
  0
SEQEND
  5
BB
330
B8
100
AcDbEntity
  8
Layer 1
370
    25
  0
POLYLINE
  5
BC
330
3C
100
AcDbEntity
  8
Layer 1
 62
     7
370
    25
100
AcDb2dPolyline
 66
     1
 10
0.0
 20
0.0
 30
0.0
  0
VERTEX
  5
BD
330
BC
100
AcDbEntity
  8
Layer 1
 62
     7
370
    25
100
AcDbVertex
100
AcDb2dVertex
 10
167.4311238188193
 20
857.2482772379449
 30
0.0
  0
VERTEX
  5
BE
330
BC
100
AcDbEntity
  8
Layer 1
 62
     7
370
    25
100
AcDbVertex
100
AcDb2dVertex
 10
153.320012711236
 20
857.2482772379449
 30
0.0
  0
SEQEND
  5
BF
330
BC
100
AcDbEntity
  8
Layer 1
370
    25
  0
POLYLINE
  5
C0
330
3C
100
AcDbEntity
  8
Layer 1
 62
     7
370
    25
100
AcDb2dPolyline
 66
     1
 10
0.0
 20
0.0
 30
0.0
  0
VERTEX
  5
C1
330
C0
100
AcDbEntity
  8
Layer 1
 62
     7
370
    25
100
AcDbVertex
100
AcDb2dVertex
 10
153.320012711236
 20
857.2482772379449
 30
0.0
  0
VERTEX
  5
C2
330
C0
100
AcDbEntity
  8
Layer 1
 62
     7
370
    25
100
AcDbVertex
100
AcDb2dVertex
 10
146.2641126478958
 20
851.9566105726011
 30
0.0
  0
SEQEND
  5
C3
330
C0
100
AcDbEntity
  8
Layer 1
370
    25
  0
POLYLINE
  5
C4
330
3C
100
AcDbEntity
  8
Layer 1
 62
     7
370
    25
100
AcDb2dPolyline
 66
     1
 10
0.0
 20
0.0
 30
0.0
  0
VERTEX
  5
C5
330
C4
100
AcDbEntity
  8
Layer 1
 62
     7
370
    25
100
AcDbVertex
100
AcDb2dVertex
 10
146.2641126478958
 20
851.9566105726011
 30
0.0
  0
VERTEX
  5
C6
330
C4
100
AcDbEntity
  8
Layer 1
 62
     7
370
    25
100
AcDbVertex
100
AcDb2dVertex
 10
146.2641126478958
 20
836.0817828313442
 30
0.0
  0
SEQEND
  5
C7
330
C4
100
AcDbEntity
  8
Layer 1
370
    25
  0
POLYLINE
  5
C8
330
3C
100
AcDbEntity
  8
Layer 1
 62
     7
370
    25
100
AcDb2dPolyline
 66
     1
 10
0.0
 20
0.0
 30
0.0
  0
VERTEX
  5
C9
330
C8
100
AcDbEntity
  8
Layer 1
 62
     7
370
    25
100
AcDbVertex
100
AcDb2dVertex
 10
146.2641126478958
 20
836.0817828313442
 30
0.0
  0
VERTEX
  5
CA
330
C8
100
AcDbEntity
  8
Layer 1
 62
     7
370
    25
100
AcDbVertex
100
AcDb2dVertex
 10
132.1530015403125
 20
836.0817828313442
 30
0.0
  0
SEQEND
  5
CB
330
C8
100
AcDbEntity
  8
Layer 1
370
    25
  0
POLYLINE
  5
CC
330
3C
100
AcDbEntity
  8
Layer 1
 62
     7
370
    25
100
AcDb2dPolyline
 66
     1
 10
0.0
 20
0.0
 30
0.0
  0
VERTEX
  5
CD
330
CC
100
AcDbEntity
  8
Layer 1
 62
     7
370
    25
100
AcDbVertex
100
AcDb2dVertex
 10
132.1530015403125
 20
836.0817828313442
 30
0.0
  0
VERTEX
  5
CE
330
CC
100
AcDbEntity
  8
Layer 1
 62
     7
370
    25
100
AcDbVertex
100
AcDb2dVertex
 10
132.1530015403125
 20
857.2482772379449
 30
0.0
  0
SEQEND
  5
CF
330
CC
100
AcDbEntity
  8
Layer 1
370
    25
  0
POLYLINE
  5
D0
330
3C
100
AcDbEntity
  8
Layer 1
370
     0
100
AcDb2dPolyline
 66
     1
 10
0.0
 20
0.0
 30
0.0
  0
VERTEX
  5
D1
330
D0
100
AcDbEntity
  8
Layer 1
370
     0
100
AcDbVertex
100
AcDb2dVertex
 10
263.3708319111539
 20
919.6212142340704
 30
0.0
  0
VERTEX
  5
D2
330
D0
100
AcDbEntity
  8
Layer 1
370
     0
100
AcDbVertex
100
AcDb2dVertex
 10
258.3707925786365
 20
949.6212779744003
 30
0.0
  0
VERTEX
  5
D3
330
D0
100
AcDbEntity
  8
Layer 1
370
     0
100
AcDbVertex
100
AcDb2dVertex
 10
268.3706989888969
 20
949.6212779744003
 30
0.0
  0
SEQEND
  5
D4
330
D0
100
AcDbEntity
  8
Layer 1
370
     0
  0
HATCH
  5
D5
330
3C
100
AcDbEntity
  8
Layer 1
 62
     7
100
AcDbHatch
 10
0.0
 20
0.0
 30
0.0
210
0.0
220
0.0
230
1.0
  2
SOLID
 70
     1
 71
     0
 91
        1
 92
        1
 93
        3
 72
     1
 10
263.3708319111539
 20
919.6212142340704
 11
258.3707925786365
 21
949.6212779744003
 72
     1
 10
258.3707925786365
 20
949.6212779744003
 11
268.3706989888969
 21
949.6212779744003
 72
     1
 10
268.3706989888969
 20
949.6212779744003
 11
263.3708319111539
 21
919.6212142340704
 97
        0
 75
     2
 76
     1
 98
        0
  0
POLYLINE
  5
D6
330
3C
100
AcDbEntity
  8
Layer 1
370
     0
100
AcDb2dPolyline
 66
     1
 10
0.0
 20
0.0
 30
0.0
  0
VERTEX
  5
D7
330
D6
100
AcDbEntity
  8
Layer 1
370
     0
100
AcDbVertex
100
AcDb2dVertex
 10
263.3708319111539
 20
1074.621055503914
 30
0.0
  0
VERTEX
  5
D8
330
D6
100
AcDbEntity
  8
Layer 1
370
     0
100
AcDbVertex
100
AcDb2dVertex
 10
268.3706989888969
 20
1044.620991763584
 30
0.0
  0
VERTEX
  5
D9
330
D6
100
AcDbEntity
  8
Layer 1
370
     0
100
AcDbVertex
100
AcDb2dVertex
 10
258.3707925786365
 20
1044.620991763584
 30
0.0
  0
SEQEND
  5
DA
330
D6
100
AcDbEntity
  8
Layer 1
370
     0
  0
HATCH
  5
DB
330
3C
100
AcDbEntity
  8
Layer 1
 62
     7
100
AcDbHatch
 10
0.0
 20
0.0
 30
0.0
210
0.0
220
0.0
230
1.0
  2
SOLID
 70
     1
 71
     0
 91
        1
 92
        1
 93
        3
 72
     1
 10
263.3708319111539
 20
1074.621055503914
 11
268.3706989888969
 21
1044.620991763584
 72
     1
 10
268.3706989888969
 20
1044.620991763584
 11
258.3707925786365
 21
1044.620991763584
 72
     1
 10
258.3707925786365
 20
1044.620991763584
 11
263.3708319111539
 21
1074.621055503914
 97
        0
 75
     2
 76
     1
 98
        0
  0
POLYLINE
  5
DC
330
3C
100
AcDbEntity
  8
Layer 1
 62
     7
370
    25
100
AcDb2dPolyline
 66
     1
 10
0.0
 20
0.0
 30
0.0
  0
VERTEX
  5
DD
330
DC
100
AcDbEntity
  8
Layer 1
 62
     7
370
    25
100
AcDbVertex
100
AcDb2dVertex
 10
382.1909694140009
 20
919.6212142340704
 30
0.0
  0
VERTEX
  5
DE
330
DC
100
AcDbEntity
  8
Layer 1
 62
     7
370
    25
100
AcDbVertex
100
AcDb2dVertex
 10
253.3705809913449
 20
919.6212142340704
 30
0.0
  0
SEQEND
  5
DF
330
DC
100
AcDbEntity
  8
Layer 1
370
    25
  0
POLYLINE
  5
E0
330
3C
100
AcDbEntity
  8
Layer 1
 62
     7
370
    25
100
AcDb2dPolyline
 66
     1
 10
0.0
 20
0.0
 30
0.0
  0
VERTEX
  5
E1
330
E0
100
AcDbEntity
  8
Layer 1
 62
     7
370
    25
100
AcDbVertex
100
AcDb2dVertex
 10
383.2286321741581
 20
1074.621055503914
 30
0.0
  0
VERTEX
  5
E2
330
E0
100
AcDbEntity
  8
Layer 1
 62
     7
370
    25
100
AcDbVertex
100
AcDb2dVertex
 10
253.3705809913449
 20
1074.621055503914
 30
0.0
  0
SEQEND
  5
E3
330
E0
100
AcDbEntity
  8
Layer 1
370
    25
  0
POLYLINE
  5
E4
330
3C
100
AcDbEntity
  8
Layer 1
 62
     7
370
    25
100
AcDb2dPolyline
 66
     1
 10
0.0
 20
0.0
 30
0.0
  0
VERTEX
  5
E5
330
E4
100
AcDbEntity
  8
Layer 1
 62
     7
370
    25
100
AcDbVertex
100
AcDb2dVertex
 10
263.3708319111539
 20
919.6212142340704
 30
0.0
  0
VERTEX
  5
E6
330
E4
100
AcDbEntity
  8
Layer 1
 62
     7
370
    25
100
AcDbVertex
100
AcDb2dVertex
 10
263.3708319111539
 20
772.5814383376706
 30
0.0
  0
SEQEND
  5
E7
330
E4
100
AcDbEntity
  8
Layer 1
370
    25
  0
POLYLINE
  5
E8
330
3C
100
AcDbEntity
  8
Layer 1
 62
     7
370
    25
100
AcDb2dPolyline
 66
     1
 10
0.0
 20
0.0
 30
0.0
  0
VERTEX
  5
E9
330
E8
100
AcDbEntity
  8
Layer 1
 62
     7
370
    25
100
AcDbVertex
100
AcDb2dVertex
 10
263.3708319111539
 20
919.6212142340704
 30
0.0
  0
VERTEX
  5
EA
330
E8
100
AcDbEntity
  8
Layer 1
 62
     7
370
    25
100
AcDbVertex
100
AcDb2dVertex
 10
263.3708319111539
 20
1074.621055503914
 30
0.0
  0
SEQEND
  5
EB
330
E8
100
AcDbEntity
  8
Layer 1
370
    25
  0
POLYLINE
  5
EC
330
3C
100
AcDbEntity
  8
Layer 1
 62
     7
370
    25
100
AcDb2dPolyline
 66
     1
 10
0.0
 20
0.0
 30
0.0
  0
VERTEX
  5
ED
330
EC
100
AcDbEntity
  8
Layer 1
 62
     7
370
    25
100
AcDbVertex
100
AcDb2dVertex
 10
251.1336804927722
 20
772.5814383376706
 30
0.0
  0
VERTEX
  5
EE
330
EC
100
AcDbEntity
  8
Layer 1
 62
     7
370
    25
100
AcDbVertex
100
AcDb2dVertex
 10
251.1336804927722
 20
783.1649439231325
 30
0.0
  0
SEQEND
  5
EF
330
EC
100
AcDbEntity
  8
Layer 1
370
    25
  0
POLYLINE
  5
F0
330
3C
100
AcDbEntity
  8
Layer 1
 62
     7
370
    25
100
AcDb2dPolyline
 66
     1
 10
0.0
 20
0.0
 30
0.0
  0
VERTEX
  5
F1
330
F0
100
AcDbEntity
  8
Layer 1
 62
     7
370
    25
100
AcDbVertex
100
AcDb2dVertex
 10
251.1336804927722
 20
777.8732772577887
 30
0.0
  0
VERTEX
  5
F2
330
F0
100
AcDbEntity
  8
Layer 1
 62
     7
370
    25
100
AcDbVertex
100
AcDb2dVertex
 10
208.8003471700221
 20
777.8732772577887
 30
0.0
  0
SEQEND
  5
F3
330
F0
100
AcDbEntity
  8
Layer 1
370
    25
  0
POLYLINE
  5
F4
330
3C
100
AcDbEntity
  8
Layer 1
 62
     7
370
    25
100
AcDb2dPolyline
 66
     1
 10
0.0
 20
0.0
 30
0.0
  0
VERTEX
  5
F5
330
F4
100
AcDbEntity
  8
Layer 1
 62
     7
370
    25
100
AcDbVertex
100
AcDb2dVertex
 10
208.8003471700221
 20
777.8732772577887
 30
0.0
  0
VERTEX
  5
F6
330
F4
100
AcDbEntity
  8
Layer 1
 62
     7
370
    25
100
AcDbVertex
100
AcDb2dVertex
 10
215.8555582142653
 20
772.5814383376706
 30
0.0
  0
SEQEND
  5
F7
330
F4
100
AcDbEntity
  8
Layer 1
370
    25
  0
POLYLINE
  5
F8
330
3C
100
AcDbEntity
  8
Layer 1
 62
     7
370
    25
100
AcDb2dPolyline
 66
     1
 10
0.0
 20
0.0
 30
0.0
  0
VERTEX
  5
F9
330
F8
100
AcDbEntity
  8
Layer 1
 62
     7
370
    25
100
AcDbVertex
100
AcDb2dVertex
 10
244.077780429432
 20
793.7484495085941
 30
0.0
  0
VERTEX
  5
FA
330
F8
100
AcDbEntity
  8
Layer 1
 62
     7
370
    25
100
AcDbVertex
100
AcDb2dVertex
 10
251.1336804927722
 20
799.0397716643894
 30
0.0
  0
SEQEND
  5
FB
330
F8
100
AcDbEntity
  8
Layer 1
370
    25
  0
POLYLINE
  5
FC
330
3C
100
AcDbEntity
  8
Layer 1
 62
     7
370
    25
100
AcDb2dPolyline
 66
     1
 10
0.0
 20
0.0
 30
0.0
  0
VERTEX
  5
FD
330
FC
100
AcDbEntity
  8
Layer 1
 62
     7
370
    25
100
AcDbVertex
100
AcDb2dVertex
 10
251.1336804927722
 20
799.0397716643894
 30
0.0
  0
VERTEX
  5
FE
330
FC
100
AcDbEntity
  8
Layer 1
 62
     7
370
    25
100
AcDbVertex
100
AcDb2dVertex
 10
251.1336804927722
 20
809.6231049950769
 30
0.0
  0
SEQEND
  5
FF
330
FC
100
AcDbEntity
  8
Layer 1
370
    25
  0
POLYLINE
  5
100
330
3C
100
AcDbEntity
  8
Layer 1
 62
     7
370
    25
100
AcDb2dPolyline
 66
     1
 10
0.0
 20
0.0
 30
0.0
  0
VERTEX
  5
101
330
100
100
AcDbEntity
  8
Layer 1
 62
     7
370
    25
100
AcDbVertex
100
AcDb2dVertex
 10
251.1336804927722
 20
809.6231049950769
 30
0.0
  0
VERTEX
  5
102
330
100
100
AcDbEntity
  8
Layer 1
 62
     7
370
    25
100
AcDbVertex
100
AcDb2dVertex
 10
244.077780429432
 20
814.914943915195
 30
0.0
  0
SEQEND
  5
103
330
100
100
AcDbEntity
  8
Layer 1
370
    25
  0
POLYLINE
  5
104
330
3C
100
AcDbEntity
  8
Layer 1
 62
     7
370
    25
100
AcDb2dPolyline
 66
     1
 10
0.0
 20
0.0
 30
0.0
  0
VERTEX
  5
105
330
104
100
AcDbEntity
  8
Layer 1
 62
     7
370
    25
100
AcDbVertex
100
AcDb2dVertex
 10
244.077780429432
 20
814.914943915195
 30
0.0
  0
VERTEX
  5
106
330
104
100
AcDbEntity
  8
Layer 1
 62
     7
370
    25
100
AcDbVertex
100
AcDb2dVertex
 10
229.9666693218486
 20
814.914943915195
 30
0.0
  0
SEQEND
  5
107
330
104
100
AcDbEntity
  8
Layer 1
370
    25
  0
POLYLINE
  5
108
330
3C
100
AcDbEntity
  8
Layer 1
 62
     7
370
    25
100
AcDb2dPolyline
 66
     1
 10
0.0
 20
0.0
 30
0.0
  0
VERTEX
  5
109
330
108
100
AcDbEntity
  8
Layer 1
 62
     7
370
    25
100
AcDbVertex
100
AcDb2dVertex
 10
229.9666693218486
 20
814.914943915195
 30
0.0
  0
VERTEX
  5
10A
330
108
100
AcDbEntity
  8
Layer 1
 62
     7
370
    25
100
AcDbVertex
100
AcDb2dVertex
 10
222.9114582776055
 20
809.6231049950769
 30
0.0
  0
SEQEND
  5
10B
330
108
100
AcDbEntity
  8
Layer 1
370
    25
  0
POLYLINE
  5
10C
330
3C
100
AcDbEntity
  8
Layer 1
 62
     7
370
    25
100
AcDb2dPolyline
 66
     1
 10
0.0
 20
0.0
 30
0.0
  0
VERTEX
  5
10D
330
10C
100
AcDbEntity
  8
Layer 1
 62
     7
370
    25
100
AcDbVertex
100
AcDb2dVertex
 10
222.9114582776055
 20
809.6231049950769
 30
0.0
  0
VERTEX
  5
10E
330
10C
100
AcDbEntity
  8
Layer 1
 62
     7
370
    25
100
AcDbVertex
100
AcDb2dVertex
 10
222.9114582776055
 20
793.7484495085941
 30
0.0
  0
SEQEND
  5
10F
330
10C
100
AcDbEntity
  8
Layer 1
370
    25
  0
POLYLINE
  5
110
330
3C
100
AcDbEntity
  8
Layer 1
 62
     7
370
    25
100
AcDb2dPolyline
 66
     1
 10
0.0
 20
0.0
 30
0.0
  0
VERTEX
  5
111
330
110
100
AcDbEntity
  8
Layer 1
 62
     7
370
    25
100
AcDbVertex
100
AcDb2dVertex
 10
222.9114582776055
 20
793.7484495085941
 30
0.0
  0
VERTEX
  5
112
330
110
100
AcDbEntity
  8
Layer 1
 62
     7
370
    25
100
AcDbVertex
100
AcDb2dVertex
 10
208.8003471700221
 20
793.7484495085941
 30
0.0
  0
SEQEND
  5
113
330
110
100
AcDbEntity
  8
Layer 1
370
    25
  0
POLYLINE
  5
114
330
3C
100
AcDbEntity
  8
Layer 1
 62
     7
370
    25
100
AcDb2dPolyline
 66
     1
 10
0.0
 20
0.0
 30
0.0
  0
VERTEX
  5
115
330
114
100
AcDbEntity
  8
Layer 1
 62
     7
370
    25
100
AcDbVertex
100
AcDb2dVertex
 10
208.8003471700221
 20
793.7484495085941
 30
0.0
  0
VERTEX
  5
116
330
114
100
AcDbEntity
  8
Layer 1
 62
     7
370
    25
100
AcDbVertex
100
AcDb2dVertex
 10
208.8003471700221
 20
814.914943915195
 30
0.0
  0
SEQEND
  5
117
330
114
100
AcDbEntity
  8
Layer 1
370
    25
  0
POLYLINE
  5
118
330
3C
100
AcDbEntity
  8
Layer 1
 62
     7
370
    25
100
AcDb2dPolyline
 66
     1
 10
0.0
 20
0.0
 30
0.0
  0
VERTEX
  5
119
330
118
100
AcDbEntity
  8
Layer 1
 62
     7
370
    25
100
AcDbVertex
100
AcDb2dVertex
 10
244.077780429432
 20
825.4982772458824
 30
0.0
  0
VERTEX
  5
11A
330
118
100
AcDbEntity
  8
Layer 1
 62
     7
370
    25
100
AcDbVertex
100
AcDb2dVertex
 10
251.1336804927722
 20
830.7901161660004
 30
0.0
  0
SEQEND
  5
11B
330
118
100
AcDbEntity
  8
Layer 1
370
    25
  0
POLYLINE
  5
11C
330
3C
100
AcDbEntity
  8
Layer 1
 62
     7
370
    25
100
AcDb2dPolyline
 66
     1
 10
0.0
 20
0.0
 30
0.0
  0
VERTEX
  5
11D
330
11C
100
AcDbEntity
  8
Layer 1
 62
     7
370
    25
100
AcDbVertex
100
AcDb2dVertex
 10
251.1336804927722
 20
830.7901161660004
 30
0.0
  0
VERTEX
  5
11E
330
11C
100
AcDbEntity
  8
Layer 1
 62
     7
370
    25
100
AcDbVertex
100
AcDb2dVertex
 10
251.1336804927722
 20
841.373449496688
 30
0.0
  0
SEQEND
  5
11F
330
11C
100
AcDbEntity
  8
Layer 1
370
    25
  0
POLYLINE
  5
120
330
3C
100
AcDbEntity
  8
Layer 1
 62
     7
370
    25
100
AcDb2dPolyline
 66
     1
 10
0.0
 20
0.0
 30
0.0
  0
VERTEX
  5
121
330
120
100
AcDbEntity
  8
Layer 1
 62
     7
370
    25
100
AcDbVertex
100
AcDb2dVertex
 10
251.1336804927722
 20
841.373449496688
 30
0.0
  0
VERTEX
  5
122
330
120
100
AcDbEntity
  8
Layer 1
 62
     7
370
    25
100
AcDbVertex
100
AcDb2dVertex
 10
244.077780429432
 20
846.6647716524832
 30
0.0
  0
SEQEND
  5
123
330
120
100
AcDbEntity
  8
Layer 1
370
    25
  0
POLYLINE
  5
124
330
3C
100
AcDbEntity
  8
Layer 1
 62
     7
370
    25
100
AcDb2dPolyline
 66
     1
 10
0.0
 20
0.0
 30
0.0
  0
VERTEX
  5
125
330
124
100
AcDbEntity
  8
Layer 1
 62
     7
370
    25
100
AcDbVertex
100
AcDb2dVertex
 10
244.077780429432
 20
846.6647716524832
 30
0.0
  0
VERTEX
  5
126
330
124
100
AcDbEntity
  8
Layer 1
 62
     7
370
    25
100
AcDbVertex
100
AcDb2dVertex
 10
229.9666693218486
 20
846.6647716524832
 30
0.0
  0
SEQEND
  5
127
330
124
100
AcDbEntity
  8
Layer 1
370
    25
  0
POLYLINE
  5
128
330
3C
100
AcDbEntity
  8
Layer 1
 62
     7
370
    25
100
AcDb2dPolyline
 66
     1
 10
0.0
 20
0.0
 30
0.0
  0
VERTEX
  5
129
330
128
100
AcDbEntity
  8
Layer 1
 62
     7
370
    25
100
AcDbVertex
100
AcDb2dVertex
 10
229.9666693218486
 20
846.6647716524832
 30
0.0
  0
VERTEX
  5
12A
330
128
100
AcDbEntity
  8
Layer 1
 62
     7
370
    25
100
AcDbVertex
100
AcDb2dVertex
 10
222.9114582776055
 20
841.373449496688
 30
0.0
  0
SEQEND
  5
12B
330
128
100
AcDbEntity
  8
Layer 1
370
    25
  0
POLYLINE
  5
12C
330
3C
100
AcDbEntity
  8
Layer 1
 62
     7
370
    25
100
AcDb2dPolyline
 66
     1
 10
0.0
 20
0.0
 30
0.0
  0
VERTEX
  5
12D
330
12C
100
AcDbEntity
  8
Layer 1
 62
     7
370
    25
100
AcDbVertex
100
AcDb2dVertex
 10
222.9114582776055
 20
841.373449496688
 30
0.0
  0
VERTEX
  5
12E
330
12C
100
AcDbEntity
  8
Layer 1
 62
     7
370
    25
100
AcDbVertex
100
AcDb2dVertex
 10
222.9114582776055
 20
825.4982772458824
 30
0.0
  0
SEQEND
  5
12F
330
12C
100
AcDbEntity
  8
Layer 1
370
    25
  0
POLYLINE
  5
130
330
3C
100
AcDbEntity
  8
Layer 1
 62
     7
370
    25
100
AcDb2dPolyline
 66
     1
 10
0.0
 20
0.0
 30
0.0
  0
VERTEX
  5
131
330
130
100
AcDbEntity
  8
Layer 1
 62
     7
370
    25
100
AcDbVertex
100
AcDb2dVertex
 10
222.9114582776055
 20
825.4982772458824
 30
0.0
  0
VERTEX
  5
132
330
130
100
AcDbEntity
  8
Layer 1
 62
     7
370
    25
100
AcDbVertex
100
AcDb2dVertex
 10
208.8003471700221
 20
825.4982772458824
 30
0.0
  0
SEQEND
  5
133
330
130
100
AcDbEntity
  8
Layer 1
370
    25
  0
POLYLINE
  5
134
330
3C
100
AcDbEntity
  8
Layer 1
 62
     7
370
    25
100
AcDb2dPolyline
 66
     1
 10
0.0
 20
0.0
 30
0.0
  0
VERTEX
  5
135
330
134
100
AcDbEntity
  8
Layer 1
 62
     7
370
    25
100
AcDbVertex
100
AcDb2dVertex
 10
208.8003471700221
 20
825.4982772458824
 30
0.0
  0
VERTEX
  5
136
330
134
100
AcDbEntity
  8
Layer 1
 62
     7
370
    25
100
AcDbVertex
100
AcDb2dVertex
 10
208.8003471700221
 20
846.6647716524832
 30
0.0
  0
SEQEND
  5
137
330
134
100
AcDbEntity
  8
Layer 1
370
    25
  0
POLYLINE
  5
138
330
3C
100
AcDbEntity
  8
Layer 1
370
     0
100
AcDb2dPolyline
 66
     1
 10
0.0
 20
0.0
 30
0.0
  0
VERTEX
  5
139
330
138
100
AcDbEntity
  8
Layer 1
370
     0
100
AcDbVertex
100
AcDb2dVertex
 10
868.3700789929769
 20
1049.620858841327
 30
0.0
  0
VERTEX
  5
13A
330
138
100
AcDbEntity
  8
Layer 1
370
     0
100
AcDbVertex
100
AcDb2dVertex
 10
873.3699460707201
 20
1019.621139610546
 30
0.0
  0
VERTEX
  5
13B
330
138
100
AcDbEntity
  8
Layer 1
370
     0
100
AcDbVertex
100
AcDb2dVertex
 10
863.3702119152339
 20
1019.621139610546
 30
0.0
  0
SEQEND
  5
13C
330
138
100
AcDbEntity
  8
Layer 1
370
     0
  0
HATCH
  5
13D
330
3C
100
AcDbEntity
  8
Layer 1
 62
     7
100
AcDbHatch
 10
0.0
 20
0.0
 30
0.0
210
0.0
220
0.0
230
1.0
  2
SOLID
 70
     1
 71
     0
 91
        1
 92
        1
 93
        3
 72
     1
 10
868.3700789929769
 20
1049.620858841327
 11
873.3699460707201
 21
1019.621139610546
 72
     1
 10
873.3699460707201
 20
1019.621139610546
 11
863.3702119152339
 21
1019.621139610546
 72
     1
 10
863.3702119152339
 20
1019.621139610546
 11
868.3700789929769
 21
1049.620858841327
 97
        0
 75
     2
 76
     1
 98
        0
  0
POLYLINE
  5
13E
330
3C
100
AcDbEntity
  8
Layer 1
370
     0
100
AcDb2dPolyline
 66
     1
 10
0.0
 20
0.0
 30
0.0
  0
VERTEX
  5
13F
330
13E
100
AcDbEntity
  8
Layer 1
370
     0
100
AcDbVertex
100
AcDb2dVertex
 10
868.3700789929769
 20
644.6212902576815
 30
0.0
  0
VERTEX
  5
140
330
13E
100
AcDbEntity
  8
Layer 1
370
     0
100
AcDbVertex
100
AcDb2dVertex
 10
863.3702119152339
 20
674.6213539980114
 30
0.0
  0
VERTEX
  5
141
330
13E
100
AcDbEntity
  8
Layer 1
370
     0
100
AcDbVertex
100
AcDb2dVertex
 10
873.3699460707201
 20
674.6213539980114
 30
0.0
  0
SEQEND
  5
142
330
13E
100
AcDbEntity
  8
Layer 1
370
     0
  0
HATCH
  5
143
330
3C
100
AcDbEntity
  8
Layer 1
 62
     7
100
AcDbHatch
 10
0.0
 20
0.0
 30
0.0
210
0.0
220
0.0
230
1.0
  2
SOLID
 70
     1
 71
     0
 91
        1
 92
        1
 93
        3
 72
     1
 10
868.3700789929769
 20
644.6212902576815
 11
863.3702119152339
 21
674.6213539980114
 72
     1
 10
863.3702119152339
 20
674.6213539980114
 11
873.3699460707201
 21
674.6213539980114
 72
     1
 10
873.3699460707201
 20
674.6213539980114
 11
868.3700789929769
 21
644.6212902576815
 97
        0
 75
     2
 76
     1
 98
        0
  0
POLYLINE
  5
144
330
3C
100
AcDbEntity
  8
Layer 1
 62
     7
370
    25
100
AcDb2dPolyline
 66
     1
 10
0.0
 20
0.0
 30
0.0
  0
VERTEX
  5
145
330
144
100
AcDbEntity
  8
Layer 1
 62
     7
370
    25
100
AcDbVertex
100
AcDb2dVertex
 10
748.9954533717789
 20
1049.620858841327
 30
0.0
  0
VERTEX
  5
146
330
144
100
AcDbEntity
  8
Layer 1
 62
     7
370
    25
100
AcDbVertex
100
AcDb2dVertex
 10
878.3694686389147
 20
1049.620858841327
 30
0.0
  0
SEQEND
  5
147
330
144
100
AcDbEntity
  8
Layer 1
370
    25
  0
POLYLINE
  5
148
330
3C
100
AcDbEntity
  8
Layer 1
 62
     7
370
    25
100
AcDb2dPolyline
 66
     1
 10
0.0
 20
0.0
 30
0.0
  0
VERTEX
  5
149
330
148
100
AcDbEntity
  8
Layer 1
 62
     7
370
    25
100
AcDbVertex
100
AcDb2dVertex
 10
748.5031492269368
 20
644.6212902576815
 30
0.0
  0
VERTEX
  5
14A
330
148
100
AcDbEntity
  8
Layer 1
 62
     7
370
    25
100
AcDbVertex
100
AcDb2dVertex
 10
878.3694686389147
 20
644.6212902576815
 30
0.0
  0
SEQEND
  5
14B
330
148
100
AcDbEntity
  8
Layer 1
370
    25
  0
POLYLINE
  5
14C
330
3C
100
AcDbEntity
  8
Layer 1
 62
     7
370
    25
100
AcDb2dPolyline
 66
     1
 10
0.0
 20
0.0
 30
0.0
  0
VERTEX
  5
14D
330
14C
100
AcDbEntity
  8
Layer 1
 62
     7
370
    25
100
AcDbVertex
100
AcDb2dVertex
 10
868.3700789929769
 20
1049.620858841327
 30
0.0
  0
VERTEX
  5
14E
330
14C
100
AcDbEntity
  8
Layer 1
 62
     7
370
    25
100
AcDbVertex
100
AcDb2dVertex
 10
868.3700789929769
 20
644.6212902576815
 30
0.0
  0
SEQEND
  5
14F
330
14C
100
AcDbEntity
  8
Layer 1
370
    25
  0
POLYLINE
  5
150
330
3C
100
AcDbEntity
  8
Layer 1
 62
     7
370
    25
100
AcDb2dPolyline
 66
     1
 10
0.0
 20
0.0
 30
0.0
  0
VERTEX
  5
151
330
150
100
AcDbEntity
  8
Layer 1
 62
     7
370
    25
100
AcDbVertex
100
AcDb2dVertex
 10
856.1327553198211
 20
797.8742958617294
 30
0.0
  0
VERTEX
  5
152
330
150
100
AcDbEntity
  8
Layer 1
 62
     7
370
    25
100
AcDbVertex
100
AcDb2dVertex
 10
813.7990774875225
 20
797.8742958617294
 30
0.0
  0
SEQEND
  5
153
330
150
100
AcDbEntity
  8
Layer 1
370
    25
  0
POLYLINE
  5
154
330
3C
100
AcDbEntity
  8
Layer 1
 62
     7
370
    25
100
AcDb2dPolyline
 66
     1
 10
0.0
 20
0.0
 30
0.0
  0
VERTEX
  5
155
330
154
100
AcDbEntity
  8
Layer 1
 62
     7
370
    25
100
AcDbVertex
100
AcDb2dVertex
 10
813.7990774875225
 20
797.8742958617294
 30
0.0
  0
VERTEX
  5
156
330
154
100
AcDbEntity
  8
Layer 1
 62
     7
370
    25
100
AcDbVertex
100
AcDb2dVertex
 10
842.0219887217862
 20
781.9991236109239
 30
0.0
  0
SEQEND
  5
157
330
154
100
AcDbEntity
  8
Layer 1
370
    25
  0
POLYLINE
  5
158
330
3C
100
AcDbEntity
  8
Layer 1
 62
     7
370
    25
100
AcDb2dPolyline
 66
     1
 10
0.0
 20
0.0
 30
0.0
  0
VERTEX
  5
159
330
158
100
AcDbEntity
  8
Layer 1
 62
     7
370
    25
100
AcDbVertex
100
AcDb2dVertex
 10
842.0219887217862
 20
781.9991236109239
 30
0.0
  0
VERTEX
  5
15A
330
158
100
AcDbEntity
  8
Layer 1
 62
     7
370
    25
100
AcDbVertex
100
AcDb2dVertex
 10
842.0219887217862
 20
803.1659625270731
 30
0.0
  0
SEQEND
  5
15B
330
158
100
AcDbEntity
  8
Layer 1
370
    25
  0
POLYLINE
  5
15C
330
3C
100
AcDbEntity
  8
Layer 1
 62
     7
370
    25
100
AcDb2dPolyline
 66
     1
 10
0.0
 20
0.0
 30
0.0
  0
VERTEX
  5
15D
330
15C
100
AcDbEntity
  8
Layer 1
 62
     7
370
    25
100
AcDbVertex
100
AcDb2dVertex
 10
856.1327553198211
 20
819.0411347778786
 30
0.0
  0
VERTEX
  5
15E
330
15C
100
AcDbEntity
  8
Layer 1
 62
     7
370
    25
100
AcDbVertex
100
AcDb2dVertex
 10
849.0775442755779
 20
813.7494681125349
 30
0.0
  0
SEQEND
  5
15F
330
15C
100
AcDbEntity
  8
Layer 1
370
    25
  0
POLYLINE
  5
160
330
3C
100
AcDbEntity
  8
Layer 1
 62
     7
370
    25
100
AcDb2dPolyline
 66
     1
 10
0.0
 20
0.0
 30
0.0
  0
VERTEX
  5
161
330
160
100
AcDbEntity
  8
Layer 1
 62
     7
370
    25
100
AcDbVertex
100
AcDb2dVertex
 10
849.0775442755779
 20
813.7494681125349
 30
0.0
  0
VERTEX
  5
162
330
160
100
AcDbEntity
  8
Layer 1
 62
     7
370
    25
100
AcDbVertex
100
AcDb2dVertex
 10
820.8553220604113
 20
813.7494681125349
 30
0.0
  0
SEQEND
  5
163
330
160
100
AcDbEntity
  8
Layer 1
370
    25
  0
POLYLINE
  5
164
330
3C
100
AcDbEntity
  8
Layer 1
 62
     7
370
    25
100
AcDb2dPolyline
 66
     1
 10
0.0
 20
0.0
 30
0.0
  0
VERTEX
  5
165
330
164
100
AcDbEntity
  8
Layer 1
 62
     7
370
    25
100
AcDbVertex
100
AcDb2dVertex
 10
820.8553220604113
 20
813.7494681125349
 30
0.0
  0
VERTEX
  5
166
330
164
100
AcDbEntity
  8
Layer 1
 62
     7
370
    25
100
AcDbVertex
100
AcDb2dVertex
 10
813.7990774875225
 20
819.0411347778786
 30
0.0
  0
SEQEND
  5
167
330
164
100
AcDbEntity
  8
Layer 1
370
    25
  0
POLYLINE
  5
168
330
3C
100
AcDbEntity
  8
Layer 1
 62
     7
370
    25
100
AcDb2dPolyline
 66
     1
 10
0.0
 20
0.0
 30
0.0
  0
VERTEX
  5
169
330
168
100
AcDbEntity
  8
Layer 1
 62
     7
370
    25
100
AcDbVertex
100
AcDb2dVertex
 10
813.7990774875225
 20
819.0411347778786
 30
0.0
  0
VERTEX
  5
16A
330
168
100
AcDbEntity
  8
Layer 1
 62
     7
370
    25
100
AcDbVertex
100
AcDb2dVertex
 10
813.7990774875225
 20
824.3328014432224
 30
0.0
  0
SEQEND
  5
16B
330
168
100
AcDbEntity
  8
Layer 1
370
    25
  0
POLYLINE
  5
16C
330
3C
100
AcDbEntity
  8
Layer 1
 62
     7
370
    25
100
AcDb2dPolyline
 66
     1
 10
0.0
 20
0.0
 30
0.0
  0
VERTEX
  5
16D
330
16C
100
AcDbEntity
  8
Layer 1
 62
     7
370
    25
100
AcDbVertex
100
AcDb2dVertex
 10
813.7990774875225
 20
824.3328014432224
 30
0.0
  0
VERTEX
  5
16E
330
16C
100
AcDbEntity
  8
Layer 1
 62
     7
370
    25
100
AcDbVertex
100
AcDb2dVertex
 10
820.8553220604113
 20
829.6241235990176
 30
0.0
  0
SEQEND
  5
16F
330
16C
100
AcDbEntity
  8
Layer 1
370
    25
  0
POLYLINE
  5
170
330
3C
100
AcDbEntity
  8
Layer 1
 62
     7
370
    25
100
AcDb2dPolyline
 66
     1
 10
0.0
 20
0.0
 30
0.0
  0
VERTEX
  5
171
330
170
100
AcDbEntity
  8
Layer 1
 62
     7
370
    25
100
AcDbVertex
100
AcDb2dVertex
 10
820.8553220604113
 20
829.6241235990176
 30
0.0
  0
VERTEX
  5
172
330
170
100
AcDbEntity
  8
Layer 1
 62
     7
370
    25
100
AcDbVertex
100
AcDb2dVertex
 10
849.0775442755779
 20
829.6241235990176
 30
0.0
  0
SEQEND
  5
173
330
170
100
AcDbEntity
  8
Layer 1
370
    25
  0
POLYLINE
  5
174
330
3C
100
AcDbEntity
  8
Layer 1
 62
     7
370
    25
100
AcDb2dPolyline
 66
     1
 10
0.0
 20
0.0
 30
0.0
  0
VERTEX
  5
175
330
174
100
AcDbEntity
  8
Layer 1
 62
     7
370
    25
100
AcDbVertex
100
AcDb2dVertex
 10
849.0775442755779
 20
829.6241235990176
 30
0.0
  0
VERTEX
  5
176
330
174
100
AcDbEntity
  8
Layer 1
 62
     7
370
    25
100
AcDbVertex
100
AcDb2dVertex
 10
856.1327553198211
 20
824.3328014432224
 30
0.0
  0
SEQEND
  5
177
330
174
100
AcDbEntity
  8
Layer 1
370
    25
  0
POLYLINE
  5
178
330
3C
100
AcDbEntity
  8
Layer 1
 62
     7
370
    25
100
AcDb2dPolyline
 66
     1
 10
0.0
 20
0.0
 30
0.0
  0
VERTEX
  5
179
330
178
100
AcDbEntity
  8
Layer 1
 62
     7
370
    25
100
AcDbVertex
100
AcDb2dVertex
 10
856.1327553198211
 20
824.3328014432224
 30
0.0
  0
VERTEX
  5
17A
330
178
100
AcDbEntity
  8
Layer 1
 62
     7
370
    25
100
AcDbVertex
100
AcDb2dVertex
 10
856.1327553198211
 20
819.0411347778786
 30
0.0
  0
SEQEND
  5
17B
330
178
100
AcDbEntity
  8
Layer 1
370
    25
  0
POLYLINE
  5
17C
330
3C
100
AcDbEntity
  8
Layer 1
 62
     7
370
    25
100
AcDb2dPolyline
 66
     1
 10
0.0
 20
0.0
 30
0.0
  0
VERTEX
  5
17D
330
17C
100
AcDbEntity
  8
Layer 1
 62
     7
370
    25
100
AcDbVertex
100
AcDb2dVertex
 10
849.0775442755779
 20
840.2076291844794
 30
0.0
  0
VERTEX
  5
17E
330
17C
100
AcDbEntity
  8
Layer 1
 62
     7
370
    25
100
AcDbVertex
100
AcDb2dVertex
 10
856.1327553198211
 20
845.4992958498232
 30
0.0
  0
SEQEND
  5
17F
330
17C
100
AcDbEntity
  8
Layer 1
370
    25
  0
POLYLINE
  5
180
330
3C
100
AcDbEntity
  8
Layer 1
 62
     7
370
    25
100
AcDb2dPolyline
 66
     1
 10
0.0
 20
0.0
 30
0.0
  0
VERTEX
  5
181
330
180
100
AcDbEntity
  8
Layer 1
 62
     7
370
    25
100
AcDbVertex
100
AcDb2dVertex
 10
856.1327553198211
 20
845.4992958498232
 30
0.0
  0
VERTEX
  5
182
330
180
100
AcDbEntity
  8
Layer 1
 62
     7
370
    25
100
AcDbVertex
100
AcDb2dVertex
 10
856.1327553198211
 20
856.082284670962
 30
0.0
  0
SEQEND
  5
183
330
180
100
AcDbEntity
  8
Layer 1
370
    25
  0
POLYLINE
  5
184
330
3C
100
AcDbEntity
  8
Layer 1
 62
     7
370
    25
100
AcDb2dPolyline
 66
     1
 10
0.0
 20
0.0
 30
0.0
  0
VERTEX
  5
185
330
184
100
AcDbEntity
  8
Layer 1
 62
     7
370
    25
100
AcDbVertex
100
AcDb2dVertex
 10
856.1327553198211
 20
856.082284670962
 30
0.0
  0
VERTEX
  5
186
330
184
100
AcDbEntity
  8
Layer 1
 62
     7
370
    25
100
AcDbVertex
100
AcDb2dVertex
 10
849.0775442755779
 20
861.3741235910801
 30
0.0
  0
SEQEND
  5
187
330
184
100
AcDbEntity
  8
Layer 1
370
    25
  0
POLYLINE
  5
188
330
3C
100
AcDbEntity
  8
Layer 1
 62
     7
370
    25
100
AcDb2dPolyline
 66
     1
 10
0.0
 20
0.0
 30
0.0
  0
VERTEX
  5
189
330
188
100
AcDbEntity
  8
Layer 1
 62
     7
370
    25
100
AcDbVertex
100
AcDb2dVertex
 10
849.0775442755779
 20
861.3741235910801
 30
0.0
  0
VERTEX
  5
18A
330
188
100
AcDbEntity
  8
Layer 1
 62
     7
370
    25
100
AcDbVertex
100
AcDb2dVertex
 10
834.966088658446
 20
861.3741235910801
 30
0.0
  0
SEQEND
  5
18B
330
188
100
AcDbEntity
  8
Layer 1
370
    25
  0
POLYLINE
  5
18C
330
3C
100
AcDbEntity
  8
Layer 1
 62
     7
370
    25
100
AcDb2dPolyline
 66
     1
 10
0.0
 20
0.0
 30
0.0
  0
VERTEX
  5
18D
330
18C
100
AcDbEntity
  8
Layer 1
 62
     7
370
    25
100
AcDbVertex
100
AcDb2dVertex
 10
834.966088658446
 20
861.3741235910801
 30
0.0
  0
VERTEX
  5
18E
330
18C
100
AcDbEntity
  8
Layer 1
 62
     7
370
    25
100
AcDbVertex
100
AcDb2dVertex
 10
827.9105331046544
 20
856.082284670962
 30
0.0
  0
SEQEND
  5
18F
330
18C
100
AcDbEntity
  8
Layer 1
370
    25
  0
POLYLINE
  5
190
330
3C
100
AcDbEntity
  8
Layer 1
 62
     7
370
    25
100
AcDb2dPolyline
 66
     1
 10
0.0
 20
0.0
 30
0.0
  0
VERTEX
  5
191
330
190
100
AcDbEntity
  8
Layer 1
 62
     7
370
    25
100
AcDbVertex
100
AcDb2dVertex
 10
827.9105331046544
 20
856.082284670962
 30
0.0
  0
VERTEX
  5
192
330
190
100
AcDbEntity
  8
Layer 1
 62
     7
370
    25
100
AcDbVertex
100
AcDb2dVertex
 10
827.9105331046544
 20
840.2076291844794
 30
0.0
  0
SEQEND
  5
193
330
190
100
AcDbEntity
  8
Layer 1
370
    25
  0
POLYLINE
  5
194
330
3C
100
AcDbEntity
  8
Layer 1
 62
     7
370
    25
100
AcDb2dPolyline
 66
     1
 10
0.0
 20
0.0
 30
0.0
  0
VERTEX
  5
195
330
194
100
AcDbEntity
  8
Layer 1
 62
     7
370
    25
100
AcDbVertex
100
AcDb2dVertex
 10
827.9105331046544
 20
840.2076291844794
 30
0.0
  0
VERTEX
  5
196
330
194
100
AcDbEntity
  8
Layer 1
 62
     7
370
    25
100
AcDbVertex
100
AcDb2dVertex
 10
813.7990774875225
 20
840.2076291844794
 30
0.0
  0
SEQEND
  5
197
330
194
100
AcDbEntity
  8
Layer 1
370
    25
  0
POLYLINE
  5
198
330
3C
100
AcDbEntity
  8
Layer 1
 62
     7
370
    25
100
AcDb2dPolyline
 66
     1
 10
0.0
 20
0.0
 30
0.0
  0
VERTEX
  5
199
330
198
100
AcDbEntity
  8
Layer 1
 62
     7
370
    25
100
AcDbVertex
100
AcDb2dVertex
 10
813.7990774875225
 20
840.2076291844794
 30
0.0
  0
VERTEX
  5
19A
330
198
100
AcDbEntity
  8
Layer 1
 62
     7
370
    25
100
AcDbVertex
100
AcDb2dVertex
 10
813.7990774875225
 20
861.3741235910801
 30
0.0
  0
SEQEND
  5
19B
330
198
100
AcDbEntity
  8
Layer 1
370
    25
  0
POLYLINE
  5
19C
330
3C
100
AcDbEntity
  8
Layer 1
370
     0
100
AcDb2dPolyline
 66
     1
 10
0.0
 20
0.0
 30
0.0
  0
VERTEX
  5
19D
330
19C
100
AcDbEntity
  8
Layer 1
370
     0
100
AcDbVertex
100
AcDb2dVertex
 10
423.3703680039665
 20
1266.37265864608
 30
0.0
  0
VERTEX
  5
19E
330
19C
100
AcDbEntity
  8
Layer 1
370
     0
100
AcDbVertex
100
AcDb2dVertex
 10
453.3704317442963
 20
1271.372353469049
 30
0.0
  0
VERTEX
  5
19F
330
19C
100
AcDbEntity
  8
Layer 1
370
     0
100
AcDbVertex
100
AcDb2dVertex
 10
453.3704317442963
 20
1261.372447058789
 30
0.0
  0
SEQEND
  5
1A0
330
19C
100
AcDbEntity
  8
Layer 1
370
     0
  0
HATCH
  5
1A1
330
3C
100
AcDbEntity
  8
Layer 1
 62
     7
100
AcDbHatch
 10
0.0
 20
0.0
 30
0.0
210
0.0
220
0.0
230
1.0
  2
SOLID
 70
     1
 71
     0
 91
        1
 92
        1
 93
        3
 72
     1
 10
423.3703680039665
 20
1266.37265864608
 11
453.3704317442963
 21
1271.372353469049
 72
     1
 10
453.3704317442963
 20
1271.372353469049
 11
453.3704317442963
 21
1261.372447058789
 72
     1
 10
453.3704317442963
 20
1261.372447058789
 11
423.3703680039665
 21
1266.37265864608
 97
        0
 75
     2
 76
     1
 98
        0
  0
POLYLINE
  5
1A2
330
3C
100
AcDbEntity
  8
Layer 1
370
     0
100
AcDb2dPolyline
 66
     1
 10
0.0
 20
0.0
 30
0.0
  0
VERTEX
  5
1A3
330
1A2
100
AcDbEntity
  8
Layer 1
370
     0
100
AcDbVertex
100
AcDb2dVertex
 10
708.3705429001643
 20
1266.37265864608
 30
0.0
  0
VERTEX
  5
1A4
330
1A2
100
AcDbEntity
  8
Layer 1
370
     0
100
AcDbVertex
100
AcDb2dVertex
 10
678.3706514146088
 20
1261.372447058789
 30
0.0
  0
VERTEX
  5
1A5
330
1A2
100
AcDbEntity
  8
Layer 1
370
     0
100
AcDbVertex
100
AcDb2dVertex
 10
678.3706514146088
 20
1271.372353469049
 30
0.0
  0
SEQEND
  5
1A6
330
1A2
100
AcDbEntity
  8
Layer 1
370
     0
  0
HATCH
  5
1A7
330
3C
100
AcDbEntity
  8
Layer 1
 62
     7
100
AcDbHatch
 10
0.0
 20
0.0
 30
0.0
210
0.0
220
0.0
230
1.0
  2
SOLID
 70
     1
 71
     0
 91
        1
 92
        1
 93
        3
 72
     1
 10
708.3705429001643
 20
1266.37265864608
 11
678.3706514146088
 21
1261.372447058789
 72
     1
 10
678.3706514146088
 20
1261.372447058789
 11
678.3706514146088
 21
1271.372353469049
 72
     1
 10
678.3706514146088
 20
1271.372353469049
 11
708.3705429001643
 21
1266.37265864608
 97
        0
 75
     2
 76
     1
 98
        0
  0
POLYLINE
  5
1A8
330
3C
100
AcDbEntity
  8
Layer 1
 62
     7
370
    25
100
AcDb2dPolyline
 66
     1
 10
0.0
 20
0.0
 30
0.0
  0
VERTEX
  5
1A9
330
1A8
100
AcDbEntity
  8
Layer 1
 62
     7
370
    25
100
AcDbVertex
100
AcDb2dVertex
 10
423.3703680039665
 20
1114.87544595609
 30
0.0
  0
VERTEX
  5
1AA
330
1A8
100
AcDbEntity
  8
Layer 1
 62
     7
370
    25
100
AcDbVertex
100
AcDb2dVertex
 10
423.3703680039665
 20
1276.372392801567
 30
0.0
  0
SEQEND
  5
1AB
330
1A8
100
AcDbEntity
  8
Layer 1
370
    25
  0
POLYLINE
  5
1AC
330
3C
100
AcDbEntity
  8
Layer 1
 62
     7
370
    25
100
AcDb2dPolyline
 66
     1
 10
0.0
 20
0.0
 30
0.0
  0
VERTEX
  5
1AD
330
1AC
100
AcDbEntity
  8
Layer 1
 62
     7
370
    25
100
AcDbVertex
100
AcDb2dVertex
 10
708.3705429001643
 20
1115.912936461473
 30
0.0
  0
VERTEX
  5
1AE
330
1AC
100
AcDbEntity
  8
Layer 1
 62
     7
370
    25
100
AcDbVertex
100
AcDb2dVertex
 10
708.3705429001643
 20
1276.372392801567
 30
0.0
  0
SEQEND
  5
1AF
330
1AC
100
AcDbEntity
  8
Layer 1
370
    25
  0
POLYLINE
  5
1B0
330
3C
100
AcDbEntity
  8
Layer 1
 62
     7
370
    25
100
AcDb2dPolyline
 66
     1
 10
0.0
 20
0.0
 30
0.0
  0
VERTEX
  5
1B1
330
1B0
100
AcDbEntity
  8
Layer 1
 62
     7
370
    25
100
AcDbVertex
100
AcDb2dVertex
 10
423.3703680039665
 20
1266.37265864608
 30
0.0
  0
VERTEX
  5
1B2
330
1B0
100
AcDbEntity
  8
Layer 1
 62
     7
370
    25
100
AcDbVertex
100
AcDb2dVertex
 10
708.3705429001643
 20
1266.37265864608
 30
0.0
  0
SEQEND
  5
1B3
330
1B0
100
AcDbEntity
  8
Layer 1
370
    25
  0
POLYLINE
  5
1B4
330
3C
100
AcDbEntity
  8
Layer 1
 62
     7
370
    25
100
AcDb2dPolyline
 66
     1
 10
0.0
 20
0.0
 30
0.0
  0
VERTEX
  5
1B5
330
1B4
100
AcDbEntity
  8
Layer 1
 62
     7
370
    25
100
AcDbVertex
100
AcDb2dVertex
 10
501.7824637959954
 20
1313.887415578646
 30
0.0
  0
VERTEX
  5
1B6
330
1B4
100
AcDbEntity
  8
Layer 1
 62
     7
370
    25
100
AcDbVertex
100
AcDb2dVertex
 10
507.0741304613391
 20
1320.942798877664
 30
0.0
  0
SEQEND
  5
1B7
330
1B4
100
AcDbEntity
  8
Layer 1
370
    25
  0
POLYLINE
  5
1B8
330
3C
100
AcDbEntity
  8
Layer 1
 62
     7
370
    25
100
AcDb2dPolyline
 66
     1
 10
0.0
 20
0.0
 30
0.0
  0
VERTEX
  5
1B9
330
1B8
100
AcDbEntity
  8
Layer 1
 62
     7
370
    25
100
AcDbVertex
100
AcDb2dVertex
 10
507.0741304613391
 20
1320.942798877664
 30
0.0
  0
VERTEX
  5
1BA
330
1B8
100
AcDbEntity
  8
Layer 1
 62
     7
370
    25
100
AcDbVertex
100
AcDb2dVertex
 10
517.6572915372524
 20
1320.942798877664
 30
0.0
  0
SEQEND
  5
1BB
330
1B8
100
AcDbEntity
  8
Layer 1
370
    25
  0
POLYLINE
  5
1BC
330
3C
100
AcDbEntity
  8
Layer 1
 62
     7
370
    25
100
AcDb2dPolyline
 66
     1
 10
0.0
 20
0.0
 30
0.0
  0
VERTEX
  5
1BD
330
1BC
100
AcDbEntity
  8
Layer 1
 62
     7
370
    25
100
AcDbVertex
100
AcDb2dVertex
 10
517.6572915372524
 20
1320.942798877664
 30
0.0
  0
VERTEX
  5
1BE
330
1BC
100
AcDbEntity
  8
Layer 1
 62
     7
370
    25
100
AcDbVertex
100
AcDb2dVertex
 10
522.9489582025961
 20
1313.887415578646
 30
0.0
  0
SEQEND
  5
1BF
330
1BC
100
AcDbEntity
  8
Layer 1
370
    25
  0
POLYLINE
  5
1C0
330
3C
100
AcDbEntity
  8
Layer 1
 62
     7
370
    25
100
AcDb2dPolyline
 66
     1
 10
0.0
 20
0.0
 30
0.0
  0
VERTEX
  5
1C1
330
1C0
100
AcDbEntity
  8
Layer 1
 62
     7
370
    25
100
AcDbVertex
100
AcDb2dVertex
 10
522.9489582025961
 20
1313.887415578646
 30
0.0
  0
VERTEX
  5
1C2
330
1C0
100
AcDbEntity
  8
Layer 1
 62
     7
370
    25
100
AcDbVertex
100
AcDb2dVertex
 10
522.9489582025961
 20
1306.832032279629
 30
0.0
  0
SEQEND
  5
1C3
330
1C0
100
AcDbEntity
  8
Layer 1
370
    25
  0
POLYLINE
  5
1C4
330
3C
100
AcDbEntity
  8
Layer 1
 62
     7
370
    25
100
AcDb2dPolyline
 66
     1
 10
0.0
 20
0.0
 30
0.0
  0
VERTEX
  5
1C5
330
1C4
100
AcDbEntity
  8
Layer 1
 62
     7
370
    25
100
AcDbVertex
100
AcDb2dVertex
 10
522.9489582025961
 20
1306.832032279629
 30
0.0
  0
VERTEX
  5
1C6
330
1C4
100
AcDbEntity
  8
Layer 1
 62
     7
370
    25
100
AcDbVertex
100
AcDb2dVertex
 10
517.6572915372524
 20
1299.776304471063
 30
0.0
  0
SEQEND
  5
1C7
330
1C4
100
AcDbEntity
  8
Layer 1
370
    25
  0
POLYLINE
  5
1C8
330
3C
100
AcDbEntity
  8
Layer 1
 62
     7
370
    25
100
AcDb2dPolyline
 66
     1
 10
0.0
 20
0.0
 30
0.0
  0
VERTEX
  5
1C9
330
1C8
100
AcDbEntity
  8
Layer 1
 62
     7
370
    25
100
AcDbVertex
100
AcDb2dVertex
 10
517.6572915372524
 20
1299.776304471063
 30
0.0
  0
VERTEX
  5
1CA
330
1C8
100
AcDbEntity
  8
Layer 1
 62
     7
370
    25
100
AcDbVertex
100
AcDb2dVertex
 10
507.0741304613391
 20
1299.776304471063
 30
0.0
  0
SEQEND
  5
1CB
330
1C8
100
AcDbEntity
  8
Layer 1
370
    25
  0
POLYLINE
  5
1CC
330
3C
100
AcDbEntity
  8
Layer 1
 62
     7
370
    25
100
AcDb2dPolyline
 66
     1
 10
0.0
 20
0.0
 30
0.0
  0
VERTEX
  5
1CD
330
1CC
100
AcDbEntity
  8
Layer 1
 62
     7
370
    25
100
AcDbVertex
100
AcDb2dVertex
 10
507.0741304613391
 20
1299.776304471063
 30
0.0
  0
VERTEX
  5
1CE
330
1CC
100
AcDbEntity
  8
Layer 1
 62
     7
370
    25
100
AcDbVertex
100
AcDb2dVertex
 10
501.7824637959954
 20
1292.720921172046
 30
0.0
  0
SEQEND
  5
1CF
330
1CC
100
AcDbEntity
  8
Layer 1
370
    25
  0
POLYLINE
  5
1D0
330
3C
100
AcDbEntity
  8
Layer 1
 62
     7
370
    25
100
AcDb2dPolyline
 66
     1
 10
0.0
 20
0.0
 30
0.0
  0
VERTEX
  5
1D1
330
1D0
100
AcDbEntity
  8
Layer 1
 62
     7
370
    25
100
AcDbVertex
100
AcDb2dVertex
 10
501.7824637959954
 20
1292.720921172046
 30
0.0
  0
VERTEX
  5
1D2
330
1D0
100
AcDbEntity
  8
Layer 1
 62
     7
370
    25
100
AcDbVertex
100
AcDb2dVertex
 10
501.7824637959954
 20
1278.609810064462
 30
0.0
  0
SEQEND
  5
1D3
330
1D0
100
AcDbEntity
  8
Layer 1
370
    25
  0
POLYLINE
  5
1D4
330
3C
100
AcDbEntity
  8
Layer 1
 62
     7
370
    25
100
AcDb2dPolyline
 66
     1
 10
0.0
 20
0.0
 30
0.0
  0
VERTEX
  5
1D5
330
1D4
100
AcDbEntity
  8
Layer 1
 62
     7
370
    25
100
AcDbVertex
100
AcDb2dVertex
 10
501.7824637959954
 20
1278.609810064462
 30
0.0
  0
VERTEX
  5
1D6
330
1D4
100
AcDbEntity
  8
Layer 1
 62
     7
370
    25
100
AcDbVertex
100
AcDb2dVertex
 10
522.9489582025961
 20
1278.609810064462
 30
0.0
  0
SEQEND
  5
1D7
330
1D4
100
AcDbEntity
  8
Layer 1
370
    25
  0
POLYLINE
  5
1D8
330
3C
100
AcDbEntity
  8
Layer 1
 62
     7
370
    25
100
AcDb2dPolyline
 66
     1
 10
0.0
 20
0.0
 30
0.0
  0
VERTEX
  5
1D9
330
1D8
100
AcDbEntity
  8
Layer 1
 62
     7
370
    25
100
AcDbVertex
100
AcDb2dVertex
 10
538.8243027081759
 20
1278.609810064462
 30
0.0
  0
VERTEX
  5
1DA
330
1D8
100
AcDbEntity
  8
Layer 1
 62
     7
370
    25
100
AcDbVertex
100
AcDb2dVertex
 10
549.4076360388634
 20
1278.609810064462
 30
0.0
  0
SEQEND
  5
1DB
330
1D8
100
AcDbEntity
  8
Layer 1
370
    25
  0
POLYLINE
  5
1DC
330
3C
100
AcDbEntity
  8
Layer 1
 62
     7
370
    25
100
AcDb2dPolyline
 66
     1
 10
0.0
 20
0.0
 30
0.0
  0
VERTEX
  5
1DD
330
1DC
100
AcDbEntity
  8
Layer 1
 62
     7
370
    25
100
AcDbVertex
100
AcDb2dVertex
 10
549.4076360388634
 20
1278.609810064462
 30
0.0
  0
VERTEX
  5
1DE
330
1DC
100
AcDbEntity
  8
Layer 1
 62
     7
370
    25
100
AcDbVertex
100
AcDb2dVertex
 10
554.6993027042072
 20
1285.66519336348
 30
0.0
  0
SEQEND
  5
1DF
330
1DC
100
AcDbEntity
  8
Layer 1
370
    25
  0
POLYLINE
  5
1E0
330
3C
100
AcDbEntity
  8
Layer 1
 62
     7
370
    25
100
AcDb2dPolyline
 66
     1
 10
0.0
 20
0.0
 30
0.0
  0
VERTEX
  5
1E1
330
1E0
100
AcDbEntity
  8
Layer 1
 62
     7
370
    25
100
AcDbVertex
100
AcDb2dVertex
 10
554.6993027042072
 20
1285.66519336348
 30
0.0
  0
VERTEX
  5
1E2
330
1E0
100
AcDbEntity
  8
Layer 1
 62
     7
370
    25
100
AcDbVertex
100
AcDb2dVertex
 10
554.6993027042072
 20
1292.720921172046
 30
0.0
  0
SEQEND
  5
1E3
330
1E0
100
AcDbEntity
  8
Layer 1
370
    25
  0
POLYLINE
  5
1E4
330
3C
100
AcDbEntity
  8
Layer 1
 62
     7
370
    25
100
AcDb2dPolyline
 66
     1
 10
0.0
 20
0.0
 30
0.0
  0
VERTEX
  5
1E5
330
1E4
100
AcDbEntity
  8
Layer 1
 62
     7
370
    25
100
AcDbVertex
100
AcDb2dVertex
 10
554.6993027042072
 20
1292.720921172046
 30
0.0
  0
VERTEX
  5
1E6
330
1E4
100
AcDbEntity
  8
Layer 1
 62
     7
370
    25
100
AcDbVertex
100
AcDb2dVertex
 10
549.4076360388634
 20
1299.776304471063
 30
0.0
  0
SEQEND
  5
1E7
330
1E4
100
AcDbEntity
  8
Layer 1
370
    25
  0
POLYLINE
  5
1E8
330
3C
100
AcDbEntity
  8
Layer 1
 62
     7
370
    25
100
AcDb2dPolyline
 66
     1
 10
0.0
 20
0.0
 30
0.0
  0
VERTEX
  5
1E9
330
1E8
100
AcDbEntity
  8
Layer 1
 62
     7
370
    25
100
AcDbVertex
100
AcDb2dVertex
 10
549.4076360388634
 20
1299.776304471063
 30
0.0
  0
VERTEX
  5
1EA
330
1E8
100
AcDbEntity
  8
Layer 1
 62
     7
370
    25
100
AcDbVertex
100
AcDb2dVertex
 10
538.8243027081759
 20
1299.776304471063
 30
0.0
  0
SEQEND
  5
1EB
330
1E8
100
AcDbEntity
  8
Layer 1
370
    25
  0
POLYLINE
  5
1EC
330
3C
100
AcDbEntity
  8
Layer 1
 62
     7
370
    25
100
AcDb2dPolyline
 66
     1
 10
0.0
 20
0.0
 30
0.0
  0
VERTEX
  5
1ED
330
1EC
100
AcDbEntity
  8
Layer 1
 62
     7
370
    25
100
AcDbVertex
100
AcDb2dVertex
 10
538.8243027081759
 20
1299.776304471063
 30
0.0
  0
VERTEX
  5
1EE
330
1EC
100
AcDbEntity
  8
Layer 1
 62
     7
370
    25
100
AcDbVertex
100
AcDb2dVertex
 10
533.5322915332836
 20
1306.832032279629
 30
0.0
  0
SEQEND
  5
1EF
330
1EC
100
AcDbEntity
  8
Layer 1
370
    25
  0
POLYLINE
  5
1F0
330
3C
100
AcDbEntity
  8
Layer 1
 62
     7
370
    25
100
AcDb2dPolyline
 66
     1
 10
0.0
 20
0.0
 30
0.0
  0
VERTEX
  5
1F1
330
1F0
100
AcDbEntity
  8
Layer 1
 62
     7
370
    25
100
AcDbVertex
100
AcDb2dVertex
 10
533.5322915332836
 20
1306.832032279629
 30
0.0
  0
VERTEX
  5
1F2
330
1F0
100
AcDbEntity
  8
Layer 1
 62
     7
370
    25
100
AcDbVertex
100
AcDb2dVertex
 10
533.5322915332836
 20
1313.887415578646
 30
0.0
  0
SEQEND
  5
1F3
330
1F0
100
AcDbEntity
  8
Layer 1
370
    25
  0
POLYLINE
  5
1F4
330
3C
100
AcDbEntity
  8
Layer 1
 62
     7
370
    25
100
AcDb2dPolyline
 66
     1
 10
0.0
 20
0.0
 30
0.0
  0
VERTEX
  5
1F5
330
1F4
100
AcDbEntity
  8
Layer 1
 62
     7
370
    25
100
AcDbVertex
100
AcDb2dVertex
 10
533.5322915332836
 20
1313.887415578646
 30
0.0
  0
VERTEX
  5
1F6
330
1F4
100
AcDbEntity
  8
Layer 1
 62
     7
370
    25
100
AcDbVertex
100
AcDb2dVertex
 10
538.8243027081759
 20
1320.942798877664
 30
0.0
  0
SEQEND
  5
1F7
330
1F4
100
AcDbEntity
  8
Layer 1
370
    25
  0
POLYLINE
  5
1F8
330
3C
100
AcDbEntity
  8
Layer 1
 62
     7
370
    25
100
AcDb2dPolyline
 66
     1
 10
0.0
 20
0.0
 30
0.0
  0
VERTEX
  5
1F9
330
1F8
100
AcDbEntity
  8
Layer 1
 62
     7
370
    25
100
AcDbVertex
100
AcDb2dVertex
 10
538.8243027081759
 20
1320.942798877664
 30
0.0
  0
VERTEX
  5
1FA
330
1F8
100
AcDbEntity
  8
Layer 1
 62
     7
370
    25
100
AcDbVertex
100
AcDb2dVertex
 10
549.4076360388634
 20
1320.942798877664
 30
0.0
  0
SEQEND
  5
1FB
330
1F8
100
AcDbEntity
  8
Layer 1
370
    25
  0
POLYLINE
  5
1FC
330
3C
100
AcDbEntity
  8
Layer 1
 62
     7
370
    25
100
AcDb2dPolyline
 66
     1
 10
0.0
 20
0.0
 30
0.0
  0
VERTEX
  5
1FD
330
1FC
100
AcDbEntity
  8
Layer 1
 62
     7
370
    25
100
AcDbVertex
100
AcDb2dVertex
 10
549.4076360388634
 20
1320.942798877664
 30
0.0
  0
VERTEX
  5
1FE
330
1FC
100
AcDbEntity
  8
Layer 1
 62
     7
370
    25
100
AcDbVertex
100
AcDb2dVertex
 10
554.6993027042072
 20
1313.887415578646
 30
0.0
  0
SEQEND
  5
1FF
330
1FC
100
AcDbEntity
  8
Layer 1
370
    25
  0
POLYLINE
  5
200
330
3C
100
AcDbEntity
  8
Layer 1
 62
     7
370
    25
100
AcDb2dPolyline
 66
     1
 10
0.0
 20
0.0
 30
0.0
  0
VERTEX
  5
201
330
200
100
AcDbEntity
  8
Layer 1
 62
     7
370
    25
100
AcDbVertex
100
AcDb2dVertex
 10
554.6993027042072
 20
1313.887415578646
 30
0.0
  0
VERTEX
  5
202
330
200
100
AcDbEntity
  8
Layer 1
 62
     7
370
    25
100
AcDbVertex
100
AcDb2dVertex
 10
554.6993027042072
 20
1306.832032279629
 30
0.0
  0
SEQEND
  5
203
330
200
100
AcDbEntity
  8
Layer 1
370
    25
  0
POLYLINE
  5
204
330
3C
100
AcDbEntity
  8
Layer 1
 62
     7
370
    25
100
AcDb2dPolyline
 66
     1
 10
0.0
 20
0.0
 30
0.0
  0
VERTEX
  5
205
330
204
100
AcDbEntity
  8
Layer 1
 62
     7
370
    25
100
AcDbVertex
100
AcDb2dVertex
 10
554.6993027042072
 20
1306.832032279629
 30
0.0
  0
VERTEX
  5
206
330
204
100
AcDbEntity
  8
Layer 1
 62
     7
370
    25
100
AcDbVertex
100
AcDb2dVertex
 10
549.4076360388634
 20
1299.776304471063
 30
0.0
  0
SEQEND
  5
207
330
204
100
AcDbEntity
  8
Layer 1
370
    25
  0
POLYLINE
  5
208
330
3C
100
AcDbEntity
  8
Layer 1
 62
     7
370
    25
100
AcDb2dPolyline
 66
     1
 10
0.0
 20
0.0
 30
0.0
  0
VERTEX
  5
209
330
208
100
AcDbEntity
  8
Layer 1
 62
     7
370
    25
100
AcDbVertex
100
AcDb2dVertex
 10
538.8243027081759
 20
1299.776304471063
 30
0.0
  0
VERTEX
  5
20A
330
208
100
AcDbEntity
  8
Layer 1
 62
     7
370
    25
100
AcDbVertex
100
AcDb2dVertex
 10
533.5322915332836
 20
1292.720921172046
 30
0.0
  0
SEQEND
  5
20B
330
208
100
AcDbEntity
  8
Layer 1
370
    25
  0
POLYLINE
  5
20C
330
3C
100
AcDbEntity
  8
Layer 1
 62
     7
370
    25
100
AcDb2dPolyline
 66
     1
 10
0.0
 20
0.0
 30
0.0
  0
VERTEX
  5
20D
330
20C
100
AcDbEntity
  8
Layer 1
 62
     7
370
    25
100
AcDbVertex
100
AcDb2dVertex
 10
533.5322915332836
 20
1292.720921172046
 30
0.0
  0
VERTEX
  5
20E
330
20C
100
AcDbEntity
  8
Layer 1
 62
     7
370
    25
100
AcDbVertex
100
AcDb2dVertex
 10
533.5322915332836
 20
1285.66519336348
 30
0.0
  0
SEQEND
  5
20F
330
20C
100
AcDbEntity
  8
Layer 1
370
    25
  0
POLYLINE
  5
210
330
3C
100
AcDbEntity
  8
Layer 1
 62
     7
370
    25
100
AcDb2dPolyline
 66
     1
 10
0.0
 20
0.0
 30
0.0
  0
VERTEX
  5
211
330
210
100
AcDbEntity
  8
Layer 1
 62
     7
370
    25
100
AcDbVertex
100
AcDb2dVertex
 10
533.5322915332836
 20
1285.66519336348
 30
0.0
  0
VERTEX
  5
212
330
210
100
AcDbEntity
  8
Layer 1
 62
     7
370
    25
100
AcDbVertex
100
AcDb2dVertex
 10
538.8243027081759
 20
1278.609810064462
 30
0.0
  0
SEQEND
  5
213
330
210
100
AcDbEntity
  8
Layer 1
370
    25
  0
POLYLINE
  5
214
330
3C
100
AcDbEntity
  8
Layer 1
 62
     7
370
    25
100
AcDb2dPolyline
 66
     1
 10
0.0
 20
0.0
 30
0.0
  0
VERTEX
  5
215
330
214
100
AcDbEntity
  8
Layer 1
 62
     7
370
    25
100
AcDbVertex
100
AcDb2dVertex
 10
565.2819470157976
 20
1285.66519336348
 30
0.0
  0
VERTEX
  5
216
330
214
100
AcDbEntity
  8
Layer 1
 62
     7
370
    25
100
AcDbVertex
100
AcDb2dVertex
 10
570.5743027002384
 20
1278.609810064462
 30
0.0
  0
SEQEND
  5
217
330
214
100
AcDbEntity
  8
Layer 1
370
    25
  0
POLYLINE
  5
218
330
3C
100
AcDbEntity
  8
Layer 1
 62
     7
370
    25
100
AcDb2dPolyline
 66
     1
 10
0.0
 20
0.0
 30
0.0
  0
VERTEX
  5
219
330
218
100
AcDbEntity
  8
Layer 1
 62
     7
370
    25
100
AcDbVertex
100
AcDb2dVertex
 10
570.5743027002384
 20
1278.609810064462
 30
0.0
  0
VERTEX
  5
21A
330
218
100
AcDbEntity
  8
Layer 1
 62
     7
370
    25
100
AcDbVertex
100
AcDb2dVertex
 10
581.1569470118288
 20
1278.609810064462
 30
0.0
  0
SEQEND
  5
21B
330
218
100
AcDbEntity
  8
Layer 1
370
    25
  0
POLYLINE
  5
21C
330
3C
100
AcDbEntity
  8
Layer 1
 62
     7
370
    25
100
AcDb2dPolyline
 66
     1
 10
0.0
 20
0.0
 30
0.0
  0
VERTEX
  5
21D
330
21C
100
AcDbEntity
  8
Layer 1
 62
     7
370
    25
100
AcDbVertex
100
AcDb2dVertex
 10
581.1569470118288
 20
1278.609810064462
 30
0.0
  0
VERTEX
  5
21E
330
21C
100
AcDbEntity
  8
Layer 1
 62
     7
370
    25
100
AcDbVertex
100
AcDb2dVertex
 10
586.4489581867211
 20
1285.66519336348
 30
0.0
  0
SEQEND
  5
21F
330
21C
100
AcDbEntity
  8
Layer 1
370
    25
  0
POLYLINE
  5
220
330
3C
100
AcDbEntity
  8
Layer 1
 62
     7
370
    25
100
AcDb2dPolyline
 66
     1
 10
0.0
 20
0.0
 30
0.0
  0
VERTEX
  5
221
330
220
100
AcDbEntity
  8
Layer 1
 62
     7
370
    25
100
AcDbVertex
100
AcDb2dVertex
 10
586.4489581867211
 20
1285.66519336348
 30
0.0
  0
VERTEX
  5
222
330
220
100
AcDbEntity
  8
Layer 1
 62
     7
370
    25
100
AcDbVertex
100
AcDb2dVertex
 10
586.4489581867211
 20
1299.776304471063
 30
0.0
  0
SEQEND
  5
223
330
220
100
AcDbEntity
  8
Layer 1
370
    25
  0
POLYLINE
  5
224
330
3C
100
AcDbEntity
  8
Layer 1
 62
     7
370
    25
100
AcDb2dPolyline
 66
     1
 10
0.0
 20
0.0
 30
0.0
  0
VERTEX
  5
225
330
224
100
AcDbEntity
  8
Layer 1
 62
     7
370
    25
100
AcDbVertex
100
AcDb2dVertex
 10
586.4489581867211
 20
1299.776304471063
 30
0.0
  0
VERTEX
  5
226
330
224
100
AcDbEntity
  8
Layer 1
 62
     7
370
    25
100
AcDbVertex
100
AcDb2dVertex
 10
581.1569470118288
 20
1306.832032279629
 30
0.0
  0
SEQEND
  5
227
330
224
100
AcDbEntity
  8
Layer 1
370
    25
  0
POLYLINE
  5
228
330
3C
100
AcDbEntity
  8
Layer 1
 62
     7
370
    25
100
AcDb2dPolyline
 66
     1
 10
0.0
 20
0.0
 30
0.0
  0
VERTEX
  5
229
330
228
100
AcDbEntity
  8
Layer 1
 62
     7
370
    25
100
AcDbVertex
100
AcDb2dVertex
 10
581.1569470118288
 20
1306.832032279629
 30
0.0
  0
VERTEX
  5
22A
330
228
100
AcDbEntity
  8
Layer 1
 62
     7
370
    25
100
AcDbVertex
100
AcDb2dVertex
 10
565.2819470157976
 20
1306.832032279629
 30
0.0
  0
SEQEND
  5
22B
330
228
100
AcDbEntity
  8
Layer 1
370
    25
  0
POLYLINE
  5
22C
330
3C
100
AcDbEntity
  8
Layer 1
 62
     7
370
    25
100
AcDb2dPolyline
 66
     1
 10
0.0
 20
0.0
 30
0.0
  0
VERTEX
  5
22D
330
22C
100
AcDbEntity
  8
Layer 1
 62
     7
370
    25
100
AcDbVertex
100
AcDb2dVertex
 10
565.2819470157976
 20
1306.832032279629
 30
0.0
  0
VERTEX
  5
22E
330
22C
100
AcDbEntity
  8
Layer 1
 62
     7
370
    25
100
AcDbVertex
100
AcDb2dVertex
 10
565.2819470157976
 20
1320.942798877664
 30
0.0
  0
SEQEND
  5
22F
330
22C
100
AcDbEntity
  8
Layer 1
370
    25
  0
POLYLINE
  5
230
330
3C
100
AcDbEntity
  8
Layer 1
 62
     7
370
    25
100
AcDb2dPolyline
 66
     1
 10
0.0
 20
0.0
 30
0.0
  0
VERTEX
  5
231
330
230
100
AcDbEntity
  8
Layer 1
 62
     7
370
    25
100
AcDbVertex
100
AcDb2dVertex
 10
565.2819470157976
 20
1320.942798877664
 30
0.0
  0
VERTEX
  5
232
330
230
100
AcDbEntity
  8
Layer 1
 62
     7
370
    25
100
AcDbVertex
100
AcDb2dVertex
 10
586.4489581867211
 20
1320.942798877664
 30
0.0
  0
SEQEND
  5
233
330
230
100
AcDbEntity
  8
Layer 1
370
    25
  0
POLYLINE
  5
234
330
3C
100
AcDbEntity
  8
Layer 1
370
     0
100
AcDb2dPolyline
 66
     1
 10
0.0
 20
0.0
 30
0.0
  0
VERTEX
  5
235
330
234
100
AcDbEntity
  8
Layer 1
370
     0
100
AcDbVertex
100
AcDb2dVertex
 10
423.3703680039665
 20
519.6215127281675
 30
0.0
  0
VERTEX
  5
236
330
234
100
AcDbEntity
  8
Layer 1
370
     0
100
AcDbVertex
100
AcDb2dVertex
 10
453.3704317442963
 20
524.6213798059107
 30
0.0
  0
VERTEX
  5
237
330
234
100
AcDbEntity
  8
Layer 1
370
     0
100
AcDbVertex
100
AcDb2dVertex
 10
453.3704317442963
 20
514.621990159973
 30
0.0
  0
SEQEND
  5
238
330
234
100
AcDbEntity
  8
Layer 1
370
     0
  0
HATCH
  5
239
330
3C
100
AcDbEntity
  8
Layer 1
 62
     7
100
AcDbHatch
 10
0.0
 20
0.0
 30
0.0
210
0.0
220
0.0
230
1.0
  2
SOLID
 70
     1
 71
     0
 91
        1
 92
        1
 93
        3
 72
     1
 10
423.3703680039665
 20
519.6215127281675
 11
453.3704317442963
 21
524.6213798059107
 72
     1
 10
453.3704317442963
 20
524.6213798059107
 11
453.3704317442963
 21
514.621990159973
 72
     1
 10
453.3704317442963
 20
514.621990159973
 11
423.3703680039665
 21
519.6215127281675
 97
        0
 75
     2
 76
     1
 98
        0
  0
POLYLINE
  5
23A
330
3C
100
AcDbEntity
  8
Layer 1
370
     0
100
AcDb2dPolyline
 66
     1
 10
0.0
 20
0.0
 30
0.0
  0
VERTEX
  5
23B
330
23A
100
AcDbEntity
  8
Layer 1
370
     0
100
AcDbVertex
100
AcDb2dVertex
 10
565.8700248151298
 20
519.6215127281675
 30
0.0
  0
VERTEX
  5
23C
330
23A
100
AcDbEntity
  8
Layer 1
370
     0
100
AcDbVertex
100
AcDb2dVertex
 10
535.8701333295742
 20
514.621990159973
 30
0.0
  0
VERTEX
  5
23D
330
23A
100
AcDbEntity
  8
Layer 1
370
     0
100
AcDbVertex
100
AcDb2dVertex
 10
535.8701333295742
 20
524.6213798059107
 30
0.0
  0
SEQEND
  5
23E
330
23A
100
AcDbEntity
  8
Layer 1
370
     0
  0
HATCH
  5
23F
330
3C
100
AcDbEntity
  8
Layer 1
 62
     7
100
AcDbHatch
 10
0.0
 20
0.0
 30
0.0
210
0.0
220
0.0
230
1.0
  2
SOLID
 70
     1
 71
     0
 91
        1
 92
        1
 93
        3
 72
     1
 10
565.8700248151298
 20
519.6215127281675
 11
535.8701333295742
 21
514.621990159973
 72
     1
 10
535.8701333295742
 20
514.621990159973
 11
535.8701333295742
 21
524.6213798059107
 72
     1
 10
535.8701333295742
 20
524.6213798059107
 11
565.8700248151298
 21
519.6215127281675
 97
        0
 75
     2
 76
     1
 98
        0
  0
POLYLINE
  5
240
330
3C
100
AcDbEntity
  8
Layer 1
 62
     7
370
    25
100
AcDb2dPolyline
 66
     1
 10
0.0
 20
0.0
 30
0.0
  0
VERTEX
  5
241
330
240
100
AcDbEntity
  8
Layer 1
 62
     7
370
    25
100
AcDbVertex
100
AcDb2dVertex
 10
423.3703680039665
 20
580.4922158379499
 30
0.0
  0
VERTEX
  5
242
330
240
100
AcDbEntity
  8
Layer 1
 62
     7
370
    25
100
AcDbVertex
100
AcDb2dVertex
 10
423.3703680039665
 20
509.6214340631329
 30
0.0
  0
SEQEND
  5
243
330
240
100
AcDbEntity
  8
Layer 1
370
    25
  0
POLYLINE
  5
244
330
3C
100
AcDbEntity
  8
Layer 1
 62
     7
370
    25
100
AcDb2dPolyline
 66
     1
 10
0.0
 20
0.0
 30
0.0
  0
VERTEX
  5
245
330
244
100
AcDbEntity
  8
Layer 1
 62
     7
370
    25
100
AcDbVertex
100
AcDb2dVertex
 10
565.8700248151298
 20
580.838792443766
 30
0.0
  0
VERTEX
  5
246
330
244
100
AcDbEntity
  8
Layer 1
 62
     7
370
    25
100
AcDbVertex
100
AcDb2dVertex
 10
565.8700248151298
 20
509.6214340631329
 30
0.0
  0
SEQEND
  5
247
330
244
100
AcDbEntity
  8
Layer 1
370
    25
  0
POLYLINE
  5
248
330
3C
100
AcDbEntity
  8
Layer 1
 62
     7
370
    25
100
AcDb2dPolyline
 66
     1
 10
0.0
 20
0.0
 30
0.0
  0
VERTEX
  5
249
330
248
100
AcDbEntity
  8
Layer 1
 62
     7
370
    25
100
AcDbVertex
100
AcDb2dVertex
 10
423.3703680039665
 20
519.6215127281675
 30
0.0
  0
VERTEX
  5
24A
330
248
100
AcDbEntity
  8
Layer 1
 62
     7
370
    25
100
AcDbVertex
100
AcDb2dVertex
 10
565.8700248151298
 20
519.6215127281675
 30
0.0
  0
SEQEND
  5
24B
330
248
100
AcDbEntity
  8
Layer 1
370
    25
  0
POLYLINE
  5
24C
330
3C
100
AcDbEntity
  8
Layer 1
 62
     7
370
    25
100
AcDb2dPolyline
 66
     1
 10
0.0
 20
0.0
 30
0.0
  0
VERTEX
  5
24D
330
24C
100
AcDbEntity
  8
Layer 1
 62
     7
370
    25
100
AcDbVertex
100
AcDb2dVertex
 10
565.8700248151298
 20
519.6215127281675
 30
0.0
  0
VERTEX
  5
24E
330
24C
100
AcDbEntity
  8
Layer 1
 62
     7
370
    25
100
AcDbVertex
100
AcDb2dVertex
 10
781.6036266492172
 20
519.6215127281675
 30
0.0
  0
SEQEND
  5
24F
330
24C
100
AcDbEntity
  8
Layer 1
370
    25
  0
POLYLINE
  5
250
330
3C
100
AcDbEntity
  8
Layer 1
 62
     7
370
    25
100
AcDb2dPolyline
 66
     1
 10
0.0
 20
0.0
 30
0.0
  0
VERTEX
  5
251
330
250
100
AcDbEntity
  8
Layer 1
 62
     7
370
    25
100
AcDbVertex
100
AcDb2dVertex
 10
606.5476452476687
 20
531.8588364013235
 30
0.0
  0
VERTEX
  5
252
330
250
100
AcDbEntity
  8
Layer 1
 62
     7
370
    25
100
AcDbVertex
100
AcDb2dVertex
 10
617.1309785783561
 20
531.8588364013235
 30
0.0
  0
SEQEND
  5
253
330
250
100
AcDbEntity
  8
Layer 1
370
    25
  0
POLYLINE
  5
254
330
3C
100
AcDbEntity
  8
Layer 1
 62
     7
370
    25
100
AcDb2dPolyline
 66
     1
 10
0.0
 20
0.0
 30
0.0
  0
VERTEX
  5
255
330
254
100
AcDbEntity
  8
Layer 1
 62
     7
370
    25
100
AcDbVertex
100
AcDb2dVertex
 10
611.8393119130125
 20
531.8588364013235
 30
0.0
  0
VERTEX
  5
256
330
254
100
AcDbEntity
  8
Layer 1
 62
     7
370
    25
100
AcDbVertex
100
AcDb2dVertex
 10
611.8393119130125
 20
574.191825214525
 30
0.0
  0
SEQEND
  5
257
330
254
100
AcDbEntity
  8
Layer 1
370
    25
  0
POLYLINE
  5
258
330
3C
100
AcDbEntity
  8
Layer 1
 62
     7
370
    25
100
AcDb2dPolyline
 66
     1
 10
0.0
 20
0.0
 30
0.0
  0
VERTEX
  5
259
330
258
100
AcDbEntity
  8
Layer 1
 62
     7
370
    25
100
AcDbVertex
100
AcDb2dVertex
 10
611.8393119130125
 20
574.191825214525
 30
0.0
  0
VERTEX
  5
25A
330
258
100
AcDbEntity
  8
Layer 1
 62
     7
370
    25
100
AcDbVertex
100
AcDb2dVertex
 10
606.5476452476687
 20
567.1366141702819
 30
0.0
  0
SEQEND
  5
25B
330
258
100
AcDbEntity
  8
Layer 1
370
    25
  0
POLYLINE
  5
25C
330
3C
100
AcDbEntity
  8
Layer 1
 62
     7
370
    25
100
AcDb2dPolyline
 66
     1
 10
0.0
 20
0.0
 30
0.0
  0
VERTEX
  5
25D
330
25C
100
AcDbEntity
  8
Layer 1
 62
     7
370
    25
100
AcDbVertex
100
AcDb2dVertex
 10
643.5896564146235
 20
531.8588364013235
 30
0.0
  0
VERTEX
  5
25E
330
25C
100
AcDbEntity
  8
Layer 1
 62
     7
370
    25
100
AcDbVertex
100
AcDb2dVertex
 10
643.5896564146235
 20
574.191825214525
 30
0.0
  0
SEQEND
  5
25F
330
25C
100
AcDbEntity
  8
Layer 1
370
    25
  0
POLYLINE
  5
260
330
3C
100
AcDbEntity
  8
Layer 1
 62
     7
370
    25
100
AcDb2dPolyline
 66
     1
 10
0.0
 20
0.0
 30
0.0
  0
VERTEX
  5
261
330
260
100
AcDbEntity
  8
Layer 1
 62
     7
370
    25
100
AcDbVertex
100
AcDb2dVertex
 10
643.5896564146235
 20
574.191825214525
 30
0.0
  0
VERTEX
  5
262
330
260
100
AcDbEntity
  8
Layer 1
 62
     7
370
    25
100
AcDbVertex
100
AcDb2dVertex
 10
627.7143119090437
 20
545.9696029993584
 30
0.0
  0
SEQEND
  5
263
330
260
100
AcDbEntity
  8
Layer 1
370
    25
  0
POLYLINE
  5
264
330
3C
100
AcDbEntity
  8
Layer 1
 62
     7
370
    25
100
AcDb2dPolyline
 66
     1
 10
0.0
 20
0.0
 30
0.0
  0
VERTEX
  5
265
330
264
100
AcDbEntity
  8
Layer 1
 62
     7
370
    25
100
AcDbVertex
100
AcDb2dVertex
 10
627.7143119090437
 20
545.9696029993584
 30
0.0
  0
VERTEX
  5
266
330
264
100
AcDbEntity
  8
Layer 1
 62
     7
370
    25
100
AcDbVertex
100
AcDb2dVertex
 10
648.8813230799672
 20
545.9696029993584
 30
0.0
  0
SEQEND
  5
267
330
264
100
AcDbEntity
  8
Layer 1
370
    25
  0
POLYLINE
  5
268
330
3C
100
AcDbEntity
  8
Layer 1
 62
     7
370
    25
100
AcDb2dPolyline
 66
     1
 10
0.0
 20
0.0
 30
0.0
  0
VERTEX
  5
269
330
268
100
AcDbEntity
  8
Layer 1
 62
     7
370
    25
100
AcDbVertex
100
AcDb2dVertex
 10
659.4646564106547
 20
567.1366141702819
 30
0.0
  0
VERTEX
  5
26A
330
268
100
AcDbEntity
  8
Layer 1
 62
     7
370
    25
100
AcDbVertex
100
AcDb2dVertex
 10
664.7556340569014
 20
574.191825214525
 30
0.0
  0
SEQEND
  5
26B
330
268
100
AcDbEntity
  8
Layer 1
370
    25
  0
POLYLINE
  5
26C
330
3C
100
AcDbEntity
  8
Layer 1
 62
     7
370
    25
100
AcDb2dPolyline
 66
     1
 10
0.0
 20
0.0
 30
0.0
  0
VERTEX
  5
26D
330
26C
100
AcDbEntity
  8
Layer 1
 62
     7
370
    25
100
AcDbVertex
100
AcDb2dVertex
 10
664.7556340569014
 20
574.191825214525
 30
0.0
  0
VERTEX
  5
26E
330
26C
100
AcDbEntity
  8
Layer 1
 62
     7
370
    25
100
AcDbVertex
100
AcDb2dVertex
 10
675.3389673875889
 20
574.191825214525
 30
0.0
  0
SEQEND
  5
26F
330
26C
100
AcDbEntity
  8
Layer 1
370
    25
  0
POLYLINE
  5
270
330
3C
100
AcDbEntity
  8
Layer 1
 62
     7
370
    25
100
AcDb2dPolyline
 66
     1
 10
0.0
 20
0.0
 30
0.0
  0
VERTEX
  5
271
330
270
100
AcDbEntity
  8
Layer 1
 62
     7
370
    25
100
AcDbVertex
100
AcDb2dVertex
 10
675.3389673875889
 20
574.191825214525
 30
0.0
  0
VERTEX
  5
272
330
270
100
AcDbEntity
  8
Layer 1
 62
     7
370
    25
100
AcDbVertex
100
AcDb2dVertex
 10
680.6309785624812
 20
567.1366141702819
 30
0.0
  0
SEQEND
  5
273
330
270
100
AcDbEntity
  8
Layer 1
370
    25
  0
POLYLINE
  5
274
330
3C
100
AcDbEntity
  8
Layer 1
 62
     7
370
    25
100
AcDb2dPolyline
 66
     1
 10
0.0
 20
0.0
 30
0.0
  0
VERTEX
  5
275
330
274
100
AcDbEntity
  8
Layer 1
 62
     7
370
    25
100
AcDbVertex
100
AcDb2dVertex
 10
680.6309785624812
 20
567.1366141702819
 30
0.0
  0
VERTEX
  5
276
330
274
100
AcDbEntity
  8
Layer 1
 62
     7
370
    25
100
AcDbVertex
100
AcDb2dVertex
 10
680.6309785624812
 20
560.0810586164902
 30
0.0
  0
SEQEND
  5
277
330
274
100
AcDbEntity
  8
Layer 1
370
    25
  0
POLYLINE
  5
278
330
3C
100
AcDbEntity
  8
Layer 1
 62
     7
370
    25
100
AcDb2dPolyline
 66
     1
 10
0.0
 20
0.0
 30
0.0
  0
VERTEX
  5
279
330
278
100
AcDbEntity
  8
Layer 1
 62
     7
370
    25
100
AcDbVertex
100
AcDb2dVertex
 10
680.6309785624812
 20
560.0810586164902
 30
0.0
  0
VERTEX
  5
27A
330
278
100
AcDbEntity
  8
Layer 1
 62
     7
370
    25
100
AcDbVertex
100
AcDb2dVertex
 10
675.3389673875889
 20
553.025847572247
 30
0.0
  0
SEQEND
  5
27B
330
278
100
AcDbEntity
  8
Layer 1
370
    25
  0
POLYLINE
  5
27C
330
3C
100
AcDbEntity
  8
Layer 1
 62
     7
370
    25
100
AcDb2dPolyline
 66
     1
 10
0.0
 20
0.0
 30
0.0
  0
VERTEX
  5
27D
330
27C
100
AcDbEntity
  8
Layer 1
 62
     7
370
    25
100
AcDbVertex
100
AcDb2dVertex
 10
675.3389673875889
 20
553.025847572247
 30
0.0
  0
VERTEX
  5
27E
330
27C
100
AcDbEntity
  8
Layer 1
 62
     7
370
    25
100
AcDbVertex
100
AcDb2dVertex
 10
664.7556340569014
 20
553.025847572247
 30
0.0
  0
SEQEND
  5
27F
330
27C
100
AcDbEntity
  8
Layer 1
370
    25
  0
POLYLINE
  5
280
330
3C
100
AcDbEntity
  8
Layer 1
 62
     7
370
    25
100
AcDb2dPolyline
 66
     1
 10
0.0
 20
0.0
 30
0.0
  0
VERTEX
  5
281
330
280
100
AcDbEntity
  8
Layer 1
 62
     7
370
    25
100
AcDbVertex
100
AcDb2dVertex
 10
664.7556340569014
 20
553.025847572247
 30
0.0
  0
VERTEX
  5
282
330
280
100
AcDbEntity
  8
Layer 1
 62
     7
370
    25
100
AcDbVertex
100
AcDb2dVertex
 10
659.4646564106547
 20
545.9696029993584
 30
0.0
  0
SEQEND
  5
283
330
280
100
AcDbEntity
  8
Layer 1
370
    25
  0
POLYLINE
  5
284
330
3C
100
AcDbEntity
  8
Layer 1
 62
     7
370
    25
100
AcDb2dPolyline
 66
     1
 10
0.0
 20
0.0
 30
0.0
  0
VERTEX
  5
285
330
284
100
AcDbEntity
  8
Layer 1
 62
     7
370
    25
100
AcDbVertex
100
AcDb2dVertex
 10
659.4646564106547
 20
545.9696029993584
 30
0.0
  0
VERTEX
  5
286
330
284
100
AcDbEntity
  8
Layer 1
 62
     7
370
    25
100
AcDbVertex
100
AcDb2dVertex
 10
659.4646564106547
 20
531.8588364013235
 30
0.0
  0
SEQEND
  5
287
330
284
100
AcDbEntity
  8
Layer 1
370
    25
  0
POLYLINE
  5
288
330
3C
100
AcDbEntity
  8
Layer 1
 62
     7
370
    25
100
AcDb2dPolyline
 66
     1
 10
0.0
 20
0.0
 30
0.0
  0
VERTEX
  5
289
330
288
100
AcDbEntity
  8
Layer 1
 62
     7
370
    25
100
AcDbVertex
100
AcDb2dVertex
 10
659.4646564106547
 20
531.8588364013235
 30
0.0
  0
VERTEX
  5
28A
330
288
100
AcDbEntity
  8
Layer 1
 62
     7
370
    25
100
AcDbVertex
100
AcDb2dVertex
 10
680.6309785624812
 20
531.8588364013235
 30
0.0
  0
SEQEND
  5
28B
330
288
100
AcDbEntity
  8
Layer 1
370
    25
  0
POLYLINE
  5
28C
330
3C
100
AcDbEntity
  8
Layer 1
 62
     7
370
    25
100
AcDb2dPolyline
 66
     1
 10
0.0
 20
0.0
 30
0.0
  0
VERTEX
  5
28D
330
28C
100
AcDbEntity
  8
Layer 1
 62
     7
370
    25
100
AcDbVertex
100
AcDb2dVertex
 10
691.2143118931687
 20
531.8588364013235
 30
0.0
  0
VERTEX
  5
28E
330
28C
100
AcDbEntity
  8
Layer 1
 62
     7
370
    25
100
AcDbVertex
100
AcDb2dVertex
 10
691.2143118931687
 20
538.9143919551152
 30
0.0
  0
SEQEND
  5
28F
330
28C
100
AcDbEntity
  8
Layer 1
370
    25
  0
POLYLINE
  5
290
330
3C
100
AcDbEntity
  8
Layer 1
 62
     7
370
    25
100
AcDb2dPolyline
 66
     1
 10
0.0
 20
0.0
 30
0.0
  0
VERTEX
  5
291
330
290
100
AcDbEntity
  8
Layer 1
 62
     7
370
    25
100
AcDbVertex
100
AcDb2dVertex
 10
701.7976452238562
 20
538.9143919551152
 30
0.0
  0
VERTEX
  5
292
330
290
100
AcDbEntity
  8
Layer 1
 62
     7
370
    25
100
AcDbVertex
100
AcDb2dVertex
 10
707.0893118892
 20
531.8588364013235
 30
0.0
  0
SEQEND
  5
293
330
290
100
AcDbEntity
  8
Layer 1
370
    25
  0
POLYLINE
  5
294
330
3C
100
AcDbEntity
  8
Layer 1
 62
     7
370
    25
100
AcDb2dPolyline
 66
     1
 10
0.0
 20
0.0
 30
0.0
  0
VERTEX
  5
295
330
294
100
AcDbEntity
  8
Layer 1
 62
     7
370
    25
100
AcDbVertex
100
AcDb2dVertex
 10
707.0893118892
 20
531.8588364013235
 30
0.0
  0
VERTEX
  5
296
330
294
100
AcDbEntity
  8
Layer 1
 62
     7
370
    25
100
AcDbVertex
100
AcDb2dVertex
 10
717.6729897294359
 20
531.8588364013235
 30
0.0
  0
SEQEND
  5
297
330
294
100
AcDbEntity
  8
Layer 1
370
    25
  0
POLYLINE
  5
298
330
3C
100
AcDbEntity
  8
Layer 1
 62
     7
370
    25
100
AcDb2dPolyline
 66
     1
 10
0.0
 20
0.0
 30
0.0
  0
VERTEX
  5
299
330
298
100
AcDbEntity
  8
Layer 1
 62
     7
370
    25
100
AcDbVertex
100
AcDb2dVertex
 10
717.6729897294359
 20
531.8588364013235
 30
0.0
  0
VERTEX
  5
29A
330
298
100
AcDbEntity
  8
Layer 1
 62
     7
370
    25
100
AcDbVertex
100
AcDb2dVertex
 10
722.9646563947797
 20
538.9143919551152
 30
0.0
  0
SEQEND
  5
29B
330
298
100
AcDbEntity
  8
Layer 1
370
    25
  0
POLYLINE
  5
29C
330
3C
100
AcDbEntity
  8
Layer 1
 62
     7
370
    25
100
AcDb2dPolyline
 66
     1
 10
0.0
 20
0.0
 30
0.0
  0
VERTEX
  5
29D
330
29C
100
AcDbEntity
  8
Layer 1
 62
     7
370
    25
100
AcDbVertex
100
AcDb2dVertex
 10
722.9646563947797
 20
538.9143919551152
 30
0.0
  0
VERTEX
  5
29E
330
29C
100
AcDbEntity
  8
Layer 1
 62
     7
370
    25
100
AcDbVertex
100
AcDb2dVertex
 10
722.9646563947797
 20
553.025847572247
 30
0.0
  0
SEQEND
  5
29F
330
29C
100
AcDbEntity
  8
Layer 1
370
    25
  0
POLYLINE
  5
2A0
330
3C
100
AcDbEntity
  8
Layer 1
 62
     7
370
    25
100
AcDb2dPolyline
 66
     1
 10
0.0
 20
0.0
 30
0.0
  0
VERTEX
  5
2A1
330
2A0
100
AcDbEntity
  8
Layer 1
 62
     7
370
    25
100
AcDbVertex
100
AcDb2dVertex
 10
722.9646563947797
 20
553.025847572247
 30
0.0
  0
VERTEX
  5
2A2
330
2A0
100
AcDbEntity
  8
Layer 1
 62
     7
370
    25
100
AcDbVertex
100
AcDb2dVertex
 10
717.6729897294359
 20
560.0810586164902
 30
0.0
  0
SEQEND
  5
2A3
330
2A0
100
AcDbEntity
  8
Layer 1
370
    25
  0
POLYLINE
  5
2A4
330
3C
100
AcDbEntity
  8
Layer 1
 62
     7
370
    25
100
AcDb2dPolyline
 66
     1
 10
0.0
 20
0.0
 30
0.0
  0
VERTEX
  5
2A5
330
2A4
100
AcDbEntity
  8
Layer 1
 62
     7
370
    25
100
AcDbVertex
100
AcDb2dVertex
 10
717.6729897294359
 20
560.0810586164902
 30
0.0
  0
VERTEX
  5
2A6
330
2A4
100
AcDbEntity
  8
Layer 1
 62
     7
370
    25
100
AcDbVertex
100
AcDb2dVertex
 10
701.7976452238562
 20
560.0810586164902
 30
0.0
  0
SEQEND
  5
2A7
330
2A4
100
AcDbEntity
  8
Layer 1
370
    25
  0
POLYLINE
  5
2A8
330
3C
100
AcDbEntity
  8
Layer 1
 62
     7
370
    25
100
AcDb2dPolyline
 66
     1
 10
0.0
 20
0.0
 30
0.0
  0
VERTEX
  5
2A9
330
2A8
100
AcDbEntity
  8
Layer 1
 62
     7
370
    25
100
AcDbVertex
100
AcDb2dVertex
 10
701.7976452238562
 20
560.0810586164902
 30
0.0
  0
VERTEX
  5
2AA
330
2A8
100
AcDbEntity
  8
Layer 1
 62
     7
370
    25
100
AcDbVertex
100
AcDb2dVertex
 10
701.7976452238562
 20
574.191825214525
 30
0.0
  0
SEQEND
  5
2AB
330
2A8
100
AcDbEntity
  8
Layer 1
370
    25
  0
POLYLINE
  5
2AC
330
3C
100
AcDbEntity
  8
Layer 1
 62
     7
370
    25
100
AcDb2dPolyline
 66
     1
 10
0.0
 20
0.0
 30
0.0
  0
VERTEX
  5
2AD
330
2AC
100
AcDbEntity
  8
Layer 1
 62
     7
370
    25
100
AcDbVertex
100
AcDb2dVertex
 10
701.7976452238562
 20
574.191825214525
 30
0.0
  0
VERTEX
  5
2AE
330
2AC
100
AcDbEntity
  8
Layer 1
 62
     7
370
    25
100
AcDbVertex
100
AcDb2dVertex
 10
722.9646563947797
 20
574.191825214525
 30
0.0
  0
SEQEND
  5
2AF
330
2AC
100
AcDbEntity
  8
Layer 1
370
    25
  0
POLYLINE
  5
2B0
330
3C
100
AcDbEntity
  8
Layer 1
370
     0
100
AcDb2dPolyline
 66
     1
 10
0.0
 20
0.0
 30
0.0
  0
VERTEX
  5
2B1
330
2B0
100
AcDbEntity
  8
Layer 1
370
     0
100
AcDbVertex
100
AcDb2dVertex
 10
448.3707369213275
 20
1196.464953314165
 30
0.0
  0
VERTEX
  5
2B2
330
2B0
100
AcDbEntity
  8
Layer 1
370
     0
100
AcDbVertex
100
AcDb2dVertex
 10
418.3706731809976
 20
1191.465258491196
 30
0.0
  0
VERTEX
  5
2B3
330
2B0
100
AcDbEntity
  8
Layer 1
370
     0
100
AcDbVertex
100
AcDb2dVertex
 10
418.3706731809976
 20
1201.465164901457
 30
0.0
  0
SEQEND
  5
2B4
330
2B0
100
AcDbEntity
  8
Layer 1
370
     0
  0
HATCH
  5
2B5
330
3C
100
AcDbEntity
  8
Layer 1
 62
     7
100
AcDbHatch
 10
0.0
 20
0.0
 30
0.0
210
0.0
220
0.0
230
1.0
  2
SOLID
 70
     1
 71
     0
 91
        1
 92
        1
 93
        3
 72
     1
 10
448.3707369213275
 20
1196.464953314165
 11
418.3706731809976
 21
1191.465258491196
 72
     1
 10
418.3706731809976
 20
1191.465258491196
 11
418.3706731809976
 21
1201.465164901457
 72
     1
 10
418.3706731809976
 20
1201.465164901457
 11
448.3707369213275
 21
1196.464953314165
 97
        0
 75
     2
 76
     1
 98
        0
  0
POLYLINE
  5
2B6
330
3C
100
AcDbEntity
  8
Layer 1
370
     0
100
AcDb2dPolyline
 66
     1
 10
0.0
 20
0.0
 30
0.0
  0
VERTEX
  5
2B7
330
2B6
100
AcDbEntity
  8
Layer 1
370
     0
100
AcDbVertex
100
AcDb2dVertex
 10
683.3701739828033
 20
1196.464953314165
 30
0.0
  0
VERTEX
  5
2B8
330
2B6
100
AcDbEntity
  8
Layer 1
370
     0
100
AcDbVertex
100
AcDb2dVertex
 10
713.3704099779075
 20
1201.465164901457
 30
0.0
  0
VERTEX
  5
2B9
330
2B6
100
AcDbEntity
  8
Layer 1
370
     0
100
AcDbVertex
100
AcDb2dVertex
 10
713.3704099779075
 20
1191.465258491196
 30
0.0
  0
SEQEND
  5
2BA
330
2B6
100
AcDbEntity
  8
Layer 1
370
     0
  0
HATCH
  5
2BB
330
3C
100
AcDbEntity
  8
Layer 1
 62
     7
100
AcDbHatch
 10
0.0
 20
0.0
 30
0.0
210
0.0
220
0.0
230
1.0
  2
SOLID
 70
     1
 71
     0
 91
        1
 92
        1
 93
        3
 72
     1
 10
683.3701739828033
 20
1196.464953314165
 11
713.3704099779075
 21
1201.465164901457
 72
     1
 10
713.3704099779075
 20
1201.465164901457
 11
713.3704099779075
 21
1191.465258491196
 72
     1
 10
713.3704099779075
 20
1191.465258491196
 11
683.3701739828033
 21
1196.464953314165
 97
        0
 75
     2
 76
     1
 98
        0
  0
POLYLINE
  5
2BC
330
3C
100
AcDbEntity
  8
Layer 1
 62
     7
370
    25
100
AcDb2dPolyline
 66
     1
 10
0.0
 20
0.0
 30
0.0
  0
VERTEX
  5
2BD
330
2BC
100
AcDbEntity
  8
Layer 1
 62
     7
370
    25
100
AcDbVertex
100
AcDb2dVertex
 10
448.3707369213275
 20
1116.431940096326
 30
0.0
  0
VERTEX
  5
2BE
330
2BC
100
AcDbEntity
  8
Layer 1
 62
     7
370
    25
100
AcDbVertex
100
AcDb2dVertex
 10
448.3707369213275
 20
1206.464859724425
 30
0.0
  0
SEQEND
  5
2BF
330
2BC
100
AcDbEntity
  8
Layer 1
370
    25
  0
POLYLINE
  5
2C0
330
3C
100
AcDbEntity
  8
Layer 1
 62
     7
370
    25
100
AcDb2dPolyline
 66
     1
 10
0.0
 20
0.0
 30
0.0
  0
VERTEX
  5
2C1
330
2C0
100
AcDbEntity
  8
Layer 1
 62
     7
370
    25
100
AcDbVertex
100
AcDb2dVertex
 10
683.3701739828033
 20
1115.912936461473
 30
0.0
  0
VERTEX
  5
2C2
330
2C0
100
AcDbEntity
  8
Layer 1
 62
     7
370
    25
100
AcDbVertex
100
AcDb2dVertex
 10
683.3701739828033
 20
1206.464859724425
 30
0.0
  0
SEQEND
  5
2C3
330
2C0
100
AcDbEntity
  8
Layer 1
370
    25
  0
POLYLINE
  5
2C4
330
3C
100
AcDbEntity
  8
Layer 1
 62
     7
370
    25
100
AcDb2dPolyline
 66
     1
 10
0.0
 20
0.0
 30
0.0
  0
VERTEX
  5
2C5
330
2C4
100
AcDbEntity
  8
Layer 1
 62
     7
370
    25
100
AcDbVertex
100
AcDb2dVertex
 10
448.3707369213275
 20
1196.464953314165
 30
0.0
  0
VERTEX
  5
2C6
330
2C4
100
AcDbEntity
  8
Layer 1
 62
     7
370
    25
100
AcDbVertex
100
AcDb2dVertex
 10
388.3706094406678
 20
1196.464953314165
 30
0.0
  0
SEQEND
  5
2C7
330
2C4
100
AcDbEntity
  8
Layer 1
370
    25
  0
POLYLINE
  5
2C8
330
3C
100
AcDbEntity
  8
Layer 1
 62
     7
370
    25
100
AcDb2dPolyline
 66
     1
 10
0.0
 20
0.0
 30
0.0
  0
VERTEX
  5
2C9
330
2C8
100
AcDbEntity
  8
Layer 1
 62
     7
370
    25
100
AcDbVertex
100
AcDb2dVertex
 10
448.3707369213275
 20
1196.464953314165
 30
0.0
  0
VERTEX
  5
2CA
330
2C8
100
AcDbEntity
  8
Layer 1
 62
     7
370
    25
100
AcDbVertex
100
AcDb2dVertex
 10
683.3701739828033
 20
1196.464953314165
 30
0.0
  0
SEQEND
  5
2CB
330
2C8
100
AcDbEntity
  8
Layer 1
370
    25
  0
POLYLINE
  5
2CC
330
3C
100
AcDbEntity
  8
Layer 1
 62
     7
370
    25
100
AcDb2dPolyline
 66
     1
 10
0.0
 20
0.0
 30
0.0
  0
VERTEX
  5
2CD
330
2CC
100
AcDbEntity
  8
Layer 1
 62
     7
370
    25
100
AcDbVertex
100
AcDb2dVertex
 10
683.3701739828033
 20
1196.464953314165
 30
0.0
  0
VERTEX
  5
2CE
330
2CC
100
AcDbEntity
  8
Layer 1
 62
     7
370
    25
100
AcDbVertex
100
AcDb2dVertex
 10
743.370301463463
 20
1196.464953314165
 30
0.0
  0
SEQEND
  5
2CF
330
2CC
100
AcDbEntity
  8
Layer 1
370
    25
  0
POLYLINE
  5
2D0
330
3C
100
AcDbEntity
  8
Layer 1
 62
     7
370
    25
100
AcDb2dPolyline
 66
     1
 10
0.0
 20
0.0
 30
0.0
  0
VERTEX
  5
2D1
330
2D0
100
AcDbEntity
  8
Layer 1
 62
     7
370
    25
100
AcDbVertex
100
AcDb2dVertex
 10
501.7824637959954
 20
1243.980399265828
 30
0.0
  0
VERTEX
  5
2D2
330
2D0
100
AcDbEntity
  8
Layer 1
 62
     7
370
    25
100
AcDbVertex
100
AcDb2dVertex
 10
507.0741304613391
 20
1251.035610310071
 30
0.0
  0
SEQEND
  5
2D3
330
2D0
100
AcDbEntity
  8
Layer 1
370
    25
  0
POLYLINE
  5
2D4
330
3C
100
AcDbEntity
  8
Layer 1
 62
     7
370
    25
100
AcDb2dPolyline
 66
     1
 10
0.0
 20
0.0
 30
0.0
  0
VERTEX
  5
2D5
330
2D4
100
AcDbEntity
  8
Layer 1
 62
     7
370
    25
100
AcDbVertex
100
AcDb2dVertex
 10
507.0741304613391
 20
1251.035610310071
 30
0.0
  0
VERTEX
  5
2D6
330
2D4
100
AcDbEntity
  8
Layer 1
 62
     7
370
    25
100
AcDbVertex
100
AcDb2dVertex
 10
517.6572915372524
 20
1251.035610310071
 30
0.0
  0
SEQEND
  5
2D7
330
2D4
100
AcDbEntity
  8
Layer 1
370
    25
  0
POLYLINE
  5
2D8
330
3C
100
AcDbEntity
  8
Layer 1
 62
     7
370
    25
100
AcDb2dPolyline
 66
     1
 10
0.0
 20
0.0
 30
0.0
  0
VERTEX
  5
2D9
330
2D8
100
AcDbEntity
  8
Layer 1
 62
     7
370
    25
100
AcDbVertex
100
AcDb2dVertex
 10
517.6572915372524
 20
1251.035610310071
 30
0.0
  0
VERTEX
  5
2DA
330
2D8
100
AcDbEntity
  8
Layer 1
 62
     7
370
    25
100
AcDbVertex
100
AcDb2dVertex
 10
522.9489582025961
 20
1243.980399265828
 30
0.0
  0
SEQEND
  5
2DB
330
2D8
100
AcDbEntity
  8
Layer 1
370
    25
  0
POLYLINE
  5
2DC
330
3C
100
AcDbEntity
  8
Layer 1
 62
     7
370
    25
100
AcDb2dPolyline
 66
     1
 10
0.0
 20
0.0
 30
0.0
  0
VERTEX
  5
2DD
330
2DC
100
AcDbEntity
  8
Layer 1
 62
     7
370
    25
100
AcDbVertex
100
AcDb2dVertex
 10
522.9489582025961
 20
1243.980399265828
 30
0.0
  0
VERTEX
  5
2DE
330
2DC
100
AcDbEntity
  8
Layer 1
 62
     7
370
    25
100
AcDbVertex
100
AcDb2dVertex
 10
522.9489582025961
 20
1236.924499202488
 30
0.0
  0
SEQEND
  5
2DF
330
2DC
100
AcDbEntity
  8
Layer 1
370
    25
  0
POLYLINE
  5
2E0
330
3C
100
AcDbEntity
  8
Layer 1
 62
     7
370
    25
100
AcDb2dPolyline
 66
     1
 10
0.0
 20
0.0
 30
0.0
  0
VERTEX
  5
2E1
330
2E0
100
AcDbEntity
  8
Layer 1
 62
     7
370
    25
100
AcDbVertex
100
AcDb2dVertex
 10
522.9489582025961
 20
1236.924499202488
 30
0.0
  0
VERTEX
  5
2E2
330
2E0
100
AcDbEntity
  8
Layer 1
 62
     7
370
    25
100
AcDbVertex
100
AcDb2dVertex
 10
517.6572915372524
 20
1229.868771393922
 30
0.0
  0
SEQEND
  5
2E3
330
2E0
100
AcDbEntity
  8
Layer 1
370
    25
  0
POLYLINE
  5
2E4
330
3C
100
AcDbEntity
  8
Layer 1
 62
     7
370
    25
100
AcDb2dPolyline
 66
     1
 10
0.0
 20
0.0
 30
0.0
  0
VERTEX
  5
2E5
330
2E4
100
AcDbEntity
  8
Layer 1
 62
     7
370
    25
100
AcDbVertex
100
AcDb2dVertex
 10
517.6572915372524
 20
1229.868771393922
 30
0.0
  0
VERTEX
  5
2E6
330
2E4
100
AcDbEntity
  8
Layer 1
 62
     7
370
    25
100
AcDbVertex
100
AcDb2dVertex
 10
507.0741304613391
 20
1229.868771393922
 30
0.0
  0
SEQEND
  5
2E7
330
2E4
100
AcDbEntity
  8
Layer 1
370
    25
  0
POLYLINE
  5
2E8
330
3C
100
AcDbEntity
  8
Layer 1
 62
     7
370
    25
100
AcDb2dPolyline
 66
     1
 10
0.0
 20
0.0
 30
0.0
  0
VERTEX
  5
2E9
330
2E8
100
AcDbEntity
  8
Layer 1
 62
     7
370
    25
100
AcDbVertex
100
AcDb2dVertex
 10
507.0741304613391
 20
1229.868771393922
 30
0.0
  0
VERTEX
  5
2EA
330
2E8
100
AcDbEntity
  8
Layer 1
 62
     7
370
    25
100
AcDbVertex
100
AcDb2dVertex
 10
501.7824637959954
 20
1222.813388094904
 30
0.0
  0
SEQEND
  5
2EB
330
2E8
100
AcDbEntity
  8
Layer 1
370
    25
  0
POLYLINE
  5
2EC
330
3C
100
AcDbEntity
  8
Layer 1
 62
     7
370
    25
100
AcDb2dPolyline
 66
     1
 10
0.0
 20
0.0
 30
0.0
  0
VERTEX
  5
2ED
330
2EC
100
AcDbEntity
  8
Layer 1
 62
     7
370
    25
100
AcDbVertex
100
AcDb2dVertex
 10
501.7824637959954
 20
1222.813388094904
 30
0.0
  0
VERTEX
  5
2EE
330
2EC
100
AcDbEntity
  8
Layer 1
 62
     7
370
    25
100
AcDbVertex
100
AcDb2dVertex
 10
501.7824637959954
 20
1208.702276987321
 30
0.0
  0
SEQEND
  5
2EF
330
2EC
100
AcDbEntity
  8
Layer 1
370
    25
  0
POLYLINE
  5
2F0
330
3C
100
AcDbEntity
  8
Layer 1
 62
     7
370
    25
100
AcDb2dPolyline
 66
     1
 10
0.0
 20
0.0
 30
0.0
  0
VERTEX
  5
2F1
330
2F0
100
AcDbEntity
  8
Layer 1
 62
     7
370
    25
100
AcDbVertex
100
AcDb2dVertex
 10
501.7824637959954
 20
1208.702276987321
 30
0.0
  0
VERTEX
  5
2F2
330
2F0
100
AcDbEntity
  8
Layer 1
 62
     7
370
    25
100
AcDbVertex
100
AcDb2dVertex
 10
522.9489582025961
 20
1208.702276987321
 30
0.0
  0
SEQEND
  5
2F3
330
2F0
100
AcDbEntity
  8
Layer 1
370
    25
  0
POLYLINE
  5
2F4
330
3C
100
AcDbEntity
  8
Layer 1
 62
     7
370
    25
100
AcDb2dPolyline
 66
     1
 10
0.0
 20
0.0
 30
0.0
  0
VERTEX
  5
2F5
330
2F4
100
AcDbEntity
  8
Layer 1
 62
     7
370
    25
100
AcDbVertex
100
AcDb2dVertex
 10
533.5322915332836
 20
1215.758004795887
 30
0.0
  0
VERTEX
  5
2F6
330
2F4
100
AcDbEntity
  8
Layer 1
 62
     7
370
    25
100
AcDbVertex
100
AcDb2dVertex
 10
538.8243027081759
 20
1208.702276987321
 30
0.0
  0
SEQEND
  5
2F7
330
2F4
100
AcDbEntity
  8
Layer 1
370
    25
  0
POLYLINE
  5
2F8
330
3C
100
AcDbEntity
  8
Layer 1
 62
     7
370
    25
100
AcDb2dPolyline
 66
     1
 10
0.0
 20
0.0
 30
0.0
  0
VERTEX
  5
2F9
330
2F8
100
AcDbEntity
  8
Layer 1
 62
     7
370
    25
100
AcDbVertex
100
AcDb2dVertex
 10
538.8243027081759
 20
1208.702276987321
 30
0.0
  0
VERTEX
  5
2FA
330
2F8
100
AcDbEntity
  8
Layer 1
 62
     7
370
    25
100
AcDbVertex
100
AcDb2dVertex
 10
549.4076360388634
 20
1208.702276987321
 30
0.0
  0
SEQEND
  5
2FB
330
2F8
100
AcDbEntity
  8
Layer 1
370
    25
  0
POLYLINE
  5
2FC
330
3C
100
AcDbEntity
  8
Layer 1
 62
     7
370
    25
100
AcDb2dPolyline
 66
     1
 10
0.0
 20
0.0
 30
0.0
  0
VERTEX
  5
2FD
330
2FC
100
AcDbEntity
  8
Layer 1
 62
     7
370
    25
100
AcDbVertex
100
AcDb2dVertex
 10
549.4076360388634
 20
1208.702276987321
 30
0.0
  0
VERTEX
  5
2FE
330
2FC
100
AcDbEntity
  8
Layer 1
 62
     7
370
    25
100
AcDbVertex
100
AcDb2dVertex
 10
554.6993027042072
 20
1215.758004795887
 30
0.0
  0
SEQEND
  5
2FF
330
2FC
100
AcDbEntity
  8
Layer 1
370
    25
  0
POLYLINE
  5
300
330
3C
100
AcDbEntity
  8
Layer 1
 62
     7
370
    25
100
AcDb2dPolyline
 66
     1
 10
0.0
 20
0.0
 30
0.0
  0
VERTEX
  5
301
330
300
100
AcDbEntity
  8
Layer 1
 62
     7
370
    25
100
AcDbVertex
100
AcDb2dVertex
 10
554.6993027042072
 20
1215.758004795887
 30
0.0
  0
VERTEX
  5
302
330
300
100
AcDbEntity
  8
Layer 1
 62
     7
370
    25
100
AcDbVertex
100
AcDb2dVertex
 10
554.6993027042072
 20
1222.813388094904
 30
0.0
  0
SEQEND
  5
303
330
300
100
AcDbEntity
  8
Layer 1
370
    25
  0
POLYLINE
  5
304
330
3C
100
AcDbEntity
  8
Layer 1
 62
     7
370
    25
100
AcDb2dPolyline
 66
     1
 10
0.0
 20
0.0
 30
0.0
  0
VERTEX
  5
305
330
304
100
AcDbEntity
  8
Layer 1
 62
     7
370
    25
100
AcDbVertex
100
AcDb2dVertex
 10
554.6993027042072
 20
1222.813388094904
 30
0.0
  0
VERTEX
  5
306
330
304
100
AcDbEntity
  8
Layer 1
 62
     7
370
    25
100
AcDbVertex
100
AcDb2dVertex
 10
549.4076360388634
 20
1229.868771393922
 30
0.0
  0
SEQEND
  5
307
330
304
100
AcDbEntity
  8
Layer 1
370
    25
  0
POLYLINE
  5
308
330
3C
100
AcDbEntity
  8
Layer 1
 62
     7
370
    25
100
AcDb2dPolyline
 66
     1
 10
0.0
 20
0.0
 30
0.0
  0
VERTEX
  5
309
330
308
100
AcDbEntity
  8
Layer 1
 62
     7
370
    25
100
AcDbVertex
100
AcDb2dVertex
 10
549.4076360388634
 20
1229.868771393922
 30
0.0
  0
VERTEX
  5
30A
330
308
100
AcDbEntity
  8
Layer 1
 62
     7
370
    25
100
AcDbVertex
100
AcDb2dVertex
 10
544.1159693735196
 20
1229.868771393922
 30
0.0
  0
SEQEND
  5
30B
330
308
100
AcDbEntity
  8
Layer 1
370
    25
  0
POLYLINE
  5
30C
330
3C
100
AcDbEntity
  8
Layer 1
 62
     7
370
    25
100
AcDb2dPolyline
 66
     1
 10
0.0
 20
0.0
 30
0.0
  0
VERTEX
  5
30D
330
30C
100
AcDbEntity
  8
Layer 1
 62
     7
370
    25
100
AcDbVertex
100
AcDb2dVertex
 10
549.4076360388634
 20
1229.868771393922
 30
0.0
  0
VERTEX
  5
30E
330
30C
100
AcDbEntity
  8
Layer 1
 62
     7
370
    25
100
AcDbVertex
100
AcDb2dVertex
 10
554.6993027042072
 20
1236.924499202488
 30
0.0
  0
SEQEND
  5
30F
330
30C
100
AcDbEntity
  8
Layer 1
370
    25
  0
POLYLINE
  5
310
330
3C
100
AcDbEntity
  8
Layer 1
 62
     7
370
    25
100
AcDb2dPolyline
 66
     1
 10
0.0
 20
0.0
 30
0.0
  0
VERTEX
  5
311
330
310
100
AcDbEntity
  8
Layer 1
 62
     7
370
    25
100
AcDbVertex
100
AcDb2dVertex
 10
554.6993027042072
 20
1236.924499202488
 30
0.0
  0
VERTEX
  5
312
330
310
100
AcDbEntity
  8
Layer 1
 62
     7
370
    25
100
AcDbVertex
100
AcDb2dVertex
 10
554.6993027042072
 20
1243.980399265828
 30
0.0
  0
SEQEND
  5
313
330
310
100
AcDbEntity
  8
Layer 1
370
    25
  0
POLYLINE
  5
314
330
3C
100
AcDbEntity
  8
Layer 1
 62
     7
370
    25
100
AcDb2dPolyline
 66
     1
 10
0.0
 20
0.0
 30
0.0
  0
VERTEX
  5
315
330
314
100
AcDbEntity
  8
Layer 1
 62
     7
370
    25
100
AcDbVertex
100
AcDb2dVertex
 10
554.6993027042072
 20
1243.980399265828
 30
0.0
  0
VERTEX
  5
316
330
314
100
AcDbEntity
  8
Layer 1
 62
     7
370
    25
100
AcDbVertex
100
AcDb2dVertex
 10
549.4076360388634
 20
1251.035610310071
 30
0.0
  0
SEQEND
  5
317
330
314
100
AcDbEntity
  8
Layer 1
370
    25
  0
POLYLINE
  5
318
330
3C
100
AcDbEntity
  8
Layer 1
 62
     7
370
    25
100
AcDb2dPolyline
 66
     1
 10
0.0
 20
0.0
 30
0.0
  0
VERTEX
  5
319
330
318
100
AcDbEntity
  8
Layer 1
 62
     7
370
    25
100
AcDbVertex
100
AcDb2dVertex
 10
549.4076360388634
 20
1251.035610310071
 30
0.0
  0
VERTEX
  5
31A
330
318
100
AcDbEntity
  8
Layer 1
 62
     7
370
    25
100
AcDbVertex
100
AcDb2dVertex
 10
538.8243027081759
 20
1251.035610310071
 30
0.0
  0
SEQEND
  5
31B
330
318
100
AcDbEntity
  8
Layer 1
370
    25
  0
POLYLINE
  5
31C
330
3C
100
AcDbEntity
  8
Layer 1
 62
     7
370
    25
100
AcDb2dPolyline
 66
     1
 10
0.0
 20
0.0
 30
0.0
  0
VERTEX
  5
31D
330
31C
100
AcDbEntity
  8
Layer 1
 62
     7
370
    25
100
AcDbVertex
100
AcDb2dVertex
 10
538.8243027081759
 20
1251.035610310071
 30
0.0
  0
VERTEX
  5
31E
330
31C
100
AcDbEntity
  8
Layer 1
 62
     7
370
    25
100
AcDbVertex
100
AcDb2dVertex
 10
533.5322915332836
 20
1243.980399265828
 30
0.0
  0
SEQEND
  5
31F
330
31C
100
AcDbEntity
  8
Layer 1
370
    25
  0
POLYLINE
  5
320
330
3C
100
AcDbEntity
  8
Layer 1
 62
     7
370
    25
100
AcDb2dPolyline
 66
     1
 10
0.0
 20
0.0
 30
0.0
  0
VERTEX
  5
321
330
320
100
AcDbEntity
  8
Layer 1
 62
     7
370
    25
100
AcDbVertex
100
AcDb2dVertex
 10
565.2819470157976
 20
1215.758004795887
 30
0.0
  0
VERTEX
  5
322
330
320
100
AcDbEntity
  8
Layer 1
 62
     7
370
    25
100
AcDbVertex
100
AcDb2dVertex
 10
570.5743027002384
 20
1208.702276987321
 30
0.0
  0
SEQEND
  5
323
330
320
100
AcDbEntity
  8
Layer 1
370
    25
  0
POLYLINE
  5
324
330
3C
100
AcDbEntity
  8
Layer 1
 62
     7
370
    25
100
AcDb2dPolyline
 66
     1
 10
0.0
 20
0.0
 30
0.0
  0
VERTEX
  5
325
330
324
100
AcDbEntity
  8
Layer 1
 62
     7
370
    25
100
AcDbVertex
100
AcDb2dVertex
 10
570.5743027002384
 20
1208.702276987321
 30
0.0
  0
VERTEX
  5
326
330
324
100
AcDbEntity
  8
Layer 1
 62
     7
370
    25
100
AcDbVertex
100
AcDb2dVertex
 10
581.1569470118288
 20
1208.702276987321
 30
0.0
  0
SEQEND
  5
327
330
324
100
AcDbEntity
  8
Layer 1
370
    25
  0
POLYLINE
  5
328
330
3C
100
AcDbEntity
  8
Layer 1
 62
     7
370
    25
100
AcDb2dPolyline
 66
     1
 10
0.0
 20
0.0
 30
0.0
  0
VERTEX
  5
329
330
328
100
AcDbEntity
  8
Layer 1
 62
     7
370
    25
100
AcDbVertex
100
AcDb2dVertex
 10
581.1569470118288
 20
1208.702276987321
 30
0.0
  0
VERTEX
  5
32A
330
328
100
AcDbEntity
  8
Layer 1
 62
     7
370
    25
100
AcDbVertex
100
AcDb2dVertex
 10
586.4489581867211
 20
1215.758004795887
 30
0.0
  0
SEQEND
  5
32B
330
328
100
AcDbEntity
  8
Layer 1
370
    25
  0
POLYLINE
  5
32C
330
3C
100
AcDbEntity
  8
Layer 1
 62
     7
370
    25
100
AcDb2dPolyline
 66
     1
 10
0.0
 20
0.0
 30
0.0
  0
VERTEX
  5
32D
330
32C
100
AcDbEntity
  8
Layer 1
 62
     7
370
    25
100
AcDbVertex
100
AcDb2dVertex
 10
586.4489581867211
 20
1215.758004795887
 30
0.0
  0
VERTEX
  5
32E
330
32C
100
AcDbEntity
  8
Layer 1
 62
     7
370
    25
100
AcDbVertex
100
AcDb2dVertex
 10
586.4489581867211
 20
1229.868771393922
 30
0.0
  0
SEQEND
  5
32F
330
32C
100
AcDbEntity
  8
Layer 1
370
    25
  0
POLYLINE
  5
330
330
3C
100
AcDbEntity
  8
Layer 1
 62
     7
370
    25
100
AcDb2dPolyline
 66
     1
 10
0.0
 20
0.0
 30
0.0
  0
VERTEX
  5
331
330
330
100
AcDbEntity
  8
Layer 1
 62
     7
370
    25
100
AcDbVertex
100
AcDb2dVertex
 10
586.4489581867211
 20
1229.868771393922
 30
0.0
  0
VERTEX
  5
332
330
330
100
AcDbEntity
  8
Layer 1
 62
     7
370
    25
100
AcDbVertex
100
AcDb2dVertex
 10
581.1569470118288
 20
1236.924499202488
 30
0.0
  0
SEQEND
  5
333
330
330
100
AcDbEntity
  8
Layer 1
370
    25
  0
POLYLINE
  5
334
330
3C
100
AcDbEntity
  8
Layer 1
 62
     7
370
    25
100
AcDb2dPolyline
 66
     1
 10
0.0
 20
0.0
 30
0.0
  0
VERTEX
  5
335
330
334
100
AcDbEntity
  8
Layer 1
 62
     7
370
    25
100
AcDbVertex
100
AcDb2dVertex
 10
581.1569470118288
 20
1236.924499202488
 30
0.0
  0
VERTEX
  5
336
330
334
100
AcDbEntity
  8
Layer 1
 62
     7
370
    25
100
AcDbVertex
100
AcDb2dVertex
 10
565.2819470157976
 20
1236.924499202488
 30
0.0
  0
SEQEND
  5
337
330
334
100
AcDbEntity
  8
Layer 1
370
    25
  0
POLYLINE
  5
338
330
3C
100
AcDbEntity
  8
Layer 1
 62
     7
370
    25
100
AcDb2dPolyline
 66
     1
 10
0.0
 20
0.0
 30
0.0
  0
VERTEX
  5
339
330
338
100
AcDbEntity
  8
Layer 1
 62
     7
370
    25
100
AcDbVertex
100
AcDb2dVertex
 10
565.2819470157976
 20
1236.924499202488
 30
0.0
  0
VERTEX
  5
33A
330
338
100
AcDbEntity
  8
Layer 1
 62
     7
370
    25
100
AcDbVertex
100
AcDb2dVertex
 10
565.2819470157976
 20
1251.035610310071
 30
0.0
  0
SEQEND
  5
33B
330
338
100
AcDbEntity
  8
Layer 1
370
    25
  0
POLYLINE
  5
33C
330
3C
100
AcDbEntity
  8
Layer 1
 62
     7
370
    25
100
AcDb2dPolyline
 66
     1
 10
0.0
 20
0.0
 30
0.0
  0
VERTEX
  5
33D
330
33C
100
AcDbEntity
  8
Layer 1
 62
     7
370
    25
100
AcDbVertex
100
AcDb2dVertex
 10
565.2819470157976
 20
1251.035610310071
 30
0.0
  0
VERTEX
  5
33E
330
33C
100
AcDbEntity
  8
Layer 1
 62
     7
370
    25
100
AcDbVertex
100
AcDb2dVertex
 10
586.4489581867211
 20
1251.035610310071
 30
0.0
  0
SEQEND
  5
33F
330
33C
100
AcDbEntity
  8
Layer 1
370
    25
  0
POLYLINE
  5
340
330
3C
100
AcDbEntity
  8
Layer 1
370
     0
100
AcDb2dPolyline
 66
     1
 10
0.0
 20
0.0
 30
0.0
  0
VERTEX
  5
341
330
340
100
AcDbEntity
  8
Layer 1
370
     0
100
AcDbVertex
100
AcDb2dVertex
 10
423.3703680039665
 20
1196.464953314165
 30
0.0
  0
VERTEX
  5
342
330
340
100
AcDbEntity
  8
Layer 1
370
     0
100
AcDbVertex
100
AcDb2dVertex
 10
393.3704765184109
 20
1191.465258491196
 30
0.0
  0
VERTEX
  5
343
330
340
100
AcDbEntity
  8
Layer 1
370
     0
100
AcDbVertex
100
AcDb2dVertex
 10
393.3704765184109
 20
1201.465164901457
 30
0.0
  0
SEQEND
  5
344
330
340
100
AcDbEntity
  8
Layer 1
370
     0
  0
HATCH
  5
345
330
3C
100
AcDbEntity
  8
Layer 1
 62
     7
100
AcDbHatch
 10
0.0
 20
0.0
 30
0.0
210
0.0
220
0.0
230
1.0
  2
SOLID
 70
     1
 71
     0
 91
        1
 92
        1
 93
        3
 72
     1
 10
423.3703680039665
 20
1196.464953314165
 11
393.3704765184109
 21
1191.465258491196
 72
     1
 10
393.3704765184109
 20
1191.465258491196
 11
393.3704765184109
 21
1201.465164901457
 72
     1
 10
393.3704765184109
 20
1201.465164901457
 11
423.3703680039665
 21
1196.464953314165
 97
        0
 75
     2
 76
     1
 98
        0
  0
POLYLINE
  5
346
330
3C
100
AcDbEntity
  8
Layer 1
370
     0
100
AcDb2dPolyline
 66
     1
 10
0.0
 20
0.0
 30
0.0
  0
VERTEX
  5
347
330
346
100
AcDbEntity
  8
Layer 1
370
     0
100
AcDbVertex
100
AcDb2dVertex
 10
448.3707369213275
 20
1196.464953314165
 30
0.0
  0
VERTEX
  5
348
330
346
100
AcDbEntity
  8
Layer 1
370
     0
100
AcDbVertex
100
AcDb2dVertex
 10
478.3702838973346
 20
1201.465164901457
 30
0.0
  0
VERTEX
  5
349
330
346
100
AcDbEntity
  8
Layer 1
370
     0
100
AcDbVertex
100
AcDb2dVertex
 10
478.3702838973346
 20
1191.465258491196
 30
0.0
  0
SEQEND
  5
34A
330
346
100
AcDbEntity
  8
Layer 1
370
     0
  0
HATCH
  5
34B
330
3C
100
AcDbEntity
  8
Layer 1
 62
     7
100
AcDbHatch
 10
0.0
 20
0.0
 30
0.0
210
0.0
220
0.0
230
1.0
  2
SOLID
 70
     1
 71
     0
 91
        1
 92
        1
 93
        3
 72
     1
 10
448.3707369213275
 20
1196.464953314165
 11
478.3702838973346
 21
1201.465164901457
 72
     1
 10
478.3702838973346
 20
1201.465164901457
 11
478.3702838973346
 21
1191.465258491196
 72
     1
 10
478.3702838973346
 20
1191.465258491196
 11
448.3707369213275
 21
1196.464953314165
 97
        0
 75
     2
 76
     1
 98
        0
  0
POLYLINE
  5
34C
330
3C
100
AcDbEntity
  8
Layer 1
 62
     7
370
    25
100
AcDb2dPolyline
 66
     1
 10
0.0
 20
0.0
 30
0.0
  0
VERTEX
  5
34D
330
34C
100
AcDbEntity
  8
Layer 1
 62
     7
370
    25
100
AcDbVertex
100
AcDb2dVertex
 10
423.3703680039665
 20
1113.837783195933
 30
0.0
  0
VERTEX
  5
34E
330
34C
100
AcDbEntity
  8
Layer 1
 62
     7
370
    25
100
AcDbVertex
100
AcDb2dVertex
 10
423.3703680039665
 20
1206.464859724425
 30
0.0
  0
SEQEND
  5
34F
330
34C
100
AcDbEntity
  8
Layer 1
370
    25
  0
POLYLINE
  5
350
330
3C
100
AcDbEntity
  8
Layer 1
 62
     7
370
    25
100
AcDb2dPolyline
 66
     1
 10
0.0
 20
0.0
 30
0.0
  0
VERTEX
  5
351
330
350
100
AcDbEntity
  8
Layer 1
 62
     7
370
    25
100
AcDbVertex
100
AcDb2dVertex
 10
448.3707369213275
 20
1115.394277336169
 30
0.0
  0
VERTEX
  5
352
330
350
100
AcDbEntity
  8
Layer 1
 62
     7
370
    25
100
AcDbVertex
100
AcDb2dVertex
 10
448.3707369213275
 20
1206.464859724425
 30
0.0
  0
SEQEND
  5
353
330
350
100
AcDbEntity
  8
Layer 1
370
    25
  0
POLYLINE
  5
354
330
3C
100
AcDbEntity
  8
Layer 1
 62
     7
370
    25
100
AcDb2dPolyline
 66
     1
 10
0.0
 20
0.0
 30
0.0
  0
VERTEX
  5
355
330
354
100
AcDbEntity
  8
Layer 1
 62
     7
370
    25
100
AcDbVertex
100
AcDb2dVertex
 10
423.3703680039665
 20
1196.464953314165
 30
0.0
  0
VERTEX
  5
356
330
354
100
AcDbEntity
  8
Layer 1
 62
     7
370
    25
100
AcDbVertex
100
AcDb2dVertex
 10
300.9482109165164
 20
1196.464953314165
 30
0.0
  0
SEQEND
  5
357
330
354
100
AcDbEntity
  8
Layer 1
370
    25
  0
POLYLINE
  5
358
330
3C
100
AcDbEntity
  8
Layer 1
 62
     7
370
    25
100
AcDb2dPolyline
 66
     1
 10
0.0
 20
0.0
 30
0.0
  0
VERTEX
  5
359
330
358
100
AcDbEntity
  8
Layer 1
 62
     7
370
    25
100
AcDbVertex
100
AcDb2dVertex
 10
423.3703680039665
 20
1196.464953314165
 30
0.0
  0
VERTEX
  5
35A
330
358
100
AcDbEntity
  8
Layer 1
 62
     7
370
    25
100
AcDbVertex
100
AcDb2dVertex
 10
448.3707369213275
 20
1196.464953314165
 30
0.0
  0
SEQEND
  5
35B
330
358
100
AcDbEntity
  8
Layer 1
370
    25
  0
POLYLINE
  5
35C
330
3C
100
AcDbEntity
  8
Layer 1
 62
     7
370
    25
100
AcDb2dPolyline
 66
     1
 10
0.0
 20
0.0
 30
0.0
  0
VERTEX
  5
35D
330
35C
100
AcDbEntity
  8
Layer 1
 62
     7
370
    25
100
AcDbVertex
100
AcDb2dVertex
 10
448.3707369213275
 20
1196.464953314165
 30
0.0
  0
VERTEX
  5
35E
330
35C
100
AcDbEntity
  8
Layer 1
 62
     7
370
    25
100
AcDbVertex
100
AcDb2dVertex
 10
508.3703476376644
 20
1196.464953314165
 30
0.0
  0
SEQEND
  5
35F
330
35C
100
AcDbEntity
  8
Layer 1
370
    25
  0
POLYLINE
  5
360
330
3C
100
AcDbEntity
  8
Layer 1
 62
     7
370
    25
100
AcDb2dPolyline
 66
     1
 10
0.0
 20
0.0
 30
0.0
  0
VERTEX
  5
361
330
360
100
AcDbEntity
  8
Layer 1
 62
     7
370
    25
100
AcDbVertex
100
AcDb2dVertex
 10
300.9482109165164
 20
1243.980399265828
 30
0.0
  0
VERTEX
  5
362
330
360
100
AcDbEntity
  8
Layer 1
 62
     7
370
    25
100
AcDbVertex
100
AcDb2dVertex
 10
306.2400498366345
 20
1251.035610310071
 30
0.0
  0
SEQEND
  5
363
330
360
100
AcDbEntity
  8
Layer 1
370
    25
  0
POLYLINE
  5
364
330
3C
100
AcDbEntity
  8
Layer 1
 62
     7
370
    25
100
AcDb2dPolyline
 66
     1
 10
0.0
 20
0.0
 30
0.0
  0
VERTEX
  5
365
330
364
100
AcDbEntity
  8
Layer 1
 62
     7
370
    25
100
AcDbVertex
100
AcDb2dVertex
 10
306.2400498366345
 20
1251.035610310071
 30
0.0
  0
VERTEX
  5
366
330
364
100
AcDbEntity
  8
Layer 1
 62
     7
370
    25
100
AcDbVertex
100
AcDb2dVertex
 10
316.8230386577734
 20
1251.035610310071
 30
0.0
  0
SEQEND
  5
367
330
364
100
AcDbEntity
  8
Layer 1
370
    25
  0
POLYLINE
  5
368
330
3C
100
AcDbEntity
  8
Layer 1
 62
     7
370
    25
100
AcDb2dPolyline
 66
     1
 10
0.0
 20
0.0
 30
0.0
  0
VERTEX
  5
369
330
368
100
AcDbEntity
  8
Layer 1
 62
     7
370
    25
100
AcDbVertex
100
AcDb2dVertex
 10
316.8230386577734
 20
1251.035610310071
 30
0.0
  0
VERTEX
  5
36A
330
368
100
AcDbEntity
  8
Layer 1
 62
     7
370
    25
100
AcDbVertex
100
AcDb2dVertex
 10
322.1147053231172
 20
1243.980399265828
 30
0.0
  0
SEQEND
  5
36B
330
368
100
AcDbEntity
  8
Layer 1
370
    25
  0
POLYLINE
  5
36C
330
3C
100
AcDbEntity
  8
Layer 1
 62
     7
370
    25
100
AcDb2dPolyline
 66
     1
 10
0.0
 20
0.0
 30
0.0
  0
VERTEX
  5
36D
330
36C
100
AcDbEntity
  8
Layer 1
 62
     7
370
    25
100
AcDbVertex
100
AcDb2dVertex
 10
322.1147053231172
 20
1243.980399265828
 30
0.0
  0
VERTEX
  5
36E
330
36C
100
AcDbEntity
  8
Layer 1
 62
     7
370
    25
100
AcDbVertex
100
AcDb2dVertex
 10
322.1147053231172
 20
1236.924499202488
 30
0.0
  0
SEQEND
  5
36F
330
36C
100
AcDbEntity
  8
Layer 1
370
    25
  0
POLYLINE
  5
370
330
3C
100
AcDbEntity
  8
Layer 1
 62
     7
370
    25
100
AcDb2dPolyline
 66
     1
 10
0.0
 20
0.0
 30
0.0
  0
VERTEX
  5
371
330
370
100
AcDbEntity
  8
Layer 1
 62
     7
370
    25
100
AcDbVertex
100
AcDb2dVertex
 10
322.1147053231172
 20
1236.924499202488
 30
0.0
  0
VERTEX
  5
372
330
370
100
AcDbEntity
  8
Layer 1
 62
     7
370
    25
100
AcDbVertex
100
AcDb2dVertex
 10
316.8230386577734
 20
1229.868771393922
 30
0.0
  0
SEQEND
  5
373
330
370
100
AcDbEntity
  8
Layer 1
370
    25
  0
POLYLINE
  5
374
330
3C
100
AcDbEntity
  8
Layer 1
 62
     7
370
    25
100
AcDb2dPolyline
 66
     1
 10
0.0
 20
0.0
 30
0.0
  0
VERTEX
  5
375
330
374
100
AcDbEntity
  8
Layer 1
 62
     7
370
    25
100
AcDbVertex
100
AcDb2dVertex
 10
316.8230386577734
 20
1229.868771393922
 30
0.0
  0
VERTEX
  5
376
330
374
100
AcDbEntity
  8
Layer 1
 62
     7
370
    25
100
AcDbVertex
100
AcDb2dVertex
 10
306.2400498366345
 20
1229.868771393922
 30
0.0
  0
SEQEND
  5
377
330
374
100
AcDbEntity
  8
Layer 1
370
    25
  0
POLYLINE
  5
378
330
3C
100
AcDbEntity
  8
Layer 1
 62
     7
370
    25
100
AcDb2dPolyline
 66
     1
 10
0.0
 20
0.0
 30
0.0
  0
VERTEX
  5
379
330
378
100
AcDbEntity
  8
Layer 1
 62
     7
370
    25
100
AcDbVertex
100
AcDb2dVertex
 10
306.2400498366345
 20
1229.868771393922
 30
0.0
  0
VERTEX
  5
37A
330
378
100
AcDbEntity
  8
Layer 1
 62
     7
370
    25
100
AcDbVertex
100
AcDb2dVertex
 10
300.9482109165164
 20
1222.813388094904
 30
0.0
  0
SEQEND
  5
37B
330
378
100
AcDbEntity
  8
Layer 1
370
    25
  0
POLYLINE
  5
37C
330
3C
100
AcDbEntity
  8
Layer 1
 62
     7
370
    25
100
AcDb2dPolyline
 66
     1
 10
0.0
 20
0.0
 30
0.0
  0
VERTEX
  5
37D
330
37C
100
AcDbEntity
  8
Layer 1
 62
     7
370
    25
100
AcDbVertex
100
AcDb2dVertex
 10
300.9482109165164
 20
1222.813388094904
 30
0.0
  0
VERTEX
  5
37E
330
37C
100
AcDbEntity
  8
Layer 1
 62
     7
370
    25
100
AcDbVertex
100
AcDb2dVertex
 10
300.9482109165164
 20
1208.702276987321
 30
0.0
  0
SEQEND
  5
37F
330
37C
100
AcDbEntity
  8
Layer 1
370
    25
  0
POLYLINE
  5
380
330
3C
100
AcDbEntity
  8
Layer 1
 62
     7
370
    25
100
AcDb2dPolyline
 66
     1
 10
0.0
 20
0.0
 30
0.0
  0
VERTEX
  5
381
330
380
100
AcDbEntity
  8
Layer 1
 62
     7
370
    25
100
AcDbVertex
100
AcDb2dVertex
 10
300.9482109165164
 20
1208.702276987321
 30
0.0
  0
VERTEX
  5
382
330
380
100
AcDbEntity
  8
Layer 1
 62
     7
370
    25
100
AcDbVertex
100
AcDb2dVertex
 10
322.1147053231172
 20
1208.702276987321
 30
0.0
  0
SEQEND
  5
383
330
380
100
AcDbEntity
  8
Layer 1
370
    25
  0
POLYLINE
  5
384
330
3C
100
AcDbEntity
  8
Layer 1
 62
     7
370
    25
100
AcDb2dPolyline
 66
     1
 10
0.0
 20
0.0
 30
0.0
  0
VERTEX
  5
385
330
384
100
AcDbEntity
  8
Layer 1
 62
     7
370
    25
100
AcDbVertex
100
AcDb2dVertex
 10
332.6982109085789
 20
1215.758004795887
 30
0.0
  0
VERTEX
  5
386
330
384
100
AcDbEntity
  8
Layer 1
 62
     7
370
    25
100
AcDbVertex
100
AcDb2dVertex
 10
337.9898775739227
 20
1208.702276987321
 30
0.0
  0
SEQEND
  5
387
330
384
100
AcDbEntity
  8
Layer 1
370
    25
  0
POLYLINE
  5
388
330
3C
100
AcDbEntity
  8
Layer 1
 62
     7
370
    25
100
AcDb2dPolyline
 66
     1
 10
0.0
 20
0.0
 30
0.0
  0
VERTEX
  5
389
330
388
100
AcDbEntity
  8
Layer 1
 62
     7
370
    25
100
AcDbVertex
100
AcDb2dVertex
 10
337.9898775739227
 20
1208.702276987321
 30
0.0
  0
VERTEX
  5
38A
330
388
100
AcDbEntity
  8
Layer 1
 62
     7
370
    25
100
AcDbVertex
100
AcDb2dVertex
 10
348.5733831593844
 20
1208.702276987321
 30
0.0
  0
SEQEND
  5
38B
330
388
100
AcDbEntity
  8
Layer 1
370
    25
  0
POLYLINE
  5
38C
330
3C
100
AcDbEntity
  8
Layer 1
 62
     7
370
    25
100
AcDb2dPolyline
 66
     1
 10
0.0
 20
0.0
 30
0.0
  0
VERTEX
  5
38D
330
38C
100
AcDbEntity
  8
Layer 1
 62
     7
370
    25
100
AcDbVertex
100
AcDb2dVertex
 10
348.5733831593844
 20
1208.702276987321
 30
0.0
  0
VERTEX
  5
38E
330
38C
100
AcDbEntity
  8
Layer 1
 62
     7
370
    25
100
AcDbVertex
100
AcDb2dVertex
 10
353.8650498247282
 20
1215.758004795887
 30
0.0
  0
SEQEND
  5
38F
330
38C
100
AcDbEntity
  8
Layer 1
370
    25
  0
POLYLINE
  5
390
330
3C
100
AcDbEntity
  8
Layer 1
 62
     7
370
    25
100
AcDb2dPolyline
 66
     1
 10
0.0
 20
0.0
 30
0.0
  0
VERTEX
  5
391
330
390
100
AcDbEntity
  8
Layer 1
 62
     7
370
    25
100
AcDbVertex
100
AcDb2dVertex
 10
353.8650498247282
 20
1215.758004795887
 30
0.0
  0
VERTEX
  5
392
330
390
100
AcDbEntity
  8
Layer 1
 62
     7
370
    25
100
AcDbVertex
100
AcDb2dVertex
 10
353.8650498247282
 20
1229.868771393922
 30
0.0
  0
SEQEND
  5
393
330
390
100
AcDbEntity
  8
Layer 1
370
    25
  0
POLYLINE
  5
394
330
3C
100
AcDbEntity
  8
Layer 1
 62
     7
370
    25
100
AcDb2dPolyline
 66
     1
 10
0.0
 20
0.0
 30
0.0
  0
VERTEX
  5
395
330
394
100
AcDbEntity
  8
Layer 1
 62
     7
370
    25
100
AcDbVertex
100
AcDb2dVertex
 10
353.8650498247282
 20
1229.868771393922
 30
0.0
  0
VERTEX
  5
396
330
394
100
AcDbEntity
  8
Layer 1
 62
     7
370
    25
100
AcDbVertex
100
AcDb2dVertex
 10
348.5733831593844
 20
1236.924499202488
 30
0.0
  0
SEQEND
  5
397
330
394
100
AcDbEntity
  8
Layer 1
370
    25
  0
POLYLINE
  5
398
330
3C
100
AcDbEntity
  8
Layer 1
 62
     7
370
    25
100
AcDb2dPolyline
 66
     1
 10
0.0
 20
0.0
 30
0.0
  0
VERTEX
  5
399
330
398
100
AcDbEntity
  8
Layer 1
 62
     7
370
    25
100
AcDbVertex
100
AcDb2dVertex
 10
348.5733831593844
 20
1236.924499202488
 30
0.0
  0
VERTEX
  5
39A
330
398
100
AcDbEntity
  8
Layer 1
 62
     7
370
    25
100
AcDbVertex
100
AcDb2dVertex
 10
332.6982109085789
 20
1236.924499202488
 30
0.0
  0
SEQEND
  5
39B
330
398
100
AcDbEntity
  8
Layer 1
370
    25
  0
POLYLINE
  5
39C
330
3C
100
AcDbEntity
  8
Layer 1
 62
     7
370
    25
100
AcDb2dPolyline
 66
     1
 10
0.0
 20
0.0
 30
0.0
  0
VERTEX
  5
39D
330
39C
100
AcDbEntity
  8
Layer 1
 62
     7
370
    25
100
AcDbVertex
100
AcDb2dVertex
 10
332.6982109085789
 20
1236.924499202488
 30
0.0
  0
VERTEX
  5
39E
330
39C
100
AcDbEntity
  8
Layer 1
 62
     7
370
    25
100
AcDbVertex
100
AcDb2dVertex
 10
332.6982109085789
 20
1251.035610310071
 30
0.0
  0
SEQEND
  5
39F
330
39C
100
AcDbEntity
  8
Layer 1
370
    25
  0
POLYLINE
  5
3A0
330
3C
100
AcDbEntity
  8
Layer 1
 62
     7
370
    25
100
AcDb2dPolyline
 66
     1
 10
0.0
 20
0.0
 30
0.0
  0
VERTEX
  5
3A1
330
3A0
100
AcDbEntity
  8
Layer 1
 62
     7
370
    25
100
AcDbVertex
100
AcDb2dVertex
 10
332.6982109085789
 20
1251.035610310071
 30
0.0
  0
VERTEX
  5
3A2
330
3A0
100
AcDbEntity
  8
Layer 1
 62
     7
370
    25
100
AcDbVertex
100
AcDb2dVertex
 10
353.8650498247282
 20
1251.035610310071
 30
0.0
  0
SEQEND
  5
3A3
330
3A0
100
AcDbEntity
  8
Layer 1
370
    25
  0
POLYLINE
  5
3A4
330
3C
100
AcDbEntity
  8
Layer 1
370
     0
100
AcDb2dPolyline
 66
     1
 10
0.0
 20
0.0
 30
0.0
  0
VERTEX
  5
3A5
330
3A4
100
AcDbEntity
  8
Layer 1
370
     0
100
AcDbVertex
100
AcDb2dVertex
 10
683.3701739828033
 20
1196.464953314165
 30
0.0
  0
VERTEX
  5
3A6
330
3A4
100
AcDbEntity
  8
Layer 1
370
     0
100
AcDbVertex
100
AcDb2dVertex
 10
653.3702824972478
 20
1191.465258491196
 30
0.0
  0
VERTEX
  5
3A7
330
3A4
100
AcDbEntity
  8
Layer 1
370
     0
100
AcDbVertex
100
AcDb2dVertex
 10
653.3702824972478
 20
1201.465164901457
 30
0.0
  0
SEQEND
  5
3A8
330
3A4
100
AcDbEntity
  8
Layer 1
370
     0
  0
HATCH
  5
3A9
330
3C
100
AcDbEntity
  8
Layer 1
 62
     7
100
AcDbHatch
 10
0.0
 20
0.0
 30
0.0
210
0.0
220
0.0
230
1.0
  2
SOLID
 70
     1
 71
     0
 91
        1
 92
        1
 93
        3
 72
     1
 10
683.3701739828033
 20
1196.464953314165
 11
653.3702824972478
 21
1191.465258491196
 72
     1
 10
653.3702824972478
 20
1191.465258491196
 11
653.3702824972478
 21
1201.465164901457
 72
     1
 10
653.3702824972478
 20
1201.465164901457
 11
683.3701739828033
 21
1196.464953314165
 97
        0
 75
     2
 76
     1
 98
        0
  0
POLYLINE
  5
3AA
330
3C
100
AcDbEntity
  8
Layer 1
370
     0
100
AcDb2dPolyline
 66
     1
 10
0.0
 20
0.0
 30
0.0
  0
VERTEX
  5
3AB
330
3AA
100
AcDbEntity
  8
Layer 1
370
     0
100
AcDbVertex
100
AcDb2dVertex
 10
708.3705429001643
 20
1196.464953314165
 30
0.0
  0
VERTEX
  5
3AC
330
3AA
100
AcDbEntity
  8
Layer 1
370
     0
100
AcDbVertex
100
AcDb2dVertex
 10
738.3704343857199
 20
1201.465164901457
 30
0.0
  0
VERTEX
  5
3AD
330
3AA
100
AcDbEntity
  8
Layer 1
370
     0
100
AcDbVertex
100
AcDb2dVertex
 10
738.3704343857199
 20
1191.465258491196
 30
0.0
  0
SEQEND
  5
3AE
330
3AA
100
AcDbEntity
  8
Layer 1
370
     0
  0
HATCH
  5
3AF
330
3C
100
AcDbEntity
  8
Layer 1
 62
     7
100
AcDbHatch
 10
0.0
 20
0.0
 30
0.0
210
0.0
220
0.0
230
1.0
  2
SOLID
 70
     1
 71
     0
 91
        1
 92
        1
 93
        3
 72
     1
 10
708.3705429001643
 20
1196.464953314165
 11
738.3704343857199
 21
1201.465164901457
 72
     1
 10
738.3704343857199
 20
1201.465164901457
 11
738.3704343857199
 21
1191.465258491196
 72
     1
 10
738.3704343857199
 20
1191.465258491196
 11
708.3705429001643
 21
1196.464953314165
 97
        0
 75
     2
 76
     1
 98
        0
  0
POLYLINE
  5
3B0
330
3C
100
AcDbEntity
  8
Layer 1
 62
     7
370
    25
100
AcDb2dPolyline
 66
     1
 10
0.0
 20
0.0
 30
0.0
  0
VERTEX
  5
3B1
330
3B0
100
AcDbEntity
  8
Layer 1
 62
     7
370
    25
100
AcDbVertex
100
AcDb2dVertex
 10
683.3701739828033
 20
1114.356786830786
 30
0.0
  0
VERTEX
  5
3B2
330
3B0
100
AcDbEntity
  8
Layer 1
 62
     7
370
    25
100
AcDbVertex
100
AcDb2dVertex
 10
683.3701739828033
 20
1206.464859724425
 30
0.0
  0
SEQEND
  5
3B3
330
3B0
100
AcDbEntity
  8
Layer 1
370
    25
  0
POLYLINE
  5
3B4
330
3C
100
AcDbEntity
  8
Layer 1
 62
     7
370
    25
100
AcDb2dPolyline
 66
     1
 10
0.0
 20
0.0
 30
0.0
  0
VERTEX
  5
3B5
330
3B4
100
AcDbEntity
  8
Layer 1
 62
     7
370
    25
100
AcDbVertex
100
AcDb2dVertex
 10
708.3705429001643
 20
1114.356786830786
 30
0.0
  0
VERTEX
  5
3B6
330
3B4
100
AcDbEntity
  8
Layer 1
 62
     7
370
    25
100
AcDbVertex
100
AcDb2dVertex
 10
708.3705429001643
 20
1206.464859724425
 30
0.0
  0
SEQEND
  5
3B7
330
3B4
100
AcDbEntity
  8
Layer 1
370
    25
  0
POLYLINE
  5
3B8
330
3C
100
AcDbEntity
  8
Layer 1
 62
     7
370
    25
100
AcDb2dPolyline
 66
     1
 10
0.0
 20
0.0
 30
0.0
  0
VERTEX
  5
3B9
330
3B8
100
AcDbEntity
  8
Layer 1
 62
     7
370
    25
100
AcDbVertex
100
AcDb2dVertex
 10
683.3701739828033
 20
1196.464953314165
 30
0.0
  0
VERTEX
  5
3BA
330
3B8
100
AcDbEntity
  8
Layer 1
 62
     7
370
    25
100
AcDbVertex
100
AcDb2dVertex
 10
623.3703910116922
 20
1196.464953314165
 30
0.0
  0
SEQEND
  5
3BB
330
3B8
100
AcDbEntity
  8
Layer 1
370
    25
  0
POLYLINE
  5
3BC
330
3C
100
AcDbEntity
  8
Layer 1
 62
     7
370
    25
100
AcDb2dPolyline
 66
     1
 10
0.0
 20
0.0
 30
0.0
  0
VERTEX
  5
3BD
330
3BC
100
AcDbEntity
  8
Layer 1
 62
     7
370
    25
100
AcDbVertex
100
AcDb2dVertex
 10
683.3701739828033
 20
1196.464953314165
 30
0.0
  0
VERTEX
  5
3BE
330
3BC
100
AcDbEntity
  8
Layer 1
 62
     7
370
    25
100
AcDbVertex
100
AcDb2dVertex
 10
708.3705429001643
 20
1196.464953314165
 30
0.0
  0
SEQEND
  5
3BF
330
3BC
100
AcDbEntity
  8
Layer 1
370
    25
  0
POLYLINE
  5
3C0
330
3C
100
AcDbEntity
  8
Layer 1
 62
     7
370
    25
100
AcDb2dPolyline
 66
     1
 10
0.0
 20
0.0
 30
0.0
  0
VERTEX
  5
3C1
330
3C0
100
AcDbEntity
  8
Layer 1
 62
     7
370
    25
100
AcDbVertex
100
AcDb2dVertex
 10
708.3705429001643
 20
1196.464953314165
 30
0.0
  0
VERTEX
  5
3C2
330
3C0
100
AcDbEntity
  8
Layer 1
 62
     7
370
    25
100
AcDbVertex
100
AcDb2dVertex
 10
824.5880830186794
 20
1196.464953314165
 30
0.0
  0
SEQEND
  5
3C3
330
3C0
100
AcDbEntity
  8
Layer 1
370
    25
  0
POLYLINE
  5
3C4
330
3C
100
AcDbEntity
  8
Layer 1
 62
     7
370
    25
100
AcDb2dPolyline
 66
     1
 10
0.0
 20
0.0
 30
0.0
  0
VERTEX
  5
3C5
330
3C4
100
AcDbEntity
  8
Layer 1
 62
     7
370
    25
100
AcDbVertex
100
AcDb2dVertex
 10
727.6913274005425
 20
1243.980399265828
 30
0.0
  0
VERTEX
  5
3C6
330
3C4
100
AcDbEntity
  8
Layer 1
 62
     7
370
    25
100
AcDbVertex
100
AcDb2dVertex
 10
732.9833385754348
 20
1251.035610310071
 30
0.0
  0
SEQEND
  5
3C7
330
3C4
100
AcDbEntity
  8
Layer 1
370
    25
  0
POLYLINE
  5
3C8
330
3C
100
AcDbEntity
  8
Layer 1
 62
     7
370
    25
100
AcDb2dPolyline
 66
     1
 10
0.0
 20
0.0
 30
0.0
  0
VERTEX
  5
3C9
330
3C8
100
AcDbEntity
  8
Layer 1
 62
     7
370
    25
100
AcDbVertex
100
AcDb2dVertex
 10
732.9833385754348
 20
1251.035610310071
 30
0.0
  0
VERTEX
  5
3CA
330
3C8
100
AcDbEntity
  8
Layer 1
 62
     7
370
    25
100
AcDbVertex
100
AcDb2dVertex
 10
743.5666719061222
 20
1251.035610310071
 30
0.0
  0
SEQEND
  5
3CB
330
3C8
100
AcDbEntity
  8
Layer 1
370
    25
  0
POLYLINE
  5
3CC
330
3C
100
AcDbEntity
  8
Layer 1
 62
     7
370
    25
100
AcDb2dPolyline
 66
     1
 10
0.0
 20
0.0
 30
0.0
  0
VERTEX
  5
3CD
330
3CC
100
AcDbEntity
  8
Layer 1
 62
     7
370
    25
100
AcDbVertex
100
AcDb2dVertex
 10
743.5666719061222
 20
1251.035610310071
 30
0.0
  0
VERTEX
  5
3CE
330
3CC
100
AcDbEntity
  8
Layer 1
 62
     7
370
    25
100
AcDbVertex
100
AcDb2dVertex
 10
748.858338571466
 20
1243.980399265828
 30
0.0
  0
SEQEND
  5
3CF
330
3CC
100
AcDbEntity
  8
Layer 1
370
    25
  0
POLYLINE
  5
3D0
330
3C
100
AcDbEntity
  8
Layer 1
 62
     7
370
    25
100
AcDb2dPolyline
 66
     1
 10
0.0
 20
0.0
 30
0.0
  0
VERTEX
  5
3D1
330
3D0
100
AcDbEntity
  8
Layer 1
 62
     7
370
    25
100
AcDbVertex
100
AcDb2dVertex
 10
748.858338571466
 20
1243.980399265828
 30
0.0
  0
VERTEX
  5
3D2
330
3D0
100
AcDbEntity
  8
Layer 1
 62
     7
370
    25
100
AcDbVertex
100
AcDb2dVertex
 10
748.858338571466
 20
1236.924499202488
 30
0.0
  0
SEQEND
  5
3D3
330
3D0
100
AcDbEntity
  8
Layer 1
370
    25
  0
POLYLINE
  5
3D4
330
3C
100
AcDbEntity
  8
Layer 1
 62
     7
370
    25
100
AcDb2dPolyline
 66
     1
 10
0.0
 20
0.0
 30
0.0
  0
VERTEX
  5
3D5
330
3D4
100
AcDbEntity
  8
Layer 1
 62
     7
370
    25
100
AcDbVertex
100
AcDb2dVertex
 10
748.858338571466
 20
1236.924499202488
 30
0.0
  0
VERTEX
  5
3D6
330
3D4
100
AcDbEntity
  8
Layer 1
 62
     7
370
    25
100
AcDbVertex
100
AcDb2dVertex
 10
743.5666719061222
 20
1229.868771393922
 30
0.0
  0
SEQEND
  5
3D7
330
3D4
100
AcDbEntity
  8
Layer 1
370
    25
  0
POLYLINE
  5
3D8
330
3C
100
AcDbEntity
  8
Layer 1
 62
     7
370
    25
100
AcDb2dPolyline
 66
     1
 10
0.0
 20
0.0
 30
0.0
  0
VERTEX
  5
3D9
330
3D8
100
AcDbEntity
  8
Layer 1
 62
     7
370
    25
100
AcDbVertex
100
AcDb2dVertex
 10
743.5666719061222
 20
1229.868771393922
 30
0.0
  0
VERTEX
  5
3DA
330
3D8
100
AcDbEntity
  8
Layer 1
 62
     7
370
    25
100
AcDbVertex
100
AcDb2dVertex
 10
732.9833385754348
 20
1229.868771393922
 30
0.0
  0
SEQEND
  5
3DB
330
3D8
100
AcDbEntity
  8
Layer 1
370
    25
  0
POLYLINE
  5
3DC
330
3C
100
AcDbEntity
  8
Layer 1
 62
     7
370
    25
100
AcDb2dPolyline
 66
     1
 10
0.0
 20
0.0
 30
0.0
  0
VERTEX
  5
3DD
330
3DC
100
AcDbEntity
  8
Layer 1
 62
     7
370
    25
100
AcDbVertex
100
AcDb2dVertex
 10
732.9833385754348
 20
1229.868771393922
 30
0.0
  0
VERTEX
  5
3DE
330
3DC
100
AcDbEntity
  8
Layer 1
 62
     7
370
    25
100
AcDbVertex
100
AcDb2dVertex
 10
727.6913274005425
 20
1222.813388094904
 30
0.0
  0
SEQEND
  5
3DF
330
3DC
100
AcDbEntity
  8
Layer 1
370
    25
  0
POLYLINE
  5
3E0
330
3C
100
AcDbEntity
  8
Layer 1
 62
     7
370
    25
100
AcDb2dPolyline
 66
     1
 10
0.0
 20
0.0
 30
0.0
  0
VERTEX
  5
3E1
330
3E0
100
AcDbEntity
  8
Layer 1
 62
     7
370
    25
100
AcDbVertex
100
AcDb2dVertex
 10
727.6913274005425
 20
1222.813388094904
 30
0.0
  0
VERTEX
  5
3E2
330
3E0
100
AcDbEntity
  8
Layer 1
 62
     7
370
    25
100
AcDbVertex
100
AcDb2dVertex
 10
727.6913274005425
 20
1208.702276987321
 30
0.0
  0
SEQEND
  5
3E3
330
3E0
100
AcDbEntity
  8
Layer 1
370
    25
  0
POLYLINE
  5
3E4
330
3C
100
AcDbEntity
  8
Layer 1
 62
     7
370
    25
100
AcDb2dPolyline
 66
     1
 10
0.0
 20
0.0
 30
0.0
  0
VERTEX
  5
3E5
330
3E4
100
AcDbEntity
  8
Layer 1
 62
     7
370
    25
100
AcDbVertex
100
AcDb2dVertex
 10
727.6913274005425
 20
1208.702276987321
 30
0.0
  0
VERTEX
  5
3E6
330
3E4
100
AcDbEntity
  8
Layer 1
 62
     7
370
    25
100
AcDbVertex
100
AcDb2dVertex
 10
748.858338571466
 20
1208.702276987321
 30
0.0
  0
SEQEND
  5
3E7
330
3E4
100
AcDbEntity
  8
Layer 1
370
    25
  0
POLYLINE
  5
3E8
330
3C
100
AcDbEntity
  8
Layer 1
 62
     7
370
    25
100
AcDb2dPolyline
 66
     1
 10
0.0
 20
0.0
 30
0.0
  0
VERTEX
  5
3E9
330
3E8
100
AcDbEntity
  8
Layer 1
 62
     7
370
    25
100
AcDbVertex
100
AcDb2dVertex
 10
759.4416719021535
 20
1215.758004795887
 30
0.0
  0
VERTEX
  5
3EA
330
3E8
100
AcDbEntity
  8
Layer 1
 62
     7
370
    25
100
AcDbVertex
100
AcDb2dVertex
 10
764.7333385674973
 20
1208.702276987321
 30
0.0
  0
SEQEND
  5
3EB
330
3E8
100
AcDbEntity
  8
Layer 1
370
    25
  0
POLYLINE
  5
3EC
330
3C
100
AcDbEntity
  8
Layer 1
 62
     7
370
    25
100
AcDb2dPolyline
 66
     1
 10
0.0
 20
0.0
 30
0.0
  0
VERTEX
  5
3ED
330
3EC
100
AcDbEntity
  8
Layer 1
 62
     7
370
    25
100
AcDbVertex
100
AcDb2dVertex
 10
764.7333385674973
 20
1208.702276987321
 30
0.0
  0
VERTEX
  5
3EE
330
3EC
100
AcDbEntity
  8
Layer 1
 62
     7
370
    25
100
AcDbVertex
100
AcDb2dVertex
 10
775.3170164077333
 20
1208.702276987321
 30
0.0
  0
SEQEND
  5
3EF
330
3EC
100
AcDbEntity
  8
Layer 1
370
    25
  0
POLYLINE
  5
3F0
330
3C
100
AcDbEntity
  8
Layer 1
 62
     7
370
    25
100
AcDb2dPolyline
 66
     1
 10
0.0
 20
0.0
 30
0.0
  0
VERTEX
  5
3F1
330
3F0
100
AcDbEntity
  8
Layer 1
 62
     7
370
    25
100
AcDbVertex
100
AcDb2dVertex
 10
775.3170164077333
 20
1208.702276987321
 30
0.0
  0
VERTEX
  5
3F2
330
3F0
100
AcDbEntity
  8
Layer 1
 62
     7
370
    25
100
AcDbVertex
100
AcDb2dVertex
 10
780.608683073077
 20
1215.758004795887
 30
0.0
  0
SEQEND
  5
3F3
330
3F0
100
AcDbEntity
  8
Layer 1
370
    25
  0
POLYLINE
  5
3F4
330
3C
100
AcDbEntity
  8
Layer 1
 62
     7
370
    25
100
AcDb2dPolyline
 66
     1
 10
0.0
 20
0.0
 30
0.0
  0
VERTEX
  5
3F5
330
3F4
100
AcDbEntity
  8
Layer 1
 62
     7
370
    25
100
AcDbVertex
100
AcDb2dVertex
 10
780.608683073077
 20
1215.758004795887
 30
0.0
  0
VERTEX
  5
3F6
330
3F4
100
AcDbEntity
  8
Layer 1
 62
     7
370
    25
100
AcDbVertex
100
AcDb2dVertex
 10
780.608683073077
 20
1229.868771393922
 30
0.0
  0
SEQEND
  5
3F7
330
3F4
100
AcDbEntity
  8
Layer 1
370
    25
  0
POLYLINE
  5
3F8
330
3C
100
AcDbEntity
  8
Layer 1
 62
     7
370
    25
100
AcDb2dPolyline
 66
     1
 10
0.0
 20
0.0
 30
0.0
  0
VERTEX
  5
3F9
330
3F8
100
AcDbEntity
  8
Layer 1
 62
     7
370
    25
100
AcDbVertex
100
AcDb2dVertex
 10
780.608683073077
 20
1229.868771393922
 30
0.0
  0
VERTEX
  5
3FA
330
3F8
100
AcDbEntity
  8
Layer 1
 62
     7
370
    25
100
AcDbVertex
100
AcDb2dVertex
 10
775.3170164077333
 20
1236.924499202488
 30
0.0
  0
SEQEND
  5
3FB
330
3F8
100
AcDbEntity
  8
Layer 1
370
    25
  0
POLYLINE
  5
3FC
330
3C
100
AcDbEntity
  8
Layer 1
 62
     7
370
    25
100
AcDb2dPolyline
 66
     1
 10
0.0
 20
0.0
 30
0.0
  0
VERTEX
  5
3FD
330
3FC
100
AcDbEntity
  8
Layer 1
 62
     7
370
    25
100
AcDbVertex
100
AcDb2dVertex
 10
775.3170164077333
 20
1236.924499202488
 30
0.0
  0
VERTEX
  5
3FE
330
3FC
100
AcDbEntity
  8
Layer 1
 62
     7
370
    25
100
AcDbVertex
100
AcDb2dVertex
 10
759.4416719021535
 20
1236.924499202488
 30
0.0
  0
SEQEND
  5
3FF
330
3FC
100
AcDbEntity
  8
Layer 1
370
    25
  0
POLYLINE
  5
400
330
3C
100
AcDbEntity
  8
Layer 1
 62
     7
370
    25
100
AcDb2dPolyline
 66
     1
 10
0.0
 20
0.0
 30
0.0
  0
VERTEX
  5
401
330
400
100
AcDbEntity
  8
Layer 1
 62
     7
370
    25
100
AcDbVertex
100
AcDb2dVertex
 10
759.4416719021535
 20
1236.924499202488
 30
0.0
  0
VERTEX
  5
402
330
400
100
AcDbEntity
  8
Layer 1
 62
     7
370
    25
100
AcDbVertex
100
AcDb2dVertex
 10
759.4416719021535
 20
1251.035610310071
 30
0.0
  0
SEQEND
  5
403
330
400
100
AcDbEntity
  8
Layer 1
370
    25
  0
POLYLINE
  5
404
330
3C
100
AcDbEntity
  8
Layer 1
 62
     7
370
    25
100
AcDb2dPolyline
 66
     1
 10
0.0
 20
0.0
 30
0.0
  0
VERTEX
  5
405
330
404
100
AcDbEntity
  8
Layer 1
 62
     7
370
    25
100
AcDbVertex
100
AcDb2dVertex
 10
759.4416719021535
 20
1251.035610310071
 30
0.0
  0
VERTEX
  5
406
330
404
100
AcDbEntity
  8
Layer 1
 62
     7
370
    25
100
AcDbVertex
100
AcDb2dVertex
 10
780.608683073077
 20
1251.035610310071
 30
0.0
  0
SEQEND
  5
407
330
404
100
AcDbEntity
  8
Layer 1
370
    25
  0
SPLINE
  5
408
330
3C
100
AcDbEntity
  8
Layer 1
 62
     7
370
    15
100
AcDbSpline
210
0.0
220
0.0
230
1.0
 70
     8
 71
     3
 72
     8
 73
     4
 74
     0
 42
0.0000000001
 43
0.0000000001
 40
0.0
 40
0.0
 40
0.0
 40
0.0
 40
1.0
 40
1.0
 40
1.0
 40
1.0
 10
468.902472484771
 20
212.7401583669539
 30
0.0
 10
473.6055445864598
 20
211.9216036796585
 30
0.0
 10
478.3087889429228
 20
211.1037380114602
 30
0.0
 10
482.9806829304702
 20
210.2927625342324
 30
0.0
  0
SPLINE
  5
409
330
3C
100
AcDbEntity
  8
Layer 1
 62
     7
370
    15
100
AcDbSpline
210
0.0
220
0.0
230
1.0
 70
     8
 71
     3
 72
     8
 73
     4
 74
     0
 42
0.0000000001
 43
0.0000000001
 40
0.0
 40
0.0
 40
0.0
 40
0.0
 40
1.0
 40
1.0
 40
1.0
 40
1.0
 10
482.9806829304702
 20
210.2927625342324
 30
0.0
 10
490.5135564637432
 20
208.9843152689345
 30
0.0
 10
497.9661592722099
 20
207.6917154428687
 30
0.0
 10
505.4182453163538
 20
206.4011826740941
 30
0.0
  0
SPLINE
  5
40A
330
3C
100
AcDbEntity
  8
Layer 1
 62
     7
370
    15
100
AcDbSpline
210
0.0
220
0.0
230
1.0
 70
     8
 71
     3
 72
     8
 73
     4
 74
     0
 42
0.0000000001
 43
0.0000000001
 40
0.0
 40
0.0
 40
0.0
 40
0.0
 40
1.0
 40
1.0
 40
1.0
 40
1.0
 10
626.4106877774251
 20
206.4066948268706
 30
0.0
 10
634.8487601494476
 20
207.8736164844899
 30
0.0
 10
643.2857989928244
 20
209.3391601039152
 30
0.0
 10
652.0132593856079
 20
210.8563801556192
 30
0.0
  0
SPLINE
  5
40B
330
3C
100
AcDbEntity
  8
Layer 1
 62
     7
370
    15
100
AcDbSpline
210
0.0
220
0.0
230
1.0
 70
     8
 71
     3
 72
     8
 73
     4
 74
     0
 42
0.0000000001
 43
0.0000000001
 40
0.0
 40
0.0
 40
0.0
 40
0.0
 40
1.0
 40
1.0
 40
1.0
 40
1.0
 10
652.0132593856079
 20
210.8563801556192
 30
0.0
 10
655.5913355565883
 20
211.4785644002554
 30
0.0
 10
659.2176430643623
 20
212.1097058931531
 30
0.0
 10
662.8446395912333
 20
212.7401583669539
 30
0.0
  0
SPLINE
  5
40C
330
3C
100
AcDbEntity
  8
Layer 1
 62
     7
370
    15
100
AcDbSpline
210
0.0
220
0.0
230
1.0
 70
     8
 71
     3
 72
     8
 73
     4
 74
     0
 42
0.0000000001
 43
0.0000000001
 40
0.0
 40
0.0
 40
0.0
 40
0.0
 40
1.0
 40
1.0
 40
1.0
 40
1.0
 10
662.8322372474864
 20
212.7380913096627
 30
0.0
 10
675.39477793445
 20
214.9098795035642
 30
0.0
 10
684.5714787785099
 20
225.8094725997976
 30
0.0
 10
684.5697562307673
 20
238.5583929525132
 30
0.0
  0
SPLINE
  5
40D
330
3C
100
AcDbEntity
  8
Layer 1
 62
     7
370
    15
100
AcDbSpline
210
0.0
220
0.0
230
1.0
 70
     8
 71
     3
 72
     8
 73
     4
 74
     0
 42
0.0000000001
 43
0.0000000001
 40
0.0
 40
0.0
 40
0.0
 40
0.0
 40
1.0
 40
1.0
 40
1.0
 40
1.0
 10
447.1702933994922
 20
238.5570149143191
 30
0.0
 10
447.1697766351694
 20
225.8074055425065
 30
0.0
 10
456.3469942435522
 20
214.9085014653701
 30
0.0
 10
468.910396204387
 20
212.7380913096627
 30
0.0
  0
POLYLINE
  5
40E
330
3C
100
AcDbEntity
  8
Layer 1
 62
     7
370
    15
100
AcDb2dPolyline
 66
     1
 10
0.0
 20
0.0
 30
0.0
  0
VERTEX
  5
40F
330
40E
100
AcDbEntity
  8
Layer 1
 62
     7
370
    15
100
AcDbVertex
100
AcDb2dVertex
 10
505.3038681462435
 20
206.3970485595119
 30
0.0
  0
VERTEX
  5
410
330
40E
100
AcDbEntity
  8
Layer 1
 62
     7
370
    15
100
AcDbVertex
100
AcDb2dVertex
 10
508.293349753569
 20
203.4080837165091
 30
0.0
  0
SEQEND
  5
411
330
40E
100
AcDbEntity
  8
Layer 1
370
    15
  0
POLYLINE
  5
412
330
3C
100
AcDbEntity
  8
Layer 1
 62
     7
370
    15
100
AcDb2dPolyline
 66
     1
 10
0.0
 20
0.0
 30
0.0
  0
VERTEX
  5
413
330
412
100
AcDbEntity
  8
Layer 1
 62
     7
370
    15
100
AcDbVertex
100
AcDb2dVertex
 10
623.4468721314647
 20
203.4080837165091
 30
0.0
  0
VERTEX
  5
414
330
412
100
AcDbEntity
  8
Layer 1
 62
     7
370
    15
100
AcDbVertex
100
AcDb2dVertex
 10
626.4248126689147
 20
206.385335234862
 30
0.0
  0
SEQEND
  5
415
330
412
100
AcDbEntity
  8
Layer 1
370
    15
  0
POLYLINE
  5
416
330
3C
100
AcDbEntity
  8
Layer 1
 62
     7
370
    15
100
AcDb2dPolyline
 66
     1
 10
0.0
 20
0.0
 30
0.0
  0
VERTEX
  5
417
330
416
100
AcDbEntity
  8
Layer 1
 62
     7
370
    15
100
AcDbVertex
100
AcDb2dVertex
 10
508.293349753569
 20
203.4080837165091
 30
0.0
  0
VERTEX
  5
418
330
416
100
AcDbEntity
  8
Layer 1
 62
     7
370
    15
100
AcDbVertex
100
AcDb2dVertex
 10
520.7220484809307
 20
201.3272460434182
 30
0.0
  0
SEQEND
  5
419
330
416
100
AcDbEntity
  8
Layer 1
370
    15
  0
POLYLINE
  5
41A
330
3C
100
AcDbEntity
  8
Layer 1
 62
     7
370
    15
100
AcDb2dPolyline
 66
     1
 10
0.0
 20
0.0
 30
0.0
  0
VERTEX
  5
41B
330
41A
100
AcDbEntity
  8
Layer 1
 62
     7
370
    15
100
AcDbVertex
100
AcDb2dVertex
 10
611.0180011493288
 20
201.3272460434182
 30
0.0
  0
VERTEX
  5
41C
330
41A
100
AcDbEntity
  8
Layer 1
 62
     7
370
    15
100
AcDbVertex
100
AcDb2dVertex
 10
623.4468721314647
 20
203.4080837165091
 30
0.0
  0
SEQEND
  5
41D
330
41A
100
AcDbEntity
  8
Layer 1
370
    15
  0
POLYLINE
  5
41E
330
3C
100
AcDbEntity
  8
Layer 1
 62
     7
370
    15
100
AcDb2dPolyline
 66
     1
 10
0.0
 20
0.0
 30
0.0
  0
VERTEX
  5
41F
330
41E
100
AcDbEntity
  8
Layer 1
 62
     7
370
    15
100
AcDbVertex
100
AcDb2dVertex
 10
423.3703680039665
 20
376.3277614076542
 30
0.0
  0
VERTEX
  5
420
330
41E
100
AcDbEntity
  8
Layer 1
 62
     7
370
    15
100
AcDbVertex
100
AcDb2dVertex
 10
423.3703680039665
 20
377.5273436556182
 30
0.0
  0
SEQEND
  5
421
330
41E
100
AcDbEntity
  8
Layer 1
370
    15
  0
POLYLINE
  5
422
330
3C
100
AcDbEntity
  8
Layer 1
 62
     7
370
    15
100
AcDb2dPolyline
 66
     1
 10
0.0
 20
0.0
 30
0.0
  0
VERTEX
  5
423
330
422
100
AcDbEntity
  8
Layer 1
 62
     7
370
    15
100
AcDbVertex
100
AcDb2dVertex
 10
448.3707369213275
 20
377.5273436556182
 30
0.0
  0
VERTEX
  5
424
330
422
100
AcDbEntity
  8
Layer 1
 62
     7
370
    15
100
AcDbVertex
100
AcDb2dVertex
 10
423.3703680039665
 20
377.5273436556182
 30
0.0
  0
SEQEND
  5
425
330
422
100
AcDbEntity
  8
Layer 1
370
    15
  0
POLYLINE
  5
426
330
3C
100
AcDbEntity
  8
Layer 1
 62
     7
370
    15
100
AcDb2dPolyline
 66
     1
 10
0.0
 20
0.0
 30
0.0
  0
VERTEX
  5
427
330
426
100
AcDbEntity
  8
Layer 1
 62
     7
370
    15
100
AcDbVertex
100
AcDb2dVertex
 10
448.3707369213275
 20
376.3277614076542
 30
0.0
  0
VERTEX
  5
428
330
426
100
AcDbEntity
  8
Layer 1
 62
     7
370
    15
100
AcDbVertex
100
AcDb2dVertex
 10
448.3707369213275
 20
377.5273436556182
 30
0.0
  0
SEQEND
  5
429
330
426
100
AcDbEntity
  8
Layer 1
370
    15
  0
POLYLINE
  5
42A
330
3C
100
AcDbEntity
  8
Layer 1
 62
     7
370
    15
100
AcDb2dPolyline
 66
     1
 10
0.0
 20
0.0
 30
0.0
  0
VERTEX
  5
42B
330
42A
100
AcDbEntity
  8
Layer 1
 62
     7
370
    15
100
AcDbVertex
100
AcDb2dVertex
 10
448.3707369213275
 20
376.3277614076542
 30
0.0
  0
VERTEX
  5
42C
330
42A
100
AcDbEntity
  8
Layer 1
 62
     7
370
    15
100
AcDbVertex
100
AcDb2dVertex
 10
423.3703680039665
 20
376.3277614076542
 30
0.0
  0
SEQEND
  5
42D
330
42A
100
AcDbEntity
  8
Layer 1
370
    15
  0
POLYLINE
  5
42E
330
3C
100
AcDbEntity
  8
Layer 1
 62
     7
370
    15
100
AcDb2dPolyline
 66
     1
 10
0.0
 20
0.0
 30
0.0
  0
VERTEX
  5
42F
330
42E
100
AcDbEntity
  8
Layer 1
 62
     7
370
    15
100
AcDbVertex
100
AcDb2dVertex
 10
683.3701739828033
 20
376.3277614076542
 30
0.0
  0
VERTEX
  5
430
330
42E
100
AcDbEntity
  8
Layer 1
 62
     7
370
    15
100
AcDbVertex
100
AcDb2dVertex
 10
683.3701739828033
 20
377.5273436556182
 30
0.0
  0
SEQEND
  5
431
330
42E
100
AcDbEntity
  8
Layer 1
370
    15
  0
POLYLINE
  5
432
330
3C
100
AcDbEntity
  8
Layer 1
 62
     7
370
    15
100
AcDb2dPolyline
 66
     1
 10
0.0
 20
0.0
 30
0.0
  0
VERTEX
  5
433
330
432
100
AcDbEntity
  8
Layer 1
 62
     7
370
    15
100
AcDbVertex
100
AcDb2dVertex
 10
683.3701739828033
 20
377.5273436556182
 30
0.0
  0
VERTEX
  5
434
330
432
100
AcDbEntity
  8
Layer 1
 62
     7
370
    15
100
AcDbVertex
100
AcDb2dVertex
 10
448.3707369213275
 20
377.5273436556182
 30
0.0
  0
SEQEND
  5
435
330
432
100
AcDbEntity
  8
Layer 1
370
    15
  0
POLYLINE
  5
436
330
3C
100
AcDbEntity
  8
Layer 1
 62
     7
370
    15
100
AcDb2dPolyline
 66
     1
 10
0.0
 20
0.0
 30
0.0
  0
VERTEX
  5
437
330
436
100
AcDbEntity
  8
Layer 1
 62
     7
370
    15
100
AcDbVertex
100
AcDb2dVertex
 10
683.3701739828033
 20
376.3277614076542
 30
0.0
  0
VERTEX
  5
438
330
436
100
AcDbEntity
  8
Layer 1
 62
     7
370
    15
100
AcDbVertex
100
AcDb2dVertex
 10
448.3707369213275
 20
376.3277614076542
 30
0.0
  0
SEQEND
  5
439
330
436
100
AcDbEntity
  8
Layer 1
370
    15
  0
POLYLINE
  5
43A
330
3C
100
AcDbEntity
  8
Layer 1
 62
     7
370
    15
100
AcDb2dPolyline
 66
     1
 10
0.0
 20
0.0
 30
0.0
  0
VERTEX
  5
43B
330
43A
100
AcDbEntity
  8
Layer 1
 62
     7
370
    15
100
AcDbVertex
100
AcDb2dVertex
 10
708.3705429001643
 20
376.3277614076542
 30
0.0
  0
VERTEX
  5
43C
330
43A
100
AcDbEntity
  8
Layer 1
 62
     7
370
    15
100
AcDbVertex
100
AcDb2dVertex
 10
708.3705429001643
 20
377.5273436556182
 30
0.0
  0
SEQEND
  5
43D
330
43A
100
AcDbEntity
  8
Layer 1
370
    15
  0
POLYLINE
  5
43E
330
3C
100
AcDbEntity
  8
Layer 1
 62
     7
370
    15
100
AcDb2dPolyline
 66
     1
 10
0.0
 20
0.0
 30
0.0
  0
VERTEX
  5
43F
330
43E
100
AcDbEntity
  8
Layer 1
 62
     7
370
    15
100
AcDbVertex
100
AcDb2dVertex
 10
683.3701739828033
 20
377.5273436556182
 30
0.0
  0
VERTEX
  5
440
330
43E
100
AcDbEntity
  8
Layer 1
 62
     7
370
    15
100
AcDbVertex
100
AcDb2dVertex
 10
708.3705429001643
 20
377.5273436556182
 30
0.0
  0
SEQEND
  5
441
330
43E
100
AcDbEntity
  8
Layer 1
370
    15
  0
POLYLINE
  5
442
330
3C
100
AcDbEntity
  8
Layer 1
 62
     7
370
    15
100
AcDb2dPolyline
 66
     1
 10
0.0
 20
0.0
 30
0.0
  0
VERTEX
  5
443
330
442
100
AcDbEntity
  8
Layer 1
 62
     7
370
    15
100
AcDbVertex
100
AcDb2dVertex
 10
683.3701739828033
 20
376.3277614076542
 30
0.0
  0
VERTEX
  5
444
330
442
100
AcDbEntity
  8
Layer 1
 62
     7
370
    15
100
AcDbVertex
100
AcDb2dVertex
 10
708.3705429001643
 20
376.3277614076542
 30
0.0
  0
SEQEND
  5
445
330
442
100
AcDbEntity
  8
Layer 1
370
    15
  0
POLYLINE
  5
446
330
3C
100
AcDbEntity
  8
Layer 1
 62
     7
370
    15
100
AcDb2dPolyline
 66
     1
 10
0.0
 20
0.0
 30
0.0
  0
VERTEX
  5
447
330
446
100
AcDbEntity
  8
Layer 1
 62
     7
370
    15
100
AcDbVertex
100
AcDb2dVertex
 10
447.1702933994922
 20
241.4729437330346
 30
0.0
  0
VERTEX
  5
448
330
446
100
AcDbEntity
  8
Layer 1
 62
     7
370
    15
100
AcDbVertex
100
AcDb2dVertex
 10
447.1702933994922
 20
376.3277614076542
 30
0.0
  0
SEQEND
  5
449
330
446
100
AcDbEntity
  8
Layer 1
370
    15
  0
POLYLINE
  5
44A
330
3C
100
AcDbEntity
  8
Layer 1
 62
     7
370
    15
100
AcDb2dPolyline
 66
     1
 10
0.0
 20
0.0
 30
0.0
  0
VERTEX
  5
44B
330
44A
100
AcDbEntity
  8
Layer 1
 62
     7
370
    15
100
AcDbVertex
100
AcDb2dVertex
 10
684.5697562307673
 20
241.4729437330346
 30
0.0
  0
VERTEX
  5
44C
330
44A
100
AcDbEntity
  8
Layer 1
 62
     7
370
    15
100
AcDbVertex
100
AcDb2dVertex
 10
684.5697562307673
 20
376.3277614076542
 30
0.0
  0
SEQEND
  5
44D
330
44A
100
AcDbEntity
  8
Layer 1
370
    15
  0
SPLINE
  5
44E
330
3C
100
AcDbEntity
  8
Layer 1
 62
     7
370
    15
100
AcDbSpline
210
0.0
220
0.0
230
1.0
 70
     8
 71
     3
 72
     8
 73
     4
 74
     0
 42
0.0000000001
 43
0.0000000001
 40
0.0
 40
0.0
 40
0.0
 40
0.0
 40
1.0
 40
1.0
 40
1.0
 40
1.0
 10
505.4191065902251
 20
206.4053167886765
 30
0.0
 10
505.4258245264214
 20
206.4039387504824
 30
0.0
 10
505.4332314817146
 20
206.4039387504824
 30
0.0
 10
505.4449448063645
 20
206.4032497313853
 30
0.0
  0
SPLINE
  5
44F
330
3C
100
AcDbEntity
  8
Layer 1
 62
     7
370
    15
100
AcDbSpline
210
0.0
220
0.0
230
1.0
 70
     8
 71
     3
 72
     8
 73
     4
 74
     0
 42
0.0000000001
 43
0.0000000001
 40
0.0
 40
0.0
 40
0.0
 40
0.0
 40
1.0
 40
1.0
 40
1.0
 40
1.0
 10
505.4449448063645
 20
206.4032497313853
 30
0.0
 10
505.5143634803923
 20
206.4011826740941
 30
0.0
 10
505.7469074256466
 20
206.398426597706
 30
0.0
 10
506.0268214338232
 20
206.3949815022207
 30
0.0
  0
SPLINE
  5
450
330
3C
100
AcDbEntity
  8
Layer 1
 62
     7
370
    15
100
AcDbSpline
210
0.0
220
0.0
230
1.0
 70
     8
 71
     3
 72
     8
 73
     4
 74
     0
 42
0.0000000001
 43
0.0000000001
 40
0.0
 40
0.0
 40
0.0
 40
0.0
 40
1.0
 40
1.0
 40
1.0
 40
1.0
 10
506.0268214338232
 20
206.3949815022207
 30
0.0
 10
506.3088024992909
 20
206.3929144449295
 30
0.0
 10
506.6386703920036
 20
206.3894693494443
 30
0.0
 10
507.0463974426829
 20
206.3867132730561
 30
0.0
  0
SPLINE
  5
451
330
3C
100
AcDbEntity
  8
Layer 1
 62
     7
370
    15
100
AcDbSpline
210
0.0
220
0.0
230
1.0
 70
     8
 71
     3
 72
     8
 73
     4
 74
     0
 42
0.0000000001
 43
0.0000000001
 40
0.0
 40
0.0
 40
0.0
 40
0.0
 40
1.0
 40
1.0
 40
1.0
 40
1.0
 10
507.0463974426829
 20
206.3867132730561
 30
0.0
 10
507.4418944043895
 20
206.3839571966679
 30
0.0
 10
507.9111164094806
 20
206.3825791584738
 30
0.0
 10
508.4444171905973
 20
206.3798230820856
 30
0.0
  0
SPLINE
  5
452
330
3C
100
AcDbEntity
  8
Layer 1
 62
     7
370
    15
100
AcDbSpline
210
0.0
220
0.0
230
1.0
 70
     8
 71
     3
 72
     8
 73
     4
 74
     0
 42
0.0000000001
 43
0.0000000001
 40
0.0
 40
0.0
 40
0.0
 40
0.0
 40
1.0
 40
1.0
 40
1.0
 40
1.0
 10
508.4444171905973
 20
206.3798230820856
 30
0.0
 10
508.9813353219735
 20
206.3777560247945
 30
0.0
 10
509.5828489936981
 20
206.3756889675033
 30
0.0
 10
510.2491304605454
 20
206.3743109293092
 30
0.0
  0
SPLINE
  5
453
330
3C
100
AcDbEntity
  8
Layer 1
 62
     7
370
    15
100
AcDbSpline
210
0.0
220
0.0
230
1.0
 70
     8
 71
     3
 72
     8
 73
     4
 74
     0
 42
0.0000000001
 43
0.0000000001
 40
0.0
 40
0.0
 40
0.0
 40
0.0
 40
1.0
 40
1.0
 40
1.0
 40
1.0
 10
510.2491304605454
 20
206.3743109293092
 30
0.0
 10
510.9109333032619
 20
206.3729328911151
 30
0.0
 10
511.636814922004
 20
206.3701768147269
 30
0.0
 10
512.423674730835
 20
206.3687987765328
 30
0.0
  0
SPLINE
  5
454
330
3C
100
AcDbEntity
  8
Layer 1
 62
     7
370
    15
100
AcDbSpline
210
0.0
220
0.0
230
1.0
 70
     8
 71
     3
 72
     8
 73
     4
 74
     0
 42
0.0000000001
 43
0.0000000001
 40
0.0
 40
0.0
 40
0.0
 40
0.0
 40
1.0
 40
1.0
 40
1.0
 40
1.0
 10
512.423674730835
 20
206.3687987765328
 30
0.0
 10
513.215702182894
 20
206.3667317192417
 30
0.0
 10
514.0697413536875
 20
206.3660427001446
 30
0.0
 10
514.9826916572787
 20
206.3639756428535
 30
0.0
  0
SPLINE
  5
455
330
3C
100
AcDbEntity
  8
Layer 1
 62
     7
370
    15
100
AcDbSpline
210
0.0
220
0.0
230
1.0
 70
     8
 71
     3
 72
     8
 73
     4
 74
     0
 42
0.0000000001
 43
0.0000000001
 40
0.0
 40
0.0
 40
0.0
 40
0.0
 40
1.0
 40
1.0
 40
1.0
 40
1.0
 10
514.9826916572787
 20
206.3639756428535
 30
0.0
 10
515.9151067503615
 20
206.3625976046594
 30
0.0
 10
516.9097058169532
 20
206.3619085855623
 30
0.0
 10
517.9618379781484
 20
206.3598415282711
 30
0.0
  0
SPLINE
  5
456
330
3C
100
AcDbEntity
  8
Layer 1
 62
     7
370
    15
100
AcDbSpline
210
0.0
220
0.0
230
1.0
 70
     8
 71
     3
 72
     8
 73
     4
 74
     0
 42
0.0000000001
 43
0.0000000001
 40
0.0
 40
0.0
 40
0.0
 40
0.0
 40
1.0
 40
1.0
 40
1.0
 40
1.0
 10
517.9618379781484
 20
206.3598415282711
 30
0.0
 10
519.0218938589599
 20
206.3591525091741
 30
0.0
 10
520.1405163630204
 20
206.3584634900771
 30
0.0
 10
521.3142603948451
 20
206.357085451883
 30
0.0
  0
SPLINE
  5
457
330
3C
100
AcDbEntity
  8
Layer 1
 62
     7
370
    15
100
AcDbSpline
210
0.0
220
0.0
230
1.0
 70
     8
 71
     3
 72
     8
 73
     4
 74
     0
 42
0.0000000001
 43
0.0000000001
 40
0.0
 40
0.0
 40
0.0
 40
0.0
 40
1.0
 40
1.0
 40
1.0
 40
1.0
 10
521.3142603948451
 20
206.357085451883
 30
0.0
 10
522.4480413190408
 20
206.3557074136889
 30
0.0
 10
523.6331541659667
 20
206.3550183945918
 30
0.0
 10
524.8658093305892
 20
206.3543293754948
 30
0.0
  0
SPLINE
  5
458
330
3C
100
AcDbEntity
  8
Layer 1
 62
     7
370
    15
100
AcDbSpline
210
0.0
220
0.0
230
1.0
 70
     8
 71
     3
 72
     8
 73
     4
 74
     0
 42
0.0000000001
 43
0.0000000001
 40
0.0
 40
0.0
 40
0.0
 40
0.0
 40
1.0
 40
1.0
 40
1.0
 40
1.0
 10
524.8658093305892
 20
206.3543293754948
 30
0.0
 10
526.106043705279
 20
206.3536403563977
 30
0.0
 10
527.3945094167625
 20
206.3529513373007
 30
0.0
 10
528.7263833313601
 20
206.3529513373007
 30
0.0
  0
SPLINE
  5
459
330
3C
100
AcDbEntity
  8
Layer 1
 62
     7
370
    15
100
AcDbSpline
210
0.0
220
0.0
230
1.0
 70
     8
 71
     3
 72
     8
 73
     4
 74
     0
 42
0.0000000001
 43
0.0000000001
 40
0.0
 40
0.0
 40
0.0
 40
0.0
 40
1.0
 40
1.0
 40
1.0
 40
1.0
 10
528.7263833313601
 20
206.3529513373007
 30
0.0
 10
530.0871960480338
 20
206.3515732991065
 30
0.0
 10
531.4924504964672
 20
206.3508842800095
 30
0.0
 10
532.9383570716266
 20
206.3501952609125
 30
0.0
  0
SPLINE
  5
45A
330
3C
100
AcDbEntity
  8
Layer 1
 62
     7
370
    15
100
AcDbSpline
210
0.0
220
0.0
230
1.0
 70
     8
 71
     3
 72
     8
 73
     4
 74
     0
 42
0.0000000001
 43
0.0000000001
 40
0.0
 40
0.0
 40
0.0
 40
0.0
 40
1.0
 40
1.0
 40
1.0
 40
1.0
 10
532.9383570716266
 20
206.3501952609125
 30
0.0
 10
534.3949434427901
 20
206.3501952609125
 30
0.0
 10
535.8925264502283
 20
206.3495062418154
 30
0.0
 10
537.4238713934218
 20
206.3495062418154
 30
0.0
  0
SPLINE
  5
45B
330
3C
100
AcDbEntity
  8
Layer 1
 62
     7
370
    15
100
AcDbSpline
210
0.0
220
0.0
230
1.0
 70
     8
 71
     3
 72
     8
 73
     4
 74
     0
 42
0.0000000001
 43
0.0000000001
 40
0.0
 40
0.0
 40
0.0
 40
0.0
 40
1.0
 40
1.0
 40
1.0
 40
1.0
 10
537.4238713934218
 20
206.3495062418154
 30
0.0
 10
538.9014728470455
 20
206.3488172227184
 30
0.0
 10
540.4114581982305
 20
206.3495062418154
 30
0.0
 10
541.948659803749
 20
206.3495062418154
 30
0.0
  0
SPLINE
  5
45C
330
3C
100
AcDbEntity
  8
Layer 1
 62
     7
370
    15
100
AcDbSpline
210
0.0
220
0.0
230
1.0
 70
    24
 71
     3
 72
     8
 73
     4
 74
     0
 42
0.0000000001
 43
0.0000000001
 40
0.0
 40
0.0
 40
0.0
 40
0.0
 40
1.0
 40
1.0
 40
1.0
 40
1.0
 10
541.948659803749
 20
206.3495062418154
 30
0.0
 10
543.4961966957231
 20
206.3495062418154
 30
0.0
 10
545.0726723897735
 20
206.3495062418154
 30
0.0
 10
546.6705076758324
 20
206.3495062418154
 30
0.0
  0
SPLINE
  5
45D
330
3C
100
AcDbEntity
  8
Layer 1
 62
     7
370
    15
100
AcDbSpline
210
0.0
220
0.0
230
1.0
 70
     8
 71
     3
 72
     8
 73
     4
 74
     0
 42
0.0000000001
 43
0.0000000001
 40
0.0
 40
0.0
 40
0.0
 40
0.0
 40
1.0
 40
1.0
 40
1.0
 40
1.0
 10
546.6705076758324
 20
206.3495062418154
 30
0.0
 10
548.3027939167438
 20
206.3495062418154
 30
0.0
 10
549.959884845149
 20
206.3501952609125
 30
0.0
 10
551.6328232127863
 20
206.3501952609125
 30
0.0
  0
SPLINE
  5
45E
330
3C
100
AcDbEntity
  8
Layer 1
 62
     7
370
    15
100
AcDbSpline
210
0.0
220
0.0
230
1.0
 70
    24
 71
     3
 72
     8
 73
     4
 74
     0
 42
0.0000000001
 43
0.0000000001
 40
0.0
 40
0.0
 40
0.0
 40
0.0
 40
1.0
 40
1.0
 40
1.0
 40
1.0
 10
551.6328232127863
 20
206.3501952609125
 30
0.0
 10
553.3191974528161
 20
206.3501952609125
 30
0.0
 10
555.0227971702722
 20
206.3501952609125
 30
0.0
 10
556.737421193281
 20
206.3501952609125
 30
0.0
  0
SPLINE
  5
45F
330
3C
100
AcDbEntity
  8
Layer 1
 62
     7
370
    15
100
AcDbSpline
210
0.0
220
0.0
230
1.0
 70
    24
 71
     3
 72
     8
 73
     4
 74
     0
 42
0.0000000001
 43
0.0000000001
 40
0.0
 40
0.0
 40
0.0
 40
0.0
 40
1.0
 40
1.0
 40
1.0
 40
1.0
 10
556.737421193281
 20
206.3501952609125
 30
0.0
 10
558.3903780071038
 20
206.3501952609125
 30
0.0
 10
560.0543591264795
 20
206.3501952609125
 30
0.0
 10
561.7221298508889
 20
206.3501952609125
 30
0.0
  0
SPLINE
  5
460
330
3C
100
AcDbEntity
  8
Layer 1
 62
     7
370
    15
100
AcDbSpline
210
0.0
220
0.0
230
1.0
 70
    24
 71
     3
 72
     8
 73
     4
 74
     0
 42
0.0000000001
 43
0.0000000001
 40
0.0
 40
0.0
 40
0.0
 40
0.0
 40
1.0
 40
1.0
 40
1.0
 40
1.0
 10
561.7221298508889
 20
206.3501952609125
 30
0.0
 10
563.4019584094967
 20
206.3501952609125
 30
0.0
 10
565.0862655922353
 20
206.3501952609125
 30
0.0
 10
566.7691947367799
 20
206.3501952609125
 30
0.0
  0
SPLINE
  5
461
330
3C
100
AcDbEntity
  8
Layer 1
 62
     7
370
    15
100
AcDbSpline
210
0.0
220
0.0
230
1.0
 70
    24
 71
     3
 72
     8
 73
     4
 74
     0
 42
0.0000000001
 43
0.0000000001
 40
0.0
 40
0.0
 40
0.0
 40
0.0
 40
1.0
 40
1.0
 40
1.0
 40
1.0
 10
566.7691947367799
 20
206.3501952609125
 30
0.0
 10
568.4896754221137
 20
206.3501952609125
 30
0.0
 10
570.209122578802
 20
206.3501952609125
 30
0.0
 10
571.920646015874
 20
206.3501952609125
 30
0.0
  0
SPLINE
  5
462
330
3C
100
AcDbEntity
  8
Layer 1
 62
     7
370
    15
100
AcDbSpline
210
0.0
220
0.0
230
1.0
 70
    24
 71
     3
 72
     8
 73
     4
 74
     0
 42
0.0000000001
 43
0.0000000001
 40
0.0
 40
0.0
 40
0.0
 40
0.0
 40
1.0
 40
1.0
 40
1.0
 40
1.0
 10
571.920646015874
 20
206.3501952609125
 30
0.0
 10
573.6449163062416
 20
206.3501952609125
 30
0.0
 10
575.3619518960901
 20
206.3501952609125
 30
0.0
 10
577.0648625944491
 20
206.3501952609125
 30
0.0
  0
SPLINE
  5
463
330
3C
100
AcDbEntity
  8
Layer 1
 62
     7
370
    15
100
AcDbSpline
210
0.0
220
0.0
230
1.0
 70
    24
 71
     3
 72
     8
 73
     4
 74
     0
 42
0.0000000001
 43
0.0000000001
 40
0.0
 40
0.0
 40
0.0
 40
0.0
 40
1.0
 40
1.0
 40
1.0
 40
1.0
 10
577.0648625944491
 20
206.3501952609125
 30
0.0
 10
578.7071396122677
 20
206.3501952609125
 30
0.0
 10
580.3359807576938
 20
206.3501952609125
 30
0.0
 10
581.9472519161452
 20
206.3501952609125
 30
0.0
  0
SPLINE
  5
464
330
3C
100
AcDbEntity
  8
Layer 1
 62
     7
370
    15
100
AcDbSpline
210
0.0
220
0.0
230
1.0
 70
     8
 71
     3
 72
     8
 73
     4
 74
     0
 42
0.0000000001
 43
0.0000000001
 40
0.0
 40
0.0
 40
0.0
 40
0.0
 40
1.0
 40
1.0
 40
1.0
 40
1.0
 10
581.9472519161452
 20
206.3501952609125
 30
0.0
 10
583.5688583610522
 20
206.3495062418154
 30
0.0
 10
585.172550309436
 20
206.3495062418154
 30
0.0
 10
586.7517820798746
 20
206.3495062418154
 30
0.0
  0
SPLINE
  5
465
330
3C
100
AcDbEntity
  8
Layer 1
 62
     7
370
    15
100
AcDbSpline
210
0.0
220
0.0
230
1.0
 70
    24
 71
     3
 72
     8
 73
     4
 74
     0
 42
0.0000000001
 43
0.0000000001
 40
0.0
 40
0.0
 40
0.0
 40
0.0
 40
1.0
 40
1.0
 40
1.0
 40
1.0
 10
586.7517820798746
 20
206.3495062418154
 30
0.0
 10
588.3647757860685
 20
206.3495062418154
 30
0.0
 10
589.9526202952202
 20
206.3495062418154
 30
0.0
 10
591.5101479641016
 20
206.3495062418154
 30
0.0
  0
SPLINE
  5
466
330
3C
100
AcDbEntity
  8
Layer 1
 62
     7
370
    15
100
AcDbSpline
210
0.0
220
0.0
230
1.0
 70
    24
 71
     3
 72
     8
 73
     4
 74
     0
 42
0.0000000001
 43
0.0000000001
 40
0.0
 40
0.0
 40
0.0
 40
0.0
 40
1.0
 40
1.0
 40
1.0
 40
1.0
 10
591.5101479641016
 20
206.3495062418154
 30
0.0
 10
593.0783554289874
 20
206.3495062418154
 30
0.0
 10
594.6148680154088
 20
206.3495062418154
 30
0.0
 10
596.1155516087837
 20
206.3495062418154
 30
0.0
  0
SPLINE
  5
467
330
3C
100
AcDbEntity
  8
Layer 1
 62
     7
370
    15
100
AcDbSpline
210
0.0
220
0.0
230
1.0
 70
     8
 71
     3
 72
     8
 73
     4
 74
     0
 42
0.0000000001
 43
0.0000000001
 40
0.0
 40
0.0
 40
0.0
 40
0.0
 40
1.0
 40
1.0
 40
1.0
 40
1.0
 10
596.1155516087837
 20
206.3495062418154
 30
0.0
 10
597.5645587698797
 20
206.3501952609125
 30
0.0
 10
598.9787704665748
 20
206.3501952609125
 30
0.0
 10
600.3540525842865
 20
206.3508842800095
 30
0.0
  0
SPLINE
  5
468
330
3C
100
AcDbEntity
  8
Layer 1
 62
     7
370
    15
100
AcDbSpline
210
0.0
220
0.0
230
1.0
 70
     8
 71
     3
 72
     8
 73
     4
 74
     0
 42
0.0000000001
 43
0.0000000001
 40
0.0
 40
0.0
 40
0.0
 40
0.0
 40
1.0
 40
1.0
 40
1.0
 40
1.0
 10
600.3540525842865
 20
206.3508842800095
 30
0.0
 10
601.7382919502598
 20
206.3515732991065
 30
0.0
 10
603.0825682086044
 20
206.3529513373007
 30
0.0
 10
604.3830917542862
 20
206.3529513373007
 30
0.0
  0
SPLINE
  5
469
330
3C
100
AcDbEntity
  8
Layer 1
 62
     7
370
    15
100
AcDbSpline
210
0.0
220
0.0
230
1.0
 70
     8
 71
     3
 72
     8
 73
     4
 74
     0
 42
0.0000000001
 43
0.0000000001
 40
0.0
 40
0.0
 40
0.0
 40
0.0
 40
1.0
 40
1.0
 40
1.0
 40
1.0
 10
604.3830917542862
 20
206.3529513373007
 30
0.0
 10
605.710487044753
 20
206.3536403563977
 30
0.0
 10
606.992751584363
 20
206.3543293754948
 30
0.0
 10
608.2223061630486
 20
206.3550183945918
 30
0.0
  0
SPLINE
  5
46A
330
3C
100
AcDbEntity
  8
Layer 1
 62
     7
370
    15
100
AcDbSpline
210
0.0
220
0.0
230
1.0
 70
     8
 71
     3
 72
     8
 73
     4
 74
     0
 42
0.0000000001
 43
0.0000000001
 40
0.0
 40
0.0
 40
0.0
 40
0.0
 40
1.0
 40
1.0
 40
1.0
 40
1.0
 10
608.2223061630486
 20
206.3550183945918
 30
0.0
 10
609.4618515186415
 20
206.3557074136889
 30
0.0
 10
610.64868691331
 20
206.35777447098
 30
0.0
 10
611.779367251569
 20
206.3584634900771
 30
0.0
  0
SPLINE
  5
46B
330
3C
100
AcDbEntity
  8
Layer 1
 62
     7
370
    15
100
AcDbSpline
210
0.0
220
0.0
230
1.0
 70
     8
 71
     3
 72
     8
 73
     4
 74
     0
 42
0.0000000001
 43
0.0000000001
 40
0.0
 40
0.0
 40
0.0
 40
0.0
 40
1.0
 40
1.0
 40
1.0
 40
1.0
 10
611.779367251569
 20
206.3584634900771
 30
0.0
 10
612.8700844821992
 20
206.3591525091741
 30
0.0
 10
613.9091252805505
 20
206.3612195664653
 30
0.0
 10
614.8916665129437
 20
206.3619085855623
 30
0.0
  0
SPLINE
  5
46C
330
3C
100
AcDbEntity
  8
Layer 1
 62
     7
370
    15
100
AcDbSpline
210
0.0
220
0.0
230
1.0
 70
     8
 71
     3
 72
     8
 73
     4
 74
     0
 42
0.0000000001
 43
0.0000000001
 40
0.0
 40
0.0
 40
0.0
 40
0.0
 40
1.0
 40
1.0
 40
1.0
 40
1.0
 10
614.8916665129437
 20
206.3619085855623
 30
0.0
 10
615.880753426759
 20
206.3625976046594
 30
0.0
 10
616.8133407746161
 20
206.3639756428535
 30
0.0
 10
617.6859834610299
 20
206.3660427001446
 30
0.0
  0
SPLINE
  5
46D
330
3C
100
AcDbEntity
  8
Layer 1
 62
     7
370
    15
100
AcDbSpline
210
0.0
220
0.0
230
1.0
 70
     8
 71
     3
 72
     8
 73
     4
 74
     0
 42
0.0000000001
 43
0.0000000001
 40
0.0
 40
0.0
 40
0.0
 40
0.0
 40
1.0
 40
1.0
 40
1.0
 40
1.0
 10
617.6859834610299
 20
206.3660427001446
 30
0.0
 10
618.5768851535155
 20
206.3674207383387
 30
0.0
 10
619.4054306177181
 20
206.3694877956299
 30
0.0
 10
620.1681747581524
 20
206.370865833824
 30
0.0
  0
SPLINE
  5
46E
330
3C
100
AcDbEntity
  8
Layer 1
 62
     7
370
    15
100
AcDbSpline
210
0.0
220
0.0
230
1.0
 70
     8
 71
     3
 72
     8
 73
     4
 74
     0
 42
0.0000000001
 43
0.0000000001
 40
0.0
 40
0.0
 40
0.0
 40
0.0
 40
1.0
 40
1.0
 40
1.0
 40
1.0
 10
620.1681747581524
 20
206.370865833824
 30
0.0
 10
620.9367755609117
 20
206.3729328911151
 30
0.0
 10
621.6388860208056
 20
206.3743109293092
 30
0.0
 10
622.2714055518975
 20
206.3770670056974
 30
0.0
  0
SPLINE
  5
46F
330
3C
100
AcDbEntity
  8
Layer 1
 62
     7
370
    15
100
AcDbSpline
210
0.0
220
0.0
230
1.0
 70
     8
 71
     3
 72
     8
 73
     4
 74
     0
 42
0.0000000001
 43
0.0000000001
 40
0.0
 40
0.0
 40
0.0
 40
0.0
 40
1.0
 40
1.0
 40
1.0
 40
1.0
 10
622.2714055518975
 20
206.3770670056974
 30
0.0
 10
622.8818764718837
 20
206.3784450438915
 30
0.0
 10
623.4268905776503
 20
206.3812011202797
 30
0.0
 10
623.9074813978426
 20
206.3825791584738
 30
0.0
  0
SPLINE
  5
470
330
3C
100
AcDbEntity
  8
Layer 1
 62
     7
370
    15
100
AcDbSpline
210
0.0
220
0.0
230
1.0
 70
     8
 71
     3
 72
     8
 73
     4
 74
     0
 42
0.0000000001
 43
0.0000000001
 40
0.0
 40
0.0
 40
0.0
 40
0.0
 40
1.0
 40
1.0
 40
1.0
 40
1.0
 10
623.9074813978426
 20
206.3825791584738
 30
0.0
 10
624.3925508421657
 20
206.385335234862
 30
0.0
 10
624.8118189627207
 20
206.3874022921532
 30
0.0
 10
625.153916944406
 20
206.3901583685414
 30
0.0
  0
SPLINE
  5
471
330
3C
100
AcDbEntity
  8
Layer 1
 62
     7
370
    15
100
AcDbSpline
210
0.0
220
0.0
230
1.0
 70
     8
 71
     3
 72
     8
 73
     4
 74
     0
 42
0.0000000001
 43
0.0000000001
 40
0.0
 40
0.0
 40
0.0
 40
0.0
 40
1.0
 40
1.0
 40
1.0
 40
1.0
 10
625.153916944406
 20
206.3901583685414
 30
0.0
 10
625.5032496266103
 20
206.3929144449295
 30
0.0
 10
625.7719670744598
 20
206.3956705213178
 30
0.0
 10
626.0007214146804
 20
206.398426597706
 30
0.0
  0
SPLINE
  5
472
330
3C
100
AcDbEntity
  8
Layer 1
 62
     7
370
    15
100
AcDbSpline
210
0.0
220
0.0
230
1.0
 70
     8
 71
     3
 72
     8
 73
     4
 74
     0
 42
0.0000000001
 43
0.0000000001
 40
0.0
 40
0.0
 40
0.0
 40
0.0
 40
1.0
 40
1.0
 40
1.0
 40
1.0
 10
626.0007214146804
 20
206.398426597706
 30
0.0
 10
626.230164773998
 20
206.4018716931912
 30
0.0
 10
626.4199895352353
 20
206.4039387504824
 30
0.0
 10
626.4117213060707
 20
206.4073838459676
 30
0.0
  0
SPLINE
  5
473
330
3C
100
AcDbEntity
  8
Layer 1
 62
     7
370
    15
100
AcDbSpline
210
0.0
220
0.0
230
1.0
 70
    24
 71
     3
 72
     8
 73
     4
 74
     0
 42
0.0000000001
 43
0.0000000001
 40
0.0
 40
0.0
 40
0.0
 40
0.0
 40
1.0
 40
1.0
 40
1.0
 40
1.0
 10
626.4117213060707
 20
206.4073838459676
 30
0.0
 10
626.4106877774251
 20
206.4073838459676
 30
0.0
 10
626.4106877774251
 20
206.4073838459676
 30
0.0
 10
626.4106877774251
 20
206.4073838459676
 30
0.0
  0
SPLINE
  5
474
330
3C
100
AcDbEntity
  8
Layer 1
 62
     7
370
    15
100
AcDbSpline
210
0.0
220
0.0
230
1.0
 70
     8
 71
     3
 72
     8
 73
     4
 74
     0
 42
0.0000000001
 43
0.0000000001
 40
0.0
 40
0.0
 40
0.0
 40
0.0
 40
1.0
 40
1.0
 40
1.0
 40
1.0
 10
662.8305146997438
 20
212.742225424245
 30
0.0
 10
662.8363713620687
 20
212.741536405148
 30
0.0
 10
662.8422280243936
 20
212.7401583669539
 30
0.0
 10
662.8446395912333
 20
212.7401583669539
 30
0.0
  0
SPLINE
  5
475
330
3C
100
AcDbEntity
  8
Layer 1
 62
     7
370
    15
100
AcDbSpline
210
0.0
220
0.0
230
1.0
 70
     8
 71
     3
 72
     8
 73
     4
 74
     0
 42
0.0000000001
 43
0.0000000001
 40
0.0
 40
0.0
 40
0.0
 40
0.0
 40
1.0
 40
1.0
 40
1.0
 40
1.0
 10
662.8446395912333
 20
212.7401583669539
 30
0.0
 10
662.8498072344612
 20
212.7401583669539
 30
0.0
 10
662.8463621389759
 20
212.7436034624391
 30
0.0
 10
662.8439505721362
 20
212.7463595388273
 30
0.0
  0
POLYLINE
  5
476
330
3C
100
AcDbEntity
  8
Layer 1
 62
     7
370
    15
100
AcDb2dPolyline
 66
     1
 10
0.0
 20
0.0
 30
0.0
  0
VERTEX
  5
477
330
476
100
AcDbEntity
  8
Layer 1
 62
     7
370
    15
100
AcDbVertex
100
AcDb2dVertex
 10
468.9033337586422
 20
212.7442924815361
 30
0.0
  0
VERTEX
  5
478
330
476
100
AcDbEntity
  8
Layer 1
 62
     7
370
    15
100
AcDbVertex
100
AcDb2dVertex
 10
468.9119464973554
 20
212.7456705197303
 30
0.0
  0
SEQEND
  5
479
330
476
100
AcDbEntity
  8
Layer 1
370
    15
  0
SPLINE
  5
47A
330
3C
100
AcDbEntity
  8
Layer 1
 62
     7
370
    15
100
AcDbSpline
210
0.0
220
0.0
230
1.0
 70
    24
 71
     3
 72
     8
 73
     4
 74
     0
 42
0.0000000001
 43
0.0000000001
 40
0.0
 40
0.0
 40
0.0
 40
0.0
 40
1.0
 40
1.0
 40
1.0
 40
1.0
 10
684.5697562307673
 20
238.5597709907073
 30
0.0
 10
684.5697562307673
 20
238.5962890028509
 30
0.0
 10
684.5697562307673
 20
238.6321179958975
 30
0.0
 10
684.5697562307673
 20
238.707910096573
 30
0.0
  0
SPLINE
  5
47B
330
3C
100
AcDbEntity
  8
Layer 1
 62
     7
370
    15
100
AcDbSpline
210
0.0
220
0.0
230
1.0
 70
    24
 71
     3
 72
     8
 73
     4
 74
     0
 42
0.0000000001
 43
0.0000000001
 40
0.0
 40
0.0
 40
0.0
 40
0.0
 40
1.0
 40
1.0
 40
1.0
 40
1.0
 10
684.5697562307673
 20
238.707910096573
 30
0.0
 10
684.5697562307673
 20
238.873274679865
 30
0.0
 10
684.5697562307673
 20
239.2274304957487
 30
0.0
 10
684.5697562307673
 20
239.4706542370074
 30
0.0
  0
SPLINE
  5
47C
330
3C
100
AcDbEntity
  8
Layer 1
 62
     7
370
    15
100
AcDbSpline
210
0.0
220
0.0
230
1.0
 70
    24
 71
     3
 72
     8
 73
     4
 74
     0
 42
0.0000000001
 43
0.0000000001
 40
0.0
 40
0.0
 40
0.0
 40
0.0
 40
1.0
 40
1.0
 40
1.0
 40
1.0
 10
684.5697562307673
 20
239.4706542370074
 30
0.0
 10
684.5697562307673
 20
239.5312879175478
 30
0.0
 10
684.5697562307673
 20
239.5843423880206
 30
0.0
 10
684.5697562307673
 20
239.6656466414725
 30
0.0
  0
SPLINE
  5
47D
330
3C
100
AcDbEntity
  8
Layer 1
 62
     7
370
    15
100
AcDbSpline
210
0.0
220
0.0
230
1.0
 70
    24
 71
     3
 72
     8
 73
     4
 74
     0
 42
0.0000000001
 43
0.0000000001
 40
0.0
 40
0.0
 40
0.0
 40
0.0
 40
1.0
 40
1.0
 40
1.0
 40
1.0
 10
684.5697562307673
 20
239.6656466414725
 30
0.0
 10
684.5697562307673
 20
239.7448838376332
 30
0.0
 10
684.5697562307673
 20
239.851681797676
 30
0.0
 10
684.5697562307673
 20
240.0163573618709
 30
0.0
  0
SPLINE
  5
47E
330
3C
100
AcDbEntity
  8
Layer 1
 62
     7
370
    15
100
AcDbSpline
210
0.0
220
0.0
230
1.0
 70
    24
 71
     3
 72
     8
 73
     4
 74
     0
 42
0.0000000001
 43
0.0000000001
 40
0.0
 40
0.0
 40
0.0
 40
0.0
 40
1.0
 40
1.0
 40
1.0
 40
1.0
 10
684.5697562307673
 20
240.0163573618709
 30
0.0
 10
684.5697562307673
 20
240.3457084902608
 30
0.0
 10
684.5697562307673
 20
240.9100151307447
 30
0.0
 10
684.5697562307673
 20
241.4729437330346
 30
0.0
  0
SPLINE
  5
47F
330
3C
100
AcDbEntity
  8
Layer 1
 62
     7
370
    15
100
AcDbSpline
210
0.0
220
0.0
230
1.0
 70
    24
 71
     3
 72
     8
 73
     4
 74
     0
 42
0.0000000001
 43
0.0000000001
 40
0.0
 40
0.0
 40
0.0
 40
0.0
 40
1.0
 40
1.0
 40
1.0
 40
1.0
 10
447.1702933994922
 20
241.4729437330346
 30
0.0
 10
447.1702933994922
 20
241.1677082730414
 30
0.0
 10
447.1702933994922
 20
240.8617837939512
 30
0.0
 10
447.1702933994922
 20
240.6089137853339
 30
0.0
  0
SPLINE
  5
480
330
3C
100
AcDbEntity
  8
Layer 1
 62
     7
370
    15
100
AcDbSpline
210
0.0
220
0.0
230
1.0
 70
    24
 71
     3
 72
     8
 73
     4
 74
     0
 42
0.0000000001
 43
0.0000000001
 40
0.0
 40
0.0
 40
0.0
 40
0.0
 40
1.0
 40
1.0
 40
1.0
 40
1.0
 10
447.1702933994922
 20
240.6089137853339
 30
0.0
 10
447.1702933994922
 20
240.1017957299051
 30
0.0
 10
447.1702933994922
 20
239.8062065372707
 30
0.0
 10
447.1702933994922
 20
239.6057019800292
 30
0.0
  0
SPLINE
  5
481
330
3C
100
AcDbEntity
  8
Layer 1
 62
     7
370
    15
100
AcDbSpline
210
0.0
220
0.0
230
1.0
 70
    24
 71
     3
 72
     8
 73
     4
 74
     0
 42
0.0000000001
 43
0.0000000001
 40
0.0
 40
0.0
 40
0.0
 40
0.0
 40
1.0
 40
1.0
 40
1.0
 40
1.0
 10
447.1702933994922
 20
239.6057019800292
 30
0.0
 10
447.1702933994922
 20
239.4038193845935
 30
0.0
 10
447.1702933994922
 20
239.2983994627449
 30
0.0
 10
447.1702933994922
 20
239.1605956433349
 30
0.0
  0
SPLINE
  5
482
330
3C
100
AcDbEntity
  8
Layer 1
 62
     7
370
    15
100
AcDbSpline
210
0.0
220
0.0
230
1.0
 70
    24
 71
     3
 72
     8
 73
     4
 74
     0
 42
0.0000000001
 43
0.0000000001
 40
0.0
 40
0.0
 40
0.0
 40
0.0
 40
1.0
 40
1.0
 40
1.0
 40
1.0
 10
447.1702933994922
 20
239.1605956433349
 30
0.0
 10
447.1702933994922
 20
239.0227918239249
 30
0.0
 10
447.1702933994922
 20
238.8526041069535
 30
0.0
 10
447.1702933994922
 20
238.7478732042019
 30
0.0
  0
SPLINE
  5
483
330
3C
100
AcDbEntity
  8
Layer 1
 62
     7
370
    15
100
AcDbSpline
210
0.0
220
0.0
230
1.0
 70
    24
 71
     3
 72
     8
 73
     4
 74
     0
 42
0.0000000001
 43
0.0000000001
 40
0.0
 40
0.0
 40
0.0
 40
0.0
 40
1.0
 40
1.0
 40
1.0
 40
1.0
 10
447.1702933994922
 20
238.7478732042019
 30
0.0
 10
447.1702933994922
 20
238.6472764160326
 30
0.0
 10
447.1702933994922
 20
238.6052462511126
 30
0.0
 10
447.1702933994922
 20
238.5639051052896
 30
0.0
  0
POLYLINE
  5
484
330
3C
100
AcDbEntity
  8
Layer 1
 62
     7
370
    15
100
AcDb2dPolyline
 66
     1
 10
0.0
 20
0.0
 30
0.0
  0
VERTEX
  5
485
330
484
100
AcDbEntity
  8
Layer 1
 62
     7
370
    15
100
AcDbVertex
100
AcDb2dVertex
 10
565.8700248151298
 20
203.4080837165091
 30
0.0
  0
VERTEX
  5
486
330
484
100
AcDbEntity
  8
Layer 1
 62
     7
370
    15
100
AcDbVertex
100
AcDb2dVertex
 10
623.4468721314647
 20
203.4080837165091
 30
0.0
  0
SEQEND
  5
487
330
484
100
AcDbEntity
  8
Layer 1
370
    15
  0
POLYLINE
  5
488
330
3C
100
AcDbEntity
  8
Layer 1
 62
     7
370
    15
100
AcDb2dPolyline
 66
     1
 10
0.0
 20
0.0
 30
0.0
  0
VERTEX
  5
489
330
488
100
AcDbEntity
  8
Layer 1
 62
     7
370
    15
100
AcDbVertex
100
AcDb2dVertex
 10
508.293349753569
 20
203.4080837165091
 30
0.0
  0
VERTEX
  5
48A
330
488
100
AcDbEntity
  8
Layer 1
 62
     7
370
    15
100
AcDbVertex
100
AcDb2dVertex
 10
565.8700248151298
 20
203.4080837165091
 30
0.0
  0
SEQEND
  5
48B
330
488
100
AcDbEntity
  8
Layer 1
370
    15
  0
POLYLINE
  5
48C
330
3C
100
AcDbEntity
  8
Layer 1
 62
     7
370
    15
100
AcDb2dPolyline
 66
     1
 10
0.0
 20
0.0
 30
0.0
  0
VERTEX
  5
48D
330
48C
100
AcDbEntity
  8
Layer 1
 62
     7
370
    15
100
AcDbVertex
100
AcDb2dVertex
 10
565.8700248151298
 20
201.3272460434182
 30
0.0
  0
VERTEX
  5
48E
330
48C
100
AcDbEntity
  8
Layer 1
 62
     7
370
    15
100
AcDbVertex
100
AcDb2dVertex
 10
611.0180011493288
 20
201.3272460434182
 30
0.0
  0
SEQEND
  5
48F
330
48C
100
AcDbEntity
  8
Layer 1
370
    15
  0
POLYLINE
  5
490
330
3C
100
AcDbEntity
  8
Layer 1
 62
     7
370
    15
100
AcDb2dPolyline
 66
     1
 10
0.0
 20
0.0
 30
0.0
  0
VERTEX
  5
491
330
490
100
AcDbEntity
  8
Layer 1
 62
     7
370
    15
100
AcDbVertex
100
AcDb2dVertex
 10
520.7220484809307
 20
201.3272460434182
 30
0.0
  0
VERTEX
  5
492
330
490
100
AcDbEntity
  8
Layer 1
 62
     7
370
    15
100
AcDbVertex
100
AcDb2dVertex
 10
565.8700248151298
 20
201.3272460434182
 30
0.0
  0
SEQEND
  5
493
330
490
100
AcDbEntity
  8
Layer 1
370
    15
  0
POLYLINE
  5
494
330
3C
100
AcDbEntity
  8
Layer 1
 62
   253
370
    15
100
AcDb2dPolyline
 66
     1
 10
0.0
 20
0.0
 30
0.0
  0
VERTEX
  5
495
330
494
100
AcDbEntity
  8
Layer 1
 62
   253
370
    15
100
AcDbVertex
100
AcDb2dVertex
 10
468.9119464973554
 20
212.7456705197303
 30
0.0
  0
VERTEX
  5
496
330
494
100
AcDbEntity
  8
Layer 1
 62
   253
370
    15
100
AcDbVertex
100
AcDb2dVertex
 10
469.4710854946114
 20
212.8400661360261
 30
0.0
  0
VERTEX
  5
497
330
494
100
AcDbEntity
  8
Layer 1
 62
   253
370
    15
100
AcDbVertex
100
AcDb2dVertex
 10
470.1682005660517
 20
213.1583929588632
 30
0.0
  0
VERTEX
  5
498
330
494
100
AcDbEntity
  8
Layer 1
 62
   253
370
    15
100
AcDbVertex
100
AcDb2dVertex
 10
470.7042574235566
 20
213.54217659592
 30
0.0
  0
VERTEX
  5
499
330
494
100
AcDbEntity
  8
Layer 1
 62
   253
370
    15
100
AcDbVertex
100
AcDb2dVertex
 10
470.8362045806417
 20
213.6565537660303
 30
0.0
  0
SEQEND
  5
49A
330
494
100
AcDbEntity
  8
Layer 1
370
    15
  0
POLYLINE
  5
49B
330
3C
100
AcDbEntity
  8
Layer 1
370
     0
100
AcDb2dPolyline
 66
     1
 10
0.0
 20
0.0
 30
0.0
  0
VERTEX
  5
49C
330
49B
100
AcDbEntity
  8
Layer 1
370
     0
100
AcDbVertex
100
AcDb2dVertex
 10
263.3708319111539
 20
201.3272460434182
 30
0.0
  0
VERTEX
  5
49D
330
49B
100
AcDbEntity
  8
Layer 1
370
     0
100
AcDbVertex
100
AcDb2dVertex
 10
268.3706989888969
 20
171.3280435769597
 30
0.0
  0
VERTEX
  5
49E
330
49B
100
AcDbEntity
  8
Layer 1
370
     0
100
AcDbVertex
100
AcDb2dVertex
 10
258.3707925786365
 20
171.3280435769597
 30
0.0
  0
SEQEND
  5
49F
330
49B
100
AcDbEntity
  8
Layer 1
370
     0
  0
HATCH
  5
4A0
330
3C
100
AcDbEntity
  8
Layer 1
 62
     7
100
AcDbHatch
 10
0.0
 20
0.0
 30
0.0
210
0.0
220
0.0
230
1.0
  2
SOLID
 70
     1
 71
     0
 91
        1
 92
        1
 93
        3
 72
     1
 10
263.3708319111539
 20
201.3272460434182
 11
268.3706989888969
 21
171.3280435769597
 72
     1
 10
268.3706989888969
 20
171.3280435769597
 11
258.3707925786365
 21
171.3280435769597
 72
     1
 10
258.3707925786365
 20
171.3280435769597
 11
263.3708319111539
 21
201.3272460434182
 97
        0
 75
     2
 76
     1
 98
        0
  0
POLYLINE
  5
4A1
330
3C
100
AcDbEntity
  8
Layer 1
370
     0
100
AcDb2dPolyline
 66
     1
 10
0.0
 20
0.0
 30
0.0
  0
VERTEX
  5
4A2
330
4A1
100
AcDbEntity
  8
Layer 1
370
     0
100
AcDbVertex
100
AcDb2dVertex
 10
263.3708319111539
 20
377.5273436556182
 30
0.0
  0
VERTEX
  5
4A3
330
4A1
100
AcDbEntity
  8
Layer 1
370
     0
100
AcDbVertex
100
AcDb2dVertex
 10
258.3707925786365
 20
407.5272351411738
 30
0.0
  0
VERTEX
  5
4A4
330
4A1
100
AcDbEntity
  8
Layer 1
370
     0
100
AcDbVertex
100
AcDb2dVertex
 10
268.3706989888969
 20
407.5272351411738
 30
0.0
  0
SEQEND
  5
4A5
330
4A1
100
AcDbEntity
  8
Layer 1
370
     0
  0
HATCH
  5
4A6
330
3C
100
AcDbEntity
  8
Layer 1
 62
     7
100
AcDbHatch
 10
0.0
 20
0.0
 30
0.0
210
0.0
220
0.0
230
1.0
  2
SOLID
 70
     1
 71
     0
 91
        1
 92
        1
 93
        3
 72
     1
 10
263.3708319111539
 20
377.5273436556182
 11
258.3707925786365
 21
407.5272351411738
 72
     1
 10
258.3707925786365
 20
407.5272351411738
 11
268.3706989888969
 21
407.5272351411738
 72
     1
 10
268.3706989888969
 20
407.5272351411738
 11
263.3708319111539
 21
377.5273436556182
 97
        0
 75
     2
 76
     1
 98
        0
  0
POLYLINE
  5
4A7
330
3C
100
AcDbEntity
  8
Layer 1
 62
     7
370
    25
100
AcDb2dPolyline
 66
     1
 10
0.0
 20
0.0
 30
0.0
  0
VERTEX
  5
4A8
330
4A7
100
AcDbEntity
  8
Layer 1
 62
     7
370
    25
100
AcDbVertex
100
AcDb2dVertex
 10
431.0189967455439
 20
201.3272460434182
 30
0.0
  0
VERTEX
  5
4A9
330
4A7
100
AcDbEntity
  8
Layer 1
 62
     7
370
    25
100
AcDbVertex
100
AcDb2dVertex
 10
253.3705809913449
 20
201.3272460434182
 30
0.0
  0
SEQEND
  5
4AA
330
4A7
100
AcDbEntity
  8
Layer 1
370
    25
  0
POLYLINE
  5
4AB
330
3C
100
AcDbEntity
  8
Layer 1
 62
     7
370
    25
100
AcDb2dPolyline
 66
     1
 10
0.0
 20
0.0
 30
0.0
  0
VERTEX
  5
4AC
330
4AB
100
AcDbEntity
  8
Layer 1
 62
     7
370
    25
100
AcDbVertex
100
AcDb2dVertex
 10
383.6919975169242
 20
377.5273436556182
 30
0.0
  0
VERTEX
  5
4AD
330
4AB
100
AcDbEntity
  8
Layer 1
 62
     7
370
    25
100
AcDbVertex
100
AcDb2dVertex
 10
253.3705809913449
 20
377.5273436556182
 30
0.0
  0
SEQEND
  5
4AE
330
4AB
100
AcDbEntity
  8
Layer 1
370
    25
  0
POLYLINE
  5
4AF
330
3C
100
AcDbEntity
  8
Layer 1
 62
     7
370
    25
100
AcDb2dPolyline
 66
     1
 10
0.0
 20
0.0
 30
0.0
  0
VERTEX
  5
4B0
330
4AF
100
AcDbEntity
  8
Layer 1
 62
     7
370
    25
100
AcDbVertex
100
AcDb2dVertex
 10
263.3708319111539
 20
201.3272460434182
 30
0.0
  0
VERTEX
  5
4B1
330
4AF
100
AcDbEntity
  8
Layer 1
 62
     7
370
    25
100
AcDbVertex
100
AcDb2dVertex
 10
263.3708319111539
 20
141.3281520914041
 30
0.0
  0
SEQEND
  5
4B2
330
4AF
100
AcDbEntity
  8
Layer 1
370
    25
  0
POLYLINE
  5
4B3
330
3C
100
AcDbEntity
  8
Layer 1
 62
     7
370
    25
100
AcDb2dPolyline
 66
     1
 10
0.0
 20
0.0
 30
0.0
  0
VERTEX
  5
4B4
330
4B3
100
AcDbEntity
  8
Layer 1
 62
     7
370
    25
100
AcDbVertex
100
AcDb2dVertex
 10
263.3708319111539
 20
201.3272460434182
 30
0.0
  0
VERTEX
  5
4B5
330
4B3
100
AcDbEntity
  8
Layer 1
 62
     7
370
    25
100
AcDbVertex
100
AcDb2dVertex
 10
263.3708319111539
 20
377.5273436556182
 30
0.0
  0
SEQEND
  5
4B6
330
4B3
100
AcDbEntity
  8
Layer 1
370
    25
  0
POLYLINE
  5
4B7
330
3C
100
AcDbEntity
  8
Layer 1
 62
     7
370
    25
100
AcDb2dPolyline
 66
     1
 10
0.0
 20
0.0
 30
0.0
  0
VERTEX
  5
4B8
330
4B7
100
AcDbEntity
  8
Layer 1
 62
     7
370
    25
100
AcDbVertex
100
AcDb2dVertex
 10
263.3708319111539
 20
377.5273436556182
 30
0.0
  0
VERTEX
  5
4B9
330
4B7
100
AcDbEntity
  8
Layer 1
 62
     7
370
    25
100
AcDbVertex
100
AcDb2dVertex
 10
263.3708319111539
 20
437.5272988815036
 30
0.0
  0
SEQEND
  5
4BA
330
4B7
100
AcDbEntity
  8
Layer 1
370
    25
  0
POLYLINE
  5
4BB
330
3C
100
AcDbEntity
  8
Layer 1
 62
     7
370
    25
100
AcDb2dPolyline
 66
     1
 10
0.0
 20
0.0
 30
0.0
  0
VERTEX
  5
4BC
330
4BB
100
AcDbEntity
  8
Layer 1
 62
     7
370
    25
100
AcDbVertex
100
AcDb2dVertex
 10
251.1336804927722
 20
224.9054795444681
 30
0.0
  0
VERTEX
  5
4BD
330
4BB
100
AcDbEntity
  8
Layer 1
 62
     7
370
    25
100
AcDbVertex
100
AcDb2dVertex
 10
251.1336804927722
 20
235.4895018942526
 30
0.0
  0
SEQEND
  5
4BE
330
4BB
100
AcDbEntity
  8
Layer 1
370
    25
  0
POLYLINE
  5
4BF
330
3C
100
AcDbEntity
  8
Layer 1
 62
     7
370
    25
100
AcDb2dPolyline
 66
     1
 10
0.0
 20
0.0
 30
0.0
  0
VERTEX
  5
4C0
330
4BF
100
AcDbEntity
  8
Layer 1
 62
     7
370
    25
100
AcDbVertex
100
AcDb2dVertex
 10
251.1336804927722
 20
230.1971462098118
 30
0.0
  0
VERTEX
  5
4C1
330
4BF
100
AcDbEntity
  8
Layer 1
 62
     7
370
    25
100
AcDbVertex
100
AcDb2dVertex
 10
208.8003471700221
 20
230.1971462098118
 30
0.0
  0
SEQEND
  5
4C2
330
4BF
100
AcDbEntity
  8
Layer 1
370
    25
  0
POLYLINE
  5
4C3
330
3C
100
AcDbEntity
  8
Layer 1
 62
     7
370
    25
100
AcDb2dPolyline
 66
     1
 10
0.0
 20
0.0
 30
0.0
  0
VERTEX
  5
4C4
330
4C3
100
AcDbEntity
  8
Layer 1
 62
     7
370
    25
100
AcDbVertex
100
AcDb2dVertex
 10
208.8003471700221
 20
230.1971462098118
 30
0.0
  0
VERTEX
  5
4C5
330
4C3
100
AcDbEntity
  8
Layer 1
 62
     7
370
    25
100
AcDbVertex
100
AcDb2dVertex
 10
215.8555582142653
 20
224.9054795444681
 30
0.0
  0
SEQEND
  5
4C6
330
4C3
100
AcDbEntity
  8
Layer 1
370
    25
  0
POLYLINE
  5
4C7
330
3C
100
AcDbEntity
  8
Layer 1
 62
     7
370
    25
100
AcDb2dPolyline
 66
     1
 10
0.0
 20
0.0
 30
0.0
  0
VERTEX
  5
4C8
330
4C7
100
AcDbEntity
  8
Layer 1
 62
     7
370
    25
100
AcDbVertex
100
AcDb2dVertex
 10
208.8003471700221
 20
246.0728352249401
 30
0.0
  0
VERTEX
  5
4C9
330
4C7
100
AcDbEntity
  8
Layer 1
 62
     7
370
    25
100
AcDbVertex
100
AcDb2dVertex
 10
208.8003471700221
 20
267.2388128672181
 30
0.0
  0
SEQEND
  5
4CA
330
4C7
100
AcDbEntity
  8
Layer 1
370
    25
  0
POLYLINE
  5
4CB
330
3C
100
AcDbEntity
  8
Layer 1
 62
     7
370
    25
100
AcDb2dPolyline
 66
     1
 10
0.0
 20
0.0
 30
0.0
  0
VERTEX
  5
4CC
330
4CB
100
AcDbEntity
  8
Layer 1
 62
     7
370
    25
100
AcDbVertex
100
AcDb2dVertex
 10
208.8003471700221
 20
267.2388128672181
 30
0.0
  0
VERTEX
  5
4CD
330
4CB
100
AcDbEntity
  8
Layer 1
 62
     7
370
    25
100
AcDbVertex
100
AcDb2dVertex
 10
251.1336804927722
 20
251.3638128711868
 30
0.0
  0
SEQEND
  5
4CE
330
4CB
100
AcDbEntity
  8
Layer 1
370
    25
  0
POLYLINE
  5
4CF
330
3C
100
AcDbEntity
  8
Layer 1
 62
     7
370
    25
100
AcDb2dPolyline
 66
     1
 10
0.0
 20
0.0
 30
0.0
  0
VERTEX
  5
4D0
330
4CF
100
AcDbEntity
  8
Layer 1
 62
     7
370
    25
100
AcDbVertex
100
AcDb2dVertex
 10
229.9666693218486
 20
277.8221461979056
 30
0.0
  0
VERTEX
  5
4D1
330
4CF
100
AcDbEntity
  8
Layer 1
 62
     7
370
    25
100
AcDbVertex
100
AcDb2dVertex
 10
229.9666693218486
 20
293.6971461939368
 30
0.0
  0
SEQEND
  5
4D2
330
4CF
100
AcDbEntity
  8
Layer 1
370
    25
  0
POLYLINE
  5
4D3
330
3C
100
AcDbEntity
  8
Layer 1
 62
     7
370
    25
100
AcDb2dPolyline
 66
     1
 10
0.0
 20
0.0
 30
0.0
  0
VERTEX
  5
4D4
330
4D3
100
AcDbEntity
  8
Layer 1
 62
     7
370
    25
100
AcDbVertex
100
AcDb2dVertex
 10
229.9666693218486
 20
293.6971461939368
 30
0.0
  0
VERTEX
  5
4D5
330
4D3
100
AcDbEntity
  8
Layer 1
 62
     7
370
    25
100
AcDbVertex
100
AcDb2dVertex
 10
237.0225693851888
 20
298.9888128592806
 30
0.0
  0
SEQEND
  5
4D6
330
4D3
100
AcDbEntity
  8
Layer 1
370
    25
  0
POLYLINE
  5
4D7
330
3C
100
AcDbEntity
  8
Layer 1
 62
     7
370
    25
100
AcDb2dPolyline
 66
     1
 10
0.0
 20
0.0
 30
0.0
  0
VERTEX
  5
4D8
330
4D7
100
AcDbEntity
  8
Layer 1
 62
     7
370
    25
100
AcDbVertex
100
AcDb2dVertex
 10
237.0225693851888
 20
298.9888128592806
 30
0.0
  0
VERTEX
  5
4D9
330
4D7
100
AcDbEntity
  8
Layer 1
 62
     7
370
    25
100
AcDbVertex
100
AcDb2dVertex
 10
244.077780429432
 20
298.9888128592806
 30
0.0
  0
SEQEND
  5
4DA
330
4D7
100
AcDbEntity
  8
Layer 1
370
    25
  0
POLYLINE
  5
4DB
330
3C
100
AcDbEntity
  8
Layer 1
 62
     7
370
    25
100
AcDb2dPolyline
 66
     1
 10
0.0
 20
0.0
 30
0.0
  0
VERTEX
  5
4DC
330
4DB
100
AcDbEntity
  8
Layer 1
 62
     7
370
    25
100
AcDbVertex
100
AcDb2dVertex
 10
244.077780429432
 20
298.9888128592806
 30
0.0
  0
VERTEX
  5
4DD
330
4DB
100
AcDbEntity
  8
Layer 1
 62
     7
370
    25
100
AcDbVertex
100
AcDb2dVertex
 10
251.1336804927722
 20
293.6971461939368
 30
0.0
  0
SEQEND
  5
4DE
330
4DB
100
AcDbEntity
  8
Layer 1
370
    25
  0
POLYLINE
  5
4DF
330
3C
100
AcDbEntity
  8
Layer 1
 62
     7
370
    25
100
AcDb2dPolyline
 66
     1
 10
0.0
 20
0.0
 30
0.0
  0
VERTEX
  5
4E0
330
4DF
100
AcDbEntity
  8
Layer 1
 62
     7
370
    25
100
AcDbVertex
100
AcDb2dVertex
 10
251.1336804927722
 20
293.6971461939368
 30
0.0
  0
VERTEX
  5
4E1
330
4DF
100
AcDbEntity
  8
Layer 1
 62
     7
370
    25
100
AcDbVertex
100
AcDb2dVertex
 10
251.1336804927722
 20
283.1138128632493
 30
0.0
  0
SEQEND
  5
4E2
330
4DF
100
AcDbEntity
  8
Layer 1
370
    25
  0
POLYLINE
  5
4E3
330
3C
100
AcDbEntity
  8
Layer 1
 62
     7
370
    25
100
AcDb2dPolyline
 66
     1
 10
0.0
 20
0.0
 30
0.0
  0
VERTEX
  5
4E4
330
4E3
100
AcDbEntity
  8
Layer 1
 62
     7
370
    25
100
AcDbVertex
100
AcDb2dVertex
 10
251.1336804927722
 20
283.1138128632493
 30
0.0
  0
VERTEX
  5
4E5
330
4E3
100
AcDbEntity
  8
Layer 1
 62
     7
370
    25
100
AcDbVertex
100
AcDb2dVertex
 10
244.077780429432
 20
277.8221461979056
 30
0.0
  0
SEQEND
  5
4E6
330
4E3
100
AcDbEntity
  8
Layer 1
370
    25
  0
POLYLINE
  5
4E7
330
3C
100
AcDbEntity
  8
Layer 1
 62
     7
370
    25
100
AcDb2dPolyline
 66
     1
 10
0.0
 20
0.0
 30
0.0
  0
VERTEX
  5
4E8
330
4E7
100
AcDbEntity
  8
Layer 1
 62
     7
370
    25
100
AcDbVertex
100
AcDb2dVertex
 10
244.077780429432
 20
277.8221461979056
 30
0.0
  0
VERTEX
  5
4E9
330
4E7
100
AcDbEntity
  8
Layer 1
 62
     7
370
    25
100
AcDbVertex
100
AcDb2dVertex
 10
222.9114582776055
 20
277.8221461979056
 30
0.0
  0
SEQEND
  5
4EA
330
4E7
100
AcDbEntity
  8
Layer 1
370
    25
  0
POLYLINE
  5
4EB
330
3C
100
AcDbEntity
  8
Layer 1
 62
     7
370
    25
100
AcDb2dPolyline
 66
     1
 10
0.0
 20
0.0
 30
0.0
  0
VERTEX
  5
4EC
330
4EB
100
AcDbEntity
  8
Layer 1
 62
     7
370
    25
100
AcDbVertex
100
AcDb2dVertex
 10
222.9114582776055
 20
277.8221461979056
 30
0.0
  0
VERTEX
  5
4ED
330
4EB
100
AcDbEntity
  8
Layer 1
 62
     7
370
    25
100
AcDbVertex
100
AcDb2dVertex
 10
208.8003471700221
 20
288.4054795285931
 30
0.0
  0
SEQEND
  5
4EE
330
4EB
100
AcDbEntity
  8
Layer 1
370
    25
  0
POLYLINE
  5
4EF
330
3C
100
AcDbEntity
  8
Layer 1
 62
     7
370
    25
100
AcDb2dPolyline
 66
     1
 10
0.0
 20
0.0
 30
0.0
  0
VERTEX
  5
4F0
330
4EF
100
AcDbEntity
  8
Layer 1
 62
     7
370
    25
100
AcDbVertex
100
AcDb2dVertex
 10
208.8003471700221
 20
288.4054795285931
 30
0.0
  0
VERTEX
  5
4F1
330
4EF
100
AcDbEntity
  8
Layer 1
 62
     7
370
    25
100
AcDbVertex
100
AcDb2dVertex
 10
208.8003471700221
 20
293.6971461939368
 30
0.0
  0
SEQEND
  5
4F2
330
4EF
100
AcDbEntity
  8
Layer 1
370
    25
  0
ENDBLK
  5
3F
330
3C
100
AcDbEntity
  8
0
100
AcDbBlockEnd
  0
BLOCK
  5
4F6
330
4F4
100
AcDbEntity
  8
0
100
AcDbBlockBegin
  2
block 3
 70
     0
 71
     0
 10
0.0
 20
0.0
 30
0.0
  3
block 3
  1

  0
SPLINE
  5
4F8
330
4F4
100
AcDbEntity
  8
Layer 1
370
     0
100
AcDbSpline
210
0.0
220
0.0
230
1.0
 70
    11
 71
     3
 72
    38
 73
    34
 74
     0
 42
0.0000000001
 43
0.0000000001
 40
0.0
 40
0.0
 40
0.0
 40
0.0
 40
1.0
 40
1.0
 40
1.0
 40
2.0
 40
2.0
 40
2.0
 40
3.0
 40
3.0
 40
3.0
 40
4.0
 40
4.0
 40
4.0
 40
5.0
 40
5.0
 40
5.0
 40
6.0
 40
6.0
 40
6.0
 40
7.0
 40
7.0
 40
7.0
 40
8.0
 40
8.0
 40
8.0
 40
9.0
 40
9.0
 40
9.0
 40
10.0
 40
10.0
 40
10.0
 40
11.0
 40
11.0
 40
11.0
 40
11.0
 10
1110.816951219692
 20
77.62902558823164
 30
0.0
 10
1110.816951219692
 20
77.62902558823164
 30
0.0
 10
1110.785945360324
 20
77.7637288217049
 30
0.0
 10
1110.785945360324
 20
77.7637288217049
 30
0.0
 10
1111.17937526474
 20
78.50270180329099
 30
0.0
 10
1111.815339891317
 20
78.84273272768516
 30
0.0
 10
1112.621492234865
 20
78.38040091356463
 30
0.0
 10
1113.328425828439
 20
78.02107745445306
 30
0.0
 10
1114.503892408006
 20
78.80897079192971
 30
0.0
 10
1115.243898918238
 20
78.98604869987155
 30
0.0
 10
1117.930384377636
 20
79.99683971524385
 30
0.0
 10
1120.757429732831
 20
80.69378253190989
 30
0.0
 10
1123.476299089791
 20
81.65944279642542
 30
0.0
 10
1123.476299089791
 20
81.65944279642542
 30
0.0
 10
1123.640974653986
 20
81.7059515854763
 30
0.0
 10
1123.835967058451
 20
81.70664060457334
 30
0.0
 10
1124.580107683265
 20
81.71215275734974
 30
0.0
 10
1125.11134140709
 20
81.03519149449815
 30
0.0
 10
1124.462285417669
 20
80.40749509708563
 30
0.0
 10
1123.771199263328
 20
79.73983559204422
 30
0.0
 10
1121.8391897152
 20
79.07148706790575
 30
0.0
 10
1120.94690998452
 20
78.64153915134656
 30
0.0
 10
1120.94690998452
 20
78.64153915134656
 30
0.0
 10
1114.584507642361
 20
76.19793292365885
 30
0.0
 10
1114.035359422012
 20
75.95091957736643
 30
0.0
 10
1113.928561461969
 20
75.90372176921852
 30
0.0
 10
1113.838988979353
 20
75.84722220326042
 30
0.0
 10
1113.752861592222
 20
75.78383244633183
 30
0.0
 10
1113.752861592222
 20
75.78383244633183
 30
0.0
 10
1113.484144144372
 20
75.58022730315356
 30
0.0
 10
1113.484144144372
 20
75.58022730315356
 30
0.0
 10
1112.225306254062
 20
74.67451170008138
 30
0.0
 10
1111.033992235262
 20
76.65027396087216
 30
0.0
 10
1110.816951219692
 20
77.62902558823164
 30
0.0
  0
HATCH
  5
4F9
330
4F4
100
AcDbEntity
  8
Layer 1
 62
   254
100
AcDbHatch
 10
0.0
 20
0.0
 30
0.0
210
0.0
220
0.0
230
1.0
  2
SOLID
 70
     1
 71
     0
 91
        1
 92
        1
 93
        2
 72
     4
 94
        3
 73
     0
 74
     0
 95
       38
 96
       34
 40
0.0
 40
0.0
 40
0.0
 40
0.0
 40
0.3527777776895833
 40
0.3527777776895833
 40
0.3527777776895833
 40
0.7055555553791667
 40
0.7055555553791667
 40
0.7055555553791667
 40
1.05833333306875
 40
1.05833333306875
 40
1.05833333306875
 40
1.411111110758333
 40
1.411111110758333
 40
1.411111110758333
 40
1.763888888447917
 40
1.763888888447917
 40
1.763888888447917
 40
2.1166666661375
 40
2.1166666661375
 40
2.1166666661375
 40
2.469444443827083
 40
2.469444443827083
 40
2.469444443827083
 40
2.822222221516667
 40
2.822222221516667
 40
2.822222221516667
 40
3.17499999920625
 40
3.17499999920625
 40
3.17499999920625
 40
3.527777776895833
 40
3.527777776895833
 40
3.527777776895833
 40
3.880555554585417
 40
3.880555554585417
 40
3.880555554585417
 40
3.880555554585417
 10
1110.816951219692
 20
77.62902558823164
 10
1110.816951219692
 20
77.62902558823164
 10
1110.785945360324
 20
77.7637288217049
 10
1110.785945360324
 20
77.7637288217049
 10
1111.17937526474
 20
78.50270180329099
 10
1111.815339891317
 20
78.84273272768516
 10
1112.621492234865
 20
78.38040091356463
 10
1113.328425828439
 20
78.02107745445306
 10
1114.503892408006
 20
78.80897079192971
 10
1115.243898918238
 20
78.98604869987155
 10
1117.930384377636
 20
79.99683971524385
 10
1120.757429732831
 20
80.69378253190989
 10
1123.476299089791
 20
81.65944279642542
 10
1123.476299089791
 20
81.65944279642542
 10
1123.640974653986
 20
81.7059515854763
 10
1123.835967058451
 20
81.70664060457334
 10
1124.580107683265
 20
81.71215275734974
 10
1125.11134140709
 20
81.03519149449815
 10
1124.462285417669
 20
80.40749509708563
 10
1123.771199263328
 20
79.73983559204422
 10
1121.8391897152
 20
79.07148706790575
 10
1120.94690998452
 20
78.64153915134656
 10
1120.94690998452
 20
78.64153915134656
 10
1114.584507642361
 20
76.19793292365885
 10
1114.035359422012
 20
75.95091957736643
 10
1113.928561461969
 20
75.90372176921852
 10
1113.838988979353
 20
75.84722220326042
 10
1113.752861592222
 20
75.78383244633183
 10
1113.752861592222
 20
75.78383244633183
 10
1113.484144144372
 20
75.58022730315356
 10
1113.484144144372
 20
75.58022730315356
 10
1112.225306254062
 20
74.67451170008138
 10
1111.033992235262
 20
76.65027396087216
 10
1110.816951219692
 20
77.62902558823164
 72
     1
 10
1110.816951219692
 20
77.62902558823164
 11
1110.816951219692
 21
77.62902558823164
 97
        0
 75
     2
 76
     1
 98
        0
  0
SPLINE
  5
4FA
330
4F4
100
AcDbEntity
  8
Layer 1
370
     0
100
AcDbSpline
210
0.0
220
0.0
230
1.0
 70
    11
 71
     3
 72
    14
 73
    10
 74
     0
 42
0.0000000001
 43
0.0000000001
 40
0.0
 40
0.0
 40
0.0
 40
0.0
 40
1.0
 40
1.0
 40
1.0
 40
2.0
 40
2.0
 40
2.0
 40
3.0
 40
3.0
 40
3.0
 40
3.0
 10
1084.301429307918
 20
83.14910208424745
 30
0.0
 10
1084.085766330541
 20
80.21663680720279
 30
0.0
 10
1082.882049967995
 20
78.27601452036156
 30
0.0
 10
1081.44682318884
 20
75.85411239423092
 30
0.0
 10
1081.464737685363
 20
78.895787198158
 30
0.0
 10
1081.878149143593
 20
81.61741263150537
 30
0.0
 10
1083.746768934792
 20
83.59041881590795
 30
0.0
 10
1083.986547580566
 20
83.91735837745816
 30
0.0
 10
1084.362062988458
 20
83.86051430195154
 30
0.0
 10
1084.301429307918
 20
83.14910208424745
 30
0.0
  0
SPLINE
  5
4FB
330
4F4
100
AcDbEntity
  8
Layer 1
370
     0
100
AcDbSpline
210
0.0
220
0.0
230
1.0
 70
    11
 71
     3
 72
    14
 73
    10
 74
     0
 42
0.0000000001
 43
0.0000000001
 40
0.0
 40
0.0
 40
0.0
 40
0.0
 40
1.0
 40
1.0
 40
1.0
 40
2.0
 40
2.0
 40
2.0
 40
3.0
 40
3.0
 40
3.0
 40
3.0
 10
1113.53375351936
 20
70.89558646231083
 30
0.0
 10
1113.524107252001
 20
70.64926213511546
 30
0.0
 10
1112.937062981314
 20
70.00055065524292
 30
0.0
 10
1111.880796705537
 20
69.81761608497615
 30
0.0
 10
1111.687871358363
 20
71.05922849786019
 30
0.0
 10
1112.287317972796
 20
71.78442109750529
 30
0.0
 10
1112.874362243483
 20
71.78442109750529
 30
0.0
 10
1113.360120706903
 20
71.78442109750529
 30
0.0
 10
1113.560625264145
 20
71.60217554633557
 30
0.0
 10
1113.53375351936
 20
70.89558646231083
 30
0.0
  0
SPLINE
  5
4FC
330
4F4
100
AcDbEntity
  8
Layer 1
370
     0
100
AcDbSpline
210
0.0
220
0.0
230
1.0
 70
    11
 71
     3
 72
   200
 73
   196
 74
     0
 42
0.0000000001
 43
0.0000000001
 40
0.0
 40
0.0
 40
0.0
 40
0.0
 40
1.0
 40
1.0
 40
1.0
 40
2.0
 40
2.0
 40
2.0
 40
3.0
 40
3.0
 40
3.0
 40
4.0
 40
4.0
 40
4.0
 40
5.0
 40
5.0
 40
5.0
 40
6.0
 40
6.0
 40
6.0
 40
7.0
 40
7.0
 40
7.0
 40
8.0
 40
8.0
 40
8.0
 40
9.0
 40
9.0
 40
9.0
 40
10.0
 40
10.0
 40
10.0
 40
11.0
 40
11.0
 40
11.0
 40
12.0
 40
12.0
 40
12.0
 40
13.0
 40
13.0
 40
13.0
 40
14.0
 40
14.0
 40
14.0
 40
15.0
 40
15.0
 40
15.0
 40
16.0
 40
16.0
 40
16.0
 40
17.0
 40
17.0
 40
17.0
 40
18.0
 40
18.0
 40
18.0
 40
19.0
 40
19.0
 40
19.0
 40
20.0
 40
20.0
 40
20.0
 40
21.0
 40
21.0
 40
21.0
 40
22.0
 40
22.0
 40
22.0
 40
23.0
 40
23.0
 40
23.0
 40
24.0
 40
24.0
 40
24.0
 40
25.0
 40
25.0
 40
25.0
 40
26.0
 40
26.0
 40
26.0
 40
27.0
 40
27.0
 40
27.0
 40
28.0
 40
28.0
 40
28.0
 40
29.0
 40
29.0
 40
29.0
 40
30.0
 40
30.0
 40
30.0
 40
31.0
 40
31.0
 40
31.0
 40
32.0
 40
32.0
 40
32.0
 40
33.0
 40
33.0
 40
33.0
 40
34.0
 40
34.0
 40
34.0
 40
35.0
 40
35.0
 40
35.0
 40
36.0
 40
36.0
 40
36.0
 40
37.0
 40
37.0
 40
37.0
 40
38.0
 40
38.0
 40
38.0
 40
39.0
 40
39.0
 40
39.0
 40
40.0
 40
40.0
 40
40.0
 40
41.0
 40
41.0
 40
41.0
 40
42.0
 40
42.0
 40
42.0
 40
43.0
 40
43.0
 40
43.0
 40
44.0
 40
44.0
 40
44.0
 40
45.0
 40
45.0
 40
45.0
 40
46.0
 40
46.0
 40
46.0
 40
47.0
 40
47.0
 40
47.0
 40
48.0
 40
48.0
 40
48.0
 40
49.0
 40
49.0
 40
49.0
 40
50.0
 40
50.0
 40
50.0
 40
51.0
 40
51.0
 40
51.0
 40
52.0
 40
52.0
 40
52.0
 40
53.0
 40
53.0
 40
53.0
 40
54.0
 40
54.0
 40
54.0
 40
55.0
 40
55.0
 40
55.0
 40
56.0
 40
56.0
 40
56.0
 40
57.0
 40
57.0
 40
57.0
 40
58.0
 40
58.0
 40
58.0
 40
59.0
 40
59.0
 40
59.0
 40
60.0
 40
60.0
 40
60.0
 40
61.0
 40
61.0
 40
61.0
 40
62.0
 40
62.0
 40
62.0
 40
63.0
 40
63.0
 40
63.0
 40
64.0
 40
64.0
 40
64.0
 40
65.0
 40
65.0
 40
65.0
 40
65.0
 10
1121.330693621577
 20
68.31073131972788
 30
0.0
 10
1121.330693621577
 20
68.31073131972788
 30
0.0
 10
1121.559447961798
 20
67.35575085121663
 30
0.0
 10
1121.559447961798
 20
67.35575085121663
 30
0.0
 10
1121.685538456558
 20
66.8603461204377
 30
0.0
 10
1121.830921486035
 20
66.40008136360832
 30
0.0
 10
1122.074145227294
 20
65.94705130729797
 30
0.0
 10
1123.617548004686
 20
63.88171656389068
 30
0.0
 10
1127.557359201618
 20
64.11839462372735
 30
0.0
 10
1129.576185155974
 20
64.74436847339724
 30
0.0
 10
1130.694463150486
 20
65.09197860785895
 30
0.0
 10
1131.768643922787
 20
65.6662760252501
 30
0.0
 10
1132.775989842674
 20
66.26503362058652
 30
0.0
 10
1135.343964017379
 20
64.5769368328141
 30
0.0
 10
1138.587176907193
 20
64.05466035725023
 30
0.0
 10
1141.836590968881
 20
64.0419135039548
 30
0.0
 10
1145.157663016662
 20
64.0295111602079
 30
0.0
 10
1148.548325993245
 20
64.5521321453203
 30
0.0
 10
1151.335408240812
 20
64.95796439348274
 30
0.0
 10
1154.299568396321
 20
65.14813366426853
 30
0.0
 10
1156.662903899202
 20
66.54580890263438
 30
0.0
 10
1159.781404332451
 20
65.87504881165624
 30
0.0
 10
1160.453886971171
 20
66.09966903729453
 30
0.0
 10
1160.983742656803
 20
66.44280054762541
 30
0.0
 10
1160.934133281815
 20
67.27892522189555
 30
0.0
 10
1160.632342917307
 20
68.01893173212721
 30
0.0
 10
1160.214108325398
 20
68.53604056446322
 30
0.0
 10
1159.34249916763
 20
68.60528698371674
 30
0.0
 10
1157.872132414525
 20
67.97276745262486
 30
0.0
 10
1156.212285409732
 20
68.16018064702246
 30
0.0
 10
1154.677150861504
 20
67.78328720093613
 30
0.0
 10
1150.77523571491
 20
66.87378199283017
 30
0.0
 10
1146.621139578796
 20
66.51687010055828
 30
0.0
 10
1142.2059052049
 20
66.27778047388195
 30
0.0
 10
1139.46843233232
 20
66.30086261363311
 30
0.0
 10
1136.008178426936
 20
66.34323728810169
 30
0.0
 10
1134.099595528107
 20
68.65041773457351
 30
0.0
 10
1133.88875568441
 20
69.34563800349693
 30
0.0
 10
1134.459263496767
 20
70.26857908399536
 30
0.0
 10
1134.231887194741
 20
71.25697697871354
 30
0.0
 10
1133.875664321566
 20
71.94668509486056
 30
0.0
 10
1133.292065146365
 20
72.40316024665616
 30
0.0
 10
1132.443882637896
 20
72.17922904011492
 30
0.0
 10
1131.280818402076
 20
71.33897025126248
 30
0.0
 10
1131.296665841308
 20
69.95231931844943
 30
0.0
 10
1131.400707724962
 20
68.6917588803965
 30
0.0
 10
1129.726391319131
 20
66.52789440611109
 30
0.0
 10
1125.87270750933
 20
65.62459036987858
 30
0.0
 10
1124.222506771896
 20
67.30235187119524
 30
0.0
 10
1124.136379384764
 20
67.59897459247526
 30
0.0
 10
1123.971014801473
 20
68.18119572948248
 30
0.0
 10
1124.139135461153
 20
68.60942109829904
 30
0.0
 10
1124.154293881288
 20
68.66109753057779
 30
0.0
 10
1124.17014132052
 20
68.71725258698736
 30
0.0
 10
1124.177720530588
 20
68.78098685346448
 30
0.0
 10
1124.263847917719
 20
69.43107637153112
 30
0.0
 10
1124.050251997633
 20
69.91821287314545
 30
0.0
 10
1123.455628516879
 20
70.12939722639126
 30
0.0
 10
1122.32494817862
 20
70.54453123236387
 30
0.0
 10
1122.391783031034
 20
71.05199379734117
 30
0.0
 10
1121.591142840262
 20
71.75858288136591
 30
0.0
 10
1120.767765019287
 20
72.5168483976694
 30
0.0
 10
1119.808650436194
 20
72.15166827623293
 30
0.0
 10
1119.236764585642
 20
71.39202472173532
 30
0.0
 10
1119.096204689844
 20
69.35804034724383
 30
0.0
 10
1117.659599872495
 20
67.69095864193143
 30
0.0
 10
1116.079679082959
 20
66.5957627871705
 30
0.0
 10
1115.070266105781
 20
66.24677461451469
 30
0.0
 10
1113.805227043597
 20
66.36218531327057
 30
0.0
 10
1112.979093146234
 20
66.92270234872072
 30
0.0
 10
1112.704863545609
 20
67.11218260040945
 30
0.0
 10
1112.608400872022
 20
67.32164440591265
 30
0.0
 10
1112.602888719245
 20
67.46943900222986
 30
0.0
 10
1113.920293232805
 20
67.84013127644275
 30
0.0
 10
1115.101271965148
 20
68.73585610260771
 30
0.0
 10
1115.77582166116
 20
69.96644420993894
 30
0.0
 10
1116.574394794641
 20
72.10929360176435
 30
0.0
 10
1115.025479864473
 20
74.39649249442171
 30
0.0
 10
1112.644918884165
 20
74.06438528964362
 30
0.0
 10
1110.449704040964
 20
73.75708277235934
 30
0.0
 10
1109.367255039499
 20
72.20747882309396
 30
0.0
 10
1109.471296923153
 20
69.53718531247682
 30
0.0
 10
1108.264135465122
 20
69.58748370656147
 30
0.0
 10
1107.182375482753
 20
69.9891818401416
 30
0.0
 10
1106.060652392756
 20
70.44048934870932
 30
0.0
 10
1105.098781733274
 20
70.82909611944551
 30
0.0
 10
1104.926526959011
 20
71.7320556461295
 30
0.0
 10
1103.525751134709
 20
71.47057289879902
 30
0.0
 10
1102.424009598526
 20
70.30544160568753
 30
0.0
 10
1103.196400006319
 20
69.53994138886502
 30
0.0
 10
1103.918492020027
 20
68.61975638475478
 30
0.0
 10
1104.64196207193
 20
67.70198294748423
 30
0.0
 10
1104.608889155272
 20
66.3253227915784
 30
0.0
 10
1103.463050396877
 20
65.67488876396322
 30
0.0
 10
1101.82042886951
 20
65.28559297413
 30
0.0
 10
1100.446524789993
 20
66.72357582967328
 30
0.0
 10
1099.44744709927
 20
67.78948837280957
 30
0.0
 10
1099.460538462114
 20
68.42510848983817
 30
0.0
 10
1099.479141977734
 20
69.65879718310613
 30
0.0
 10
1099.315844451733
 20
70.20243325067857
 30
0.0
 10
1098.990627437926
 20
71.29349499085718
 30
0.0
 10
1098.285760901644
 20
72.23021645329662
 30
0.0
 10
1096.991783037384
 20
71.79785696989777
 30
0.0
 10
1096.183563636544
 20
70.7229871784998
 30
0.0
 10
1096.49293321112
 20
69.43555499566195
 30
0.0
 10
1096.935972490523
 20
68.33898110270692
 30
0.0
 10
1096.574237464572
 20
67.21587997451547
 30
0.0
 10
1096.039558645261
 20
66.12068411975456
 30
0.0
 10
1094.990871579551
 20
65.56395668933818
 30
0.0
 10
1093.77199679687
 20
65.27353513993162
 30
0.0
 10
1091.649817977956
 20
65.56499021798376
 30
0.0
 10
1090.772007648314
 20
67.74091252646755
 30
0.0
 10
1090.822306042399
 20
68.02995603768001
 30
0.0
 10
1090.955975747226
 20
68.85230033000914
 30
0.0
 10
1090.957353785421
 20
69.69049206157044
 30
0.0
 10
1090.958731823614
 20
70.20794540345496
 30
0.0
 10
1090.910500486821
 20
70.76777341980807
 30
0.0
 10
1090.743757865335
 20
71.22424857160367
 30
0.0
 10
1090.198054740471
 20
72.70736217800372
 30
0.0
 10
1087.973901095194
 20
72.6918592483201
 30
0.0
 10
1087.975279133388
 20
70.14111055104111
 30
0.0
 10
1087.975279133388
 20
69.53098414060337
 30
0.0
 10
1088.066229654199
 20
68.91913518242299
 30
0.0
 10
1088.208856607288
 20
68.32795679715413
 30
0.0
 10
1087.324156086676
 20
66.51066892868484
 30
0.0
 10
1085.503078613173
 20
66.14583331679688
 30
0.0
 10
1084.224259169048
 20
66.39043509624962
 30
0.0
 10
1082.346682129587
 20
67.34851615069759
 30
0.0
 10
1081.740345324183
 20
69.39111326390223
 30
0.0
 10
1081.475072971819
 20
71.49399954809873
 30
0.0
 10
1082.818660211066
 20
73.34608288096904
 30
0.0
 10
1083.951407606616
 20
74.96872285452172
 30
0.0
 10
1085.123429090698
 20
77.22284883052068
 30
0.0
 10
1086.46839436814
 20
79.72157658597239
 30
0.0
 10
1086.98929280551
 20
80.74339190689749
 30
0.0
 10
1087.094023708261
 20
83.82365178025937
 30
0.0
 10
1086.772940809036
 20
87.61876896681059
 30
0.0
 10
1082.104836426523
 20
86.534941927151
 30
0.0
 10
1081.109203831285
 20
84.52369518286214
 30
0.0
 10
1078.731398927366
 20
80.79851343466149
 30
0.0
 10
1078.321432564621
 20
75.79210067549643
 30
0.0
 10
1078.740356175628
 20
71.55497773818765
 30
0.0
 10
1078.273890246925
 20
70.67854544674009
 30
0.0
 10
1077.570401748837
 20
70.00537378892227
 30
0.0
 10
1076.877248537204
 20
69.31222057729
 30
0.0
 10
1076.237838815142
 20
68.76169431874708
 30
0.0
 10
1075.714184301384
 20
68.61286619378428
 30
0.0
 10
1075.340735950783
 20
67.75848251344233
 30
0.0
 10
1075.526771106986
 20
67.41362845536882
 30
0.0
 10
1075.581203615653
 20
67.35885143715335
 30
0.0
 10
1076.022864856862
 20
67.09254555614353
 30
0.0
 10
1077.382988554439
 20
66.67534449287977
 30
0.0
 10
1078.191896974376
 20
67.50423446663089
 30
0.0
 10
1079.058682998465
 20
68.33519149767315
 30
0.0
 10
1079.058682998465
 20
68.33519149767315
 30
0.0
 10
1079.436265463648
 20
68.68659123716863
 30
0.0
 10
1079.436265463648
 20
68.68659123716863
 30
0.0
 10
1080.33267930891
 20
66.81004772635305
 30
0.0
 10
1081.701760254748
 20
64.65651853852337
 30
0.0
 10
1083.907999403502
 20
64.04294703260038
 30
0.0
 10
1085.186818847627
 20
63.82831758386931
 30
0.0
 10
1086.735733777795
 20
63.83658581303391
 30
0.0
 10
1087.893974879936
 20
64.56005586493637
 30
0.0
 10
1087.893974879936
 20
64.56005586493637
 30
0.0
 10
1089.599986164232
 20
65.65559622924583
 30
0.0
 10
1089.599986164232
 20
65.65559622924583
 30
0.0
 10
1090.840909558019
 20
64.1921196671117
 30
0.0
 10
1092.451836206922
 20
63.0159640684474
 30
0.0
 10
1094.578149140418
 20
63.21612411614041
 30
0.0
 10
1095.980303002915
 20
63.27675779668081
 30
0.0
 10
1097.089623749165
 20
64.27549097785474
 30
0.0
 10
1097.98534857533
 20
65.24562986650109
 30
0.0
 10
1097.98534857533
 20
65.24562986650109
 30
0.0
 10
1098.500045840826
 20
65.8206163029893
 30
0.0
 10
1098.500045840826
 20
65.8206163029893
 30
0.0
 10
1099.880151092218
 20
64.36919757505353
 30
0.0
 10
1101.487632645635
 20
63.01630857799593
 30
0.0
 10
1103.892998313436
 20
63.46175942423873
 30
0.0
 10
1105.367499181124
 20
63.65227320457305
 30
0.0
 10
1106.152291932663
 20
64.46634926773758
 30
0.0
 10
1106.728311897797
 20
65.75653752696364
 30
0.0
 10
1106.999785422035
 20
66.38802352940994
 30
0.0
 10
1106.921237244971
 20
67.07669811691139
 30
0.0
 10
1106.853024354363
 20
67.73574488323968
 30
0.0
 10
1107.855547140571
 20
67.47736272184594
 30
0.0
 10
1108.895276958019
 20
67.26342229221193
 30
0.0
 10
1109.930872660885
 20
67.22414820368007
 30
0.0
 10
1110.285028476769
 20
66.30844182370068
 30
0.0
 10
1110.911346835987
 20
65.24494084740405
 30
0.0
 10
1111.834632426034
 20
64.81947155497569
 30
0.0
 10
1113.833476826576
 20
63.89859753176841
 30
0.0
 10
1113.946475958493
 20
64.0501817331194
 30
0.0
 10
1115.826120055245
 20
64.14974499264312
 30
0.0
 10
1118.225284551173
 20
64.59519583888593
 30
0.0
 10
1119.987795401427
 20
66.46898327331331
 30
0.0
 10
1121.330693621577
 20
68.31073131972788
 30
0.0
  0
SPLINE
  5
4FD
330
4F4
100
AcDbEntity
  8
Layer 1
370
     0
100
AcDbSpline
210
0.0
220
0.0
230
1.0
 70
    11
 71
     3
 72
    53
 73
    49
 74
     0
 42
0.0000000001
 43
0.0000000001
 40
0.0
 40
0.0
 40
0.0
 40
0.0
 40
1.0
 40
1.0
 40
1.0
 40
2.0
 40
2.0
 40
2.0
 40
3.0
 40
3.0
 40
3.0
 40
4.0
 40
4.0
 40
4.0
 40
5.0
 40
5.0
 40
5.0
 40
6.0
 40
6.0
 40
6.0
 40
7.0
 40
7.0
 40
7.0
 40
8.0
 40
8.0
 40
8.0
 40
9.0
 40
9.0
 40
9.0
 40
10.0
 40
10.0
 40
10.0
 40
11.0
 40
11.0
 40
11.0
 40
12.0
 40
12.0
 40
12.0
 40
13.0
 40
13.0
 40
13.0
 40
14.0
 40
14.0
 40
14.0
 40
15.0
 40
15.0
 40
15.0
 40
16.0
 40
16.0
 40
16.0
 40
16.0
 10
1062.758558219553
 20
81.67632376430315
 30
0.0
 10
1062.758558219553
 20
81.67632376430315
 30
0.0
 10
1062.249373106833
 20
82.14726831713679
 30
0.0
 10
1062.249373106833
 20
82.14726831713679
 30
0.0
 10
1062.249373106833
 20
82.14726831713679
 30
0.0
 10
1062.739954703933
 20
82.38429088652198
 30
0.0
 10
1062.739954703933
 20
82.38429088652198
 30
0.0
 10
1063.510967073532
 20
82.63164874236293
 30
0.0
 10
1064.347436257351
 20
82.6933159515489
 30
0.0
 10
1064.739488123572
 20
81.79828014448098
 30
0.0
 10
1064.835261778062
 20
81.01314288339255
 30
0.0
 10
1064.507977706963
 20
80.53909774462217
 30
0.0
 10
1063.951939295644
 20
80.0498941857167
 30
0.0
 10
1062.755113124068
 20
79.9410291683828
 30
0.0
 10
1061.953094895102
 20
78.83825410355433
 30
0.0
 10
1061.21308838487
 20
78.0117756966429
 30
0.0
 10
1060.359393723626
 20
75.99949542370847
 30
0.0
 10
1061.062193202617
 20
73.58172741216012
 30
0.0
 10
1061.480427794526
 20
71.55497773818765
 30
0.0
 10
1061.480427794526
 20
71.55497773818765
 30
0.0
 10
1061.736053879531
 20
71.30624184415261
 30
0.0
 10
1061.736053879531
 20
71.30624184415261
 30
0.0
 10
1062.197007655458
 20
70.84976669235701
 30
0.0
 10
1062.571834044253
 20
70.36400822893678
 30
0.0
 10
1062.538761127595
 20
69.66706541227073
 30
0.0
 10
1062.099855962774
 20
68.48712020857266
 30
0.0
 10
1059.757880051901
 20
67.91316730073004
 30
0.0
 10
1059.508455138769
 20
69.79694551206465
 30
0.0
 10
1059.084708394083
 20
70.54453123236387
 30
0.0
 10
1058.914520677112
 20
71.08713377129072
 30
0.0
 10
1058.805655659778
 20
71.64076061577038
 30
0.0
 10
1058.805655659778
 20
71.64076061577038
 30
0.0
 10
1058.729174540005
 20
72.07759872330004
 30
0.0
 10
1058.729174540005
 20
72.07759872330004
 30
0.0
 10
1058.585169548722
 20
70.9861924735729
 30
0.0
 10
1058.760180399373
 20
69.71529674906424
 30
0.0
 10
1058.942770460091
 20
68.64283852450596
 30
0.0
 10
1059.31897488708
 20
67.22277016548598
 30
0.0
 10
1060.298760043085
 20
66.13825410672933
 30
0.0
 10
1061.702980962873
 20
65.56809080392048
 30
0.0
 10
1064.921389165193
 20
64.80500215393764
 30
0.0
 10
1067.576179746127
 20
67.00366209262408
 30
0.0
 10
1069.412415639765
 20
69.3825005251891
 30
0.0
 10
1072.304228790084
 20
73.51213648335808
 30
0.0
 10
1074.872202964789
 20
78.68977048814006
 30
0.0
 10
1072.535739206693
 20
83.69239364227136
 30
0.0
 10
1069.747278920931
 20
87.18158634973238
 30
0.0
 10
1064.277156309452
 20
85.56101343347086
 30
0.0
 10
1062.758558219553
 20
81.67632376430315
 30
0.0
  0
SPLINE
  5
4FE
330
4F4
100
AcDbEntity
  8
Layer 1
370
     0
100
AcDbSpline
210
0.0
220
0.0
230
1.0
 70
    11
 71
     3
 72
    23
 73
    19
 74
     0
 42
0.0000000001
 43
0.0000000001
 40
0.0
 40
0.0
 40
0.0
 40
0.0
 40
1.0
 40
1.0
 40
1.0
 40
2.0
 40
2.0
 40
2.0
 40
3.0
 40
3.0
 40
3.0
 40
4.0
 40
4.0
 40
4.0
 40
5.0
 40
5.0
 40
5.0
 40
6.0
 40
6.0
 40
6.0
 40
6.0
 10
1071.418150231277
 20
67.67580022179634
 30
0.0
 10
1069.153344459274
 20
64.6003634821138
 30
0.0
 10
1065.463647194572
 20
62.55087617793868
 30
0.0
 10
1061.514878749378
 20
63.106914589258
 30
0.0
 10
1058.731241597297
 20
63.84829913768376
 30
0.0
 10
1056.929456658511
 20
66.55269909360489
 30
0.0
 10
1056.469191901681
 20
69.21231280821776
 30
0.0
 10
1055.908330356683
 20
72.68910317193189
 30
0.0
 10
1056.850908481447
 20
75.85549043242501
 30
0.0
 10
1058.687144375085
 20
78.47272947256933
 30
0.0
 10
1059.237670633628
 20
82.27439234054252
 30
0.0
 10
1061.399812560171
 20
85.92516002626176
 30
0.0
 10
1065.172881135617
 20
87.60326603712697
 30
0.0
 10
1067.525192332945
 20
88.4614393225027
 30
0.0
 10
1072.792054310795
 20
88.8393662972346
 30
0.0
 10
1074.576613772155
 20
84.98189288240036
 30
0.0
 10
1077.816381566483
 20
79.00706378233157
 30
0.0
 10
1074.567656523893
 20
72.44691295931884
 30
0.0
 10
1071.418150231277
 20
67.67580022179634
 30
0.0
  0
SPLINE
  5
4FF
330
4F4
100
AcDbEntity
  8
Layer 1
370
     0
100
AcDbSpline
210
0.0
220
0.0
230
1.0
 70
    11
 71
     3
 72
    17
 73
    13
 74
     0
 42
0.0000000001
 43
0.0000000001
 40
0.0
 40
0.0
 40
0.0
 40
0.0
 40
1.0
 40
1.0
 40
1.0
 40
2.0
 40
2.0
 40
2.0
 40
3.0
 40
3.0
 40
3.0
 40
4.0
 40
4.0
 40
4.0
 40
4.0
 10
1134.001065797229
 20
74.71585284590438
 30
0.0
 10
1134.154028036774
 20
75.1809407364131
 30
0.0
 10
1134.104418661786
 20
75.8000243951125
 30
0.0
 10
1133.826054946578
 20
76.22824976392906
 30
0.0
 10
1133.223852255757
 20
76.98617077068401
 30
0.0
 10
1132.063544096324
 20
77.52463919502857
 30
0.0
 10
1131.343519139907
 20
76.53141816663104
 30
0.0
 10
1130.981095094859
 20
75.64499509827625
 30
0.0
 10
1131.252568619097
 20
74.76270614450377
 30
0.0
 10
1131.964325346349
 20
74.15430228180865
 30
0.0
 10
1132.72086831491
 20
73.9730902592845
 30
0.0
 10
1133.58283120532
 20
73.79187823676037
 30
0.0
 10
1134.001065797229
 20
74.71585284590438
 30
0.0
  0
SPLINE
  5
500
330
4F4
100
AcDbEntity
  8
Layer 1
370
     0
100
AcDbSpline
210
0.0
220
0.0
230
1.0
 70
    11
 71
     3
 72
    17
 73
    13
 74
     0
 42
0.0000000001
 43
0.0000000001
 40
0.0
 40
0.0
 40
0.0
 40
0.0
 40
1.0
 40
1.0
 40
1.0
 40
2.0
 40
2.0
 40
2.0
 40
3.0
 40
3.0
 40
3.0
 40
4.0
 40
4.0
 40
4.0
 40
4.0
 10
1090.562545842811
 20
76.13557669537583
 30
0.0
 10
1090.173250052978
 20
75.57747122676535
 30
0.0
 10
1089.212068412593
 20
75.57609318857126
 30
0.0
 10
1088.71528564362
 20
75.77900931265248
 30
0.0
 10
1087.996638725397
 20
76.07218693844723
 30
0.0
 10
1087.31382080022
 20
77.02027721598799
 30
0.0
 10
1087.840231390366
 20
77.93701712461298
 30
0.0
 10
1088.42796468015
 20
78.96021048373217
 30
0.0
 10
1089.647528481928
 20
78.67909069213579
 30
0.0
 10
1090.277291936632
 20
78.16611597438208
 30
0.0
 10
1090.672099879242
 20
77.8450330751568
 30
0.0
 10
1091.08826741386
 20
76.88729653025734
 30
0.0
 10
1090.562545842811
 20
76.13557669537583
 30
0.0
  0
HATCH
  5
501
330
4F4
100
AcDbEntity
  8
Layer 1
 62
   152
100
AcDbHatch
 10
0.0
 20
0.0
 30
0.0
210
0.0
220
0.0
230
1.0
  2
SOLID
 70
     1
 71
     0
 91
        7
 92
        1
 93
        2
 72
     4
 94
        3
 73
     0
 74
     0
 95
       14
 96
       10
 40
0.0
 40
0.0
 40
0.0
 40
0.0
 40
0.3527777776895833
 40
0.3527777776895833
 40
0.3527777776895833
 40
0.7055555553791667
 40
0.7055555553791667
 40
0.7055555553791667
 40
1.05833333306875
 40
1.05833333306875
 40
1.05833333306875
 40
1.05833333306875
 10
1084.301429307918
 20
83.14910208424745
 10
1084.085766330541
 20
80.21663680720279
 10
1082.882049967995
 20
78.27601452036156
 10
1081.44682318884
 20
75.85411239423092
 10
1081.464737685363
 20
78.895787198158
 10
1081.878149143593
 20
81.61741263150537
 10
1083.746768934792
 20
83.59041881590795
 10
1083.986547580566
 20
83.91735837745816
 10
1084.362062988458
 20
83.86051430195154
 10
1084.301429307918
 20
83.14910208424745
 72
     1
 10
1084.301429307918
 20
83.14910208424745
 11
1084.301429307918
 21
83.14910208424745
 97
        0
 92
        1
 93
        2
 72
     4
 94
        3
 73
     0
 74
     0
 95
       14
 96
       10
 40
0.0
 40
0.0
 40
0.0
 40
0.0
 40
0.3527777776895833
 40
0.3527777776895833
 40
0.3527777776895833
 40
0.7055555553791667
 40
0.7055555553791667
 40
0.7055555553791667
 40
1.05833333306875
 40
1.05833333306875
 40
1.05833333306875
 40
1.05833333306875
 10
1113.53375351936
 20
70.89558646231083
 10
1113.524107252001
 20
70.64926213511546
 10
1112.937062981314
 20
70.00055065524292
 10
1111.880796705537
 20
69.81761608497615
 10
1111.687871358363
 20
71.05922849786019
 10
1112.287317972796
 20
71.78442109750529
 10
1112.874362243483
 20
71.78442109750529
 10
1113.360120706903
 20
71.78442109750529
 10
1113.560625264145
 20
71.60217554633557
 10
1113.53375351936
 20
70.89558646231083
 72
     1
 10
1113.53375351936
 20
70.89558646231083
 11
1113.53375351936
 21
70.89558646231083
 97
        0
 92
        1
 93
        2
 72
     4
 94
        3
 73
     0
 74
     0
 95
      200
 96
      196
 40
0.0
 40
0.0
 40
0.0
 40
0.0
 40
0.3527777776895833
 40
0.3527777776895833
 40
0.3527777776895833
 40
0.7055555553791667
 40
0.7055555553791667
 40
0.7055555553791667
 40
1.05833333306875
 40
1.05833333306875
 40
1.05833333306875
 40
1.411111110758333
 40
1.411111110758333
 40
1.411111110758333
 40
1.763888888447917
 40
1.763888888447917
 40
1.763888888447917
 40
2.1166666661375
 40
2.1166666661375
 40
2.1166666661375
 40
2.469444443827083
 40
2.469444443827083
 40
2.469444443827083
 40
2.822222221516667
 40
2.822222221516667
 40
2.822222221516667
 40
3.17499999920625
 40
3.17499999920625
 40
3.17499999920625
 40
3.527777776895833
 40
3.527777776895833
 40
3.527777776895833
 40
3.880555554585417
 40
3.880555554585417
 40
3.880555554585417
 40
4.233333332275
 40
4.233333332275
 40
4.233333332275
 40
4.586111109964584
 40
4.586111109964584
 40
4.586111109964584
 40
4.938888887654167
 40
4.938888887654167
 40
4.938888887654167
 40
5.29166666534375
 40
5.29166666534375
 40
5.29166666534375
 40
5.644444443033334
 40
5.644444443033334
 40
5.644444443033334
 40
5.997222220722917
 40
5.997222220722917
 40
5.997222220722917
 40
6.349999998412501
 40
6.349999998412501
 40
6.349999998412501
 40
6.702777776102083
 40
6.702777776102083
 40
6.702777776102083
 40
7.055555553791667
 40
7.055555553791667
 40
7.055555553791667
 40
7.40833333148125
 40
7.40833333148125
 40
7.40833333148125
 40
7.761111109170834
 40
7.761111109170834
 40
7.761111109170834
 40
8.113888886860417
 40
8.113888886860417
 40
8.113888886860417
 40
8.46666666455
 40
8.46666666455
 40
8.46666666455
 40
8.819444442239584
 40
8.819444442239584
 40
8.819444442239584
 40
9.172222219929168
 40
9.172222219929168
 40
9.172222219929168
 40
9.52499999761875
 40
9.52499999761875
 40
9.52499999761875
 40
9.877777775308333
 40
9.877777775308333
 40
9.877777775308333
 40
10.23055555299792
 40
10.23055555299792
 40
10.23055555299792
 40
10.5833333306875
 40
10.5833333306875
 40
10.5833333306875
 40
10.93611110837708
 40
10.93611110837708
 40
10.93611110837708
 40
11.28888888606667
 40
11.28888888606667
 40
11.28888888606667
 40
11.64166666375625
 40
11.64166666375625
 40
11.64166666375625
 40
11.99444444144583
 40
11.99444444144583
 40
11.99444444144583
 40
12.34722221913542
 40
12.34722221913542
 40
12.34722221913542
 40
12.699999996825
 40
12.699999996825
 40
12.699999996825
 40
13.05277777451458
 40
13.05277777451458
 40
13.05277777451458
 40
13.40555555220417
 40
13.40555555220417
 40
13.40555555220417
 40
13.75833332989375
 40
13.75833332989375
 40
13.75833332989375
 40
14.11111110758333
 40
14.11111110758333
 40
14.11111110758333
 40
14.46388888527292
 40
14.46388888527292
 40
14.46388888527292
 40
14.8166666629625
 40
14.8166666629625
 40
14.8166666629625
 40
15.16944444065208
 40
15.16944444065208
 40
15.16944444065208
 40
15.52222221834167
 40
15.52222221834167
 40
15.52222221834167
 40
15.87499999603125
 40
15.87499999603125
 40
15.87499999603125
 40
16.22777777372083
 40
16.22777777372083
 40
16.22777777372083
 40
16.58055555141042
 40
16.58055555141042
 40
16.58055555141042
 40
16.9333333291
 40
16.9333333291
 40
16.9333333291
 40
17.28611110678958
 40
17.28611110678958
 40
17.28611110678958
 40
17.63888888447917
 40
17.63888888447917
 40
17.63888888447917
 40
17.99166666216875
 40
17.99166666216875
 40
17.99166666216875
 40
18.34444443985834
 40
18.34444443985834
 40
18.34444443985834
 40
18.69722221754792
 40
18.69722221754792
 40
18.69722221754792
 40
19.0499999952375
 40
19.0499999952375
 40
19.0499999952375
 40
19.40277777292708
 40
19.40277777292708
 40
19.40277777292708
 40
19.75555555061667
 40
19.75555555061667
 40
19.75555555061667
 40
20.10833332830625
 40
20.10833332830625
 40
20.10833332830625
 40
20.46111110599583
 40
20.46111110599583
 40
20.46111110599583
 40
20.81388888368542
 40
20.81388888368542
 40
20.81388888368542
 40
21.166666661375
 40
21.166666661375
 40
21.166666661375
 40
21.51944443906459
 40
21.51944443906459
 40
21.51944443906459
 40
21.87222221675417
 40
21.87222221675417
 40
21.87222221675417
 40
22.22499999444375
 40
22.22499999444375
 40
22.22499999444375
 40
22.57777777213333
 40
22.57777777213333
 40
22.57777777213333
 40
22.93055554982292
 40
22.93055554982292
 40
22.93055554982292
 40
22.93055554982292
 10
1121.330693621577
 20
68.31073131972788
 10
1121.330693621577
 20
68.31073131972788
 10
1121.559447961798
 20
67.35575085121663
 10
1121.559447961798
 20
67.35575085121663
 10
1121.685538456558
 20
66.8603461204377
 10
1121.830921486035
 20
66.40008136360832
 10
1122.074145227294
 20
65.94705130729797
 10
1123.617548004686
 20
63.88171656389068
 10
1127.557359201618
 20
64.11839462372735
 10
1129.576185155974
 20
64.74436847339724
 10
1130.694463150486
 20
65.09197860785895
 10
1131.768643922787
 20
65.6662760252501
 10
1132.775989842674
 20
66.26503362058652
 10
1135.343964017379
 20
64.5769368328141
 10
1138.587176907193
 20
64.05466035725023
 10
1141.836590968881
 20
64.0419135039548
 10
1145.157663016662
 20
64.0295111602079
 10
1148.548325993245
 20
64.5521321453203
 10
1151.335408240812
 20
64.95796439348274
 10
1154.299568396321
 20
65.14813366426853
 10
1156.662903899202
 20
66.54580890263438
 10
1159.781404332451
 20
65.87504881165624
 10
1160.453886971171
 20
66.09966903729453
 10
1160.983742656803
 20
66.44280054762541
 10
1160.934133281815
 20
67.27892522189555
 10
1160.632342917307
 20
68.01893173212721
 10
1160.214108325398
 20
68.53604056446322
 10
1159.34249916763
 20
68.60528698371674
 10
1157.872132414525
 20
67.97276745262486
 10
1156.212285409732
 20
68.16018064702246
 10
1154.677150861504
 20
67.78328720093613
 10
1150.77523571491
 20
66.87378199283017
 10
1146.621139578796
 20
66.51687010055828
 10
1142.2059052049
 20
66.27778047388195
 10
1139.46843233232
 20
66.30086261363311
 10
1136.008178426936
 20
66.34323728810169
 10
1134.099595528107
 20
68.65041773457351
 10
1133.88875568441
 20
69.34563800349693
 10
1134.459263496767
 20
70.26857908399536
 10
1134.231887194741
 20
71.25697697871354
 10
1133.875664321566
 20
71.94668509486056
 10
1133.292065146365
 20
72.40316024665616
 10
1132.443882637896
 20
72.17922904011492
 10
1131.280818402076
 20
71.33897025126248
 10
1131.296665841308
 20
69.95231931844943
 10
1131.400707724962
 20
68.6917588803965
 10
1129.726391319131
 20
66.52789440611109
 10
1125.87270750933
 20
65.62459036987858
 10
1124.222506771896
 20
67.30235187119524
 10
1124.136379384764
 20
67.59897459247526
 10
1123.971014801473
 20
68.18119572948248
 10
1124.139135461153
 20
68.60942109829904
 10
1124.154293881288
 20
68.66109753057779
 10
1124.17014132052
 20
68.71725258698736
 10
1124.177720530588
 20
68.78098685346448
 10
1124.263847917719
 20
69.43107637153112
 10
1124.050251997633
 20
69.91821287314545
 10
1123.455628516879
 20
70.12939722639126
 10
1122.32494817862
 20
70.54453123236387
 10
1122.391783031034
 20
71.05199379734117
 10
1121.591142840262
 20
71.75858288136591
 10
1120.767765019287
 20
72.5168483976694
 10
1119.808650436194
 20
72.15166827623293
 10
1119.236764585642
 20
71.39202472173532
 10
1119.096204689844
 20
69.35804034724383
 10
1117.659599872495
 20
67.69095864193143
 10
1116.079679082959
 20
66.5957627871705
 10
1115.070266105781
 20
66.24677461451469
 10
1113.805227043597
 20
66.36218531327057
 10
1112.979093146234
 20
66.92270234872072
 10
1112.704863545609
 20
67.11218260040945
 10
1112.608400872022
 20
67.32164440591265
 10
1112.602888719245
 20
67.46943900222986
 10
1113.920293232805
 20
67.84013127644275
 10
1115.101271965148
 20
68.73585610260771
 10
1115.77582166116
 20
69.96644420993894
 10
1116.574394794641
 20
72.10929360176435
 10
1115.025479864473
 20
74.39649249442171
 10
1112.644918884165
 20
74.06438528964362
 10
1110.449704040964
 20
73.75708277235934
 10
1109.367255039499
 20
72.20747882309396
 10
1109.471296923153
 20
69.53718531247682
 10
1108.264135465122
 20
69.58748370656147
 10
1107.182375482753
 20
69.9891818401416
 10
1106.060652392756
 20
70.44048934870932
 10
1105.098781733274
 20
70.82909611944551
 10
1104.926526959011
 20
71.7320556461295
 10
1103.525751134709
 20
71.47057289879902
 10
1102.424009598526
 20
70.30544160568753
 10
1103.196400006319
 20
69.53994138886502
 10
1103.918492020027
 20
68.61975638475478
 10
1104.64196207193
 20
67.70198294748423
 10
1104.608889155272
 20
66.3253227915784
 10
1103.463050396877
 20
65.67488876396322
 10
1101.82042886951
 20
65.28559297413
 10
1100.446524789993
 20
66.72357582967328
 10
1099.44744709927
 20
67.78948837280957
 10
1099.460538462114
 20
68.42510848983817
 10
1099.479141977734
 20
69.65879718310613
 10
1099.315844451733
 20
70.20243325067857
 10
1098.990627437926
 20
71.29349499085718
 10
1098.285760901644
 20
72.23021645329662
 10
1096.991783037384
 20
71.79785696989777
 10
1096.183563636544
 20
70.7229871784998
 10
1096.49293321112
 20
69.43555499566195
 10
1096.935972490523
 20
68.33898110270692
 10
1096.574237464572
 20
67.21587997451547
 10
1096.039558645261
 20
66.12068411975456
 10
1094.990871579551
 20
65.56395668933818
 10
1093.77199679687
 20
65.27353513993162
 10
1091.649817977956
 20
65.56499021798376
 10
1090.772007648314
 20
67.74091252646755
 10
1090.822306042399
 20
68.02995603768001
 10
1090.955975747226
 20
68.85230033000914
 10
1090.957353785421
 20
69.69049206157044
 10
1090.958731823614
 20
70.20794540345496
 10
1090.910500486821
 20
70.76777341980807
 10
1090.743757865335
 20
71.22424857160367
 10
1090.198054740471
 20
72.70736217800372
 10
1087.973901095194
 20
72.6918592483201
 10
1087.975279133388
 20
70.14111055104111
 10
1087.975279133388
 20
69.53098414060337
 10
1088.066229654199
 20
68.91913518242299
 10
1088.208856607288
 20
68.32795679715413
 10
1087.324156086676
 20
66.51066892868484
 10
1085.503078613173
 20
66.14583331679688
 10
1084.224259169048
 20
66.39043509624962
 10
1082.346682129587
 20
67.34851615069759
 10
1081.740345324183
 20
69.39111326390223
 10
1081.475072971819
 20
71.49399954809873
 10
1082.818660211066
 20
73.34608288096904
 10
1083.951407606616
 20
74.96872285452172
 10
1085.123429090698
 20
77.22284883052068
 10
1086.46839436814
 20
79.72157658597239
 10
1086.98929280551
 20
80.74339190689749
 10
1087.094023708261
 20
83.82365178025937
 10
1086.772940809036
 20
87.61876896681059
 10
1082.104836426523
 20
86.534941927151
 10
1081.109203831285
 20
84.52369518286214
 10
1078.731398927366
 20
80.79851343466149
 10
1078.321432564621
 20
75.79210067549643
 10
1078.740356175628
 20
71.55497773818765
 10
1078.273890246925
 20
70.67854544674009
 10
1077.570401748837
 20
70.00537378892227
 10
1076.877248537204
 20
69.31222057729
 10
1076.237838815142
 20
68.76169431874708
 10
1075.714184301384
 20
68.61286619378428
 10
1075.340735950783
 20
67.75848251344233
 10
1075.526771106986
 20
67.41362845536882
 10
1075.581203615653
 20
67.35885143715335
 10
1076.022864856862
 20
67.09254555614353
 10
1077.382988554439
 20
66.67534449287977
 10
1078.191896974376
 20
67.50423446663089
 10
1079.058682998465
 20
68.33519149767315
 10
1079.058682998465
 20
68.33519149767315
 10
1079.436265463648
 20
68.68659123716863
 10
1079.436265463648
 20
68.68659123716863
 10
1080.33267930891
 20
66.81004772635305
 10
1081.701760254748
 20
64.65651853852337
 10
1083.907999403502
 20
64.04294703260038
 10
1085.186818847627
 20
63.82831758386931
 10
1086.735733777795
 20
63.83658581303391
 10
1087.893974879936
 20
64.56005586493637
 10
1087.893974879936
 20
64.56005586493637
 10
1089.599986164232
 20
65.65559622924583
 10
1089.599986164232
 20
65.65559622924583
 10
1090.840909558019
 20
64.1921196671117
 10
1092.451836206922
 20
63.0159640684474
 10
1094.578149140418
 20
63.21612411614041
 10
1095.980303002915
 20
63.27675779668081
 10
1097.089623749165
 20
64.27549097785474
 10
1097.98534857533
 20
65.24562986650109
 10
1097.98534857533
 20
65.24562986650109
 10
1098.500045840826
 20
65.8206163029893
 10
1098.500045840826
 20
65.8206163029893
 10
1099.880151092218
 20
64.36919757505353
 10
1101.487632645635
 20
63.01630857799593
 10
1103.892998313436
 20
63.46175942423873
 10
1105.367499181124
 20
63.65227320457305
 10
1106.152291932663
 20
64.46634926773758
 10
1106.728311897797
 20
65.75653752696364
 10
1106.999785422035
 20
66.38802352940994
 10
1106.921237244971
 20
67.07669811691139
 10
1106.853024354363
 20
67.73574488323968
 10
1107.855547140571
 20
67.47736272184594
 10
1108.895276958019
 20
67.26342229221193
 10
1109.930872660885
 20
67.22414820368007
 10
1110.285028476769
 20
66.30844182370068
 10
1110.911346835987
 20
65.24494084740405
 10
1111.834632426034
 20
64.81947155497569
 10
1113.833476826576
 20
63.89859753176841
 10
1113.946475958493
 20
64.0501817331194
 10
1115.826120055245
 20
64.14974499264312
 10
1118.225284551173
 20
64.59519583888593
 10
1119.987795401427
 20
66.46898327331331
 10
1121.330693621577
 20
68.31073131972788
 72
     1
 10
1121.330693621577
 20
68.31073131972788
 11
1121.330693621577
 21
68.31073131972788
 97
        0
 92
        1
 93
        2
 72
     4
 94
        3
 73
     0
 74
     0
 95
       53
 96
       49
 40
0.0
 40
0.0
 40
0.0
 40
0.0
 40
0.3527777776895833
 40
0.3527777776895833
 40
0.3527777776895833
 40
0.7055555553791667
 40
0.7055555553791667
 40
0.7055555553791667
 40
1.05833333306875
 40
1.05833333306875
 40
1.05833333306875
 40
1.411111110758333
 40
1.411111110758333
 40
1.411111110758333
 40
1.763888888447917
 40
1.763888888447917
 40
1.763888888447917
 40
2.1166666661375
 40
2.1166666661375
 40
2.1166666661375
 40
2.469444443827083
 40
2.469444443827083
 40
2.469444443827083
 40
2.822222221516667
 40
2.822222221516667
 40
2.822222221516667
 40
3.17499999920625
 40
3.17499999920625
 40
3.17499999920625
 40
3.527777776895833
 40
3.527777776895833
 40
3.527777776895833
 40
3.880555554585417
 40
3.880555554585417
 40
3.880555554585417
 40
4.233333332275
 40
4.233333332275
 40
4.233333332275
 40
4.586111109964584
 40
4.586111109964584
 40
4.586111109964584
 40
4.938888887654167
 40
4.938888887654167
 40
4.938888887654167
 40
5.29166666534375
 40
5.29166666534375
 40
5.29166666534375
 40
5.644444443033334
 40
5.644444443033334
 40
5.644444443033334
 40
5.644444443033334
 10
1062.758558219553
 20
81.67632376430315
 10
1062.758558219553
 20
81.67632376430315
 10
1062.249373106833
 20
82.14726831713679
 10
1062.249373106833
 20
82.14726831713679
 10
1062.249373106833
 20
82.14726831713679
 10
1062.739954703933
 20
82.38429088652198
 10
1062.739954703933
 20
82.38429088652198
 10
1063.510967073532
 20
82.63164874236293
 10
1064.347436257351
 20
82.6933159515489
 10
1064.739488123572
 20
81.79828014448098
 10
1064.835261778062
 20
81.01314288339255
 10
1064.507977706963
 20
80.53909774462217
 10
1063.951939295644
 20
80.0498941857167
 10
1062.755113124068
 20
79.9410291683828
 10
1061.953094895102
 20
78.83825410355433
 10
1061.21308838487
 20
78.0117756966429
 10
1060.359393723626
 20
75.99949542370847
 10
1061.062193202617
 20
73.58172741216012
 10
1061.480427794526
 20
71.55497773818765
 10
1061.480427794526
 20
71.55497773818765
 10
1061.736053879531
 20
71.30624184415261
 10
1061.736053879531
 20
71.30624184415261
 10
1062.197007655458
 20
70.84976669235701
 10
1062.571834044253
 20
70.36400822893678
 10
1062.538761127595
 20
69.66706541227073
 10
1062.099855962774
 20
68.48712020857266
 10
1059.757880051901
 20
67.91316730073004
 10
1059.508455138769
 20
69.79694551206465
 10
1059.084708394083
 20
70.54453123236387
 10
1058.914520677112
 20
71.08713377129072
 10
1058.805655659778
 20
71.64076061577038
 10
1058.805655659778
 20
71.64076061577038
 10
1058.729174540005
 20
72.07759872330004
 10
1058.729174540005
 20
72.07759872330004
 10
1058.585169548722
 20
70.9861924735729
 10
1058.760180399373
 20
69.71529674906424
 10
1058.942770460091
 20
68.64283852450596
 10
1059.31897488708
 20
67.22277016548598
 10
1060.298760043085
 20
66.13825410672933
 10
1061.702980962873
 20
65.56809080392048
 10
1064.921389165193
 20
64.80500215393764
 10
1067.576179746127
 20
67.00366209262408
 10
1069.412415639765
 20
69.3825005251891
 10
1072.304228790084
 20
73.51213648335808
 10
1074.872202964789
 20
78.68977048814006
 10
1072.535739206693
 20
83.69239364227136
 10
1069.747278920931
 20
87.18158634973238
 10
1064.277156309452
 20
85.56101343347086
 10
1062.758558219553
 20
81.67632376430315
 72
     1
 10
1062.758558219553
 20
81.67632376430315
 11
1062.758558219553
 21
81.67632376430315
 97
        0
 92
        1
 93
        2
 72
     4
 94
        3
 73
     0
 74
     0
 95
       23
 96
       19
 40
0.0
 40
0.0
 40
0.0
 40
0.0
 40
0.3527777776895833
 40
0.3527777776895833
 40
0.3527777776895833
 40
0.7055555553791667
 40
0.7055555553791667
 40
0.7055555553791667
 40
1.05833333306875
 40
1.05833333306875
 40
1.05833333306875
 40
1.411111110758333
 40
1.411111110758333
 40
1.411111110758333
 40
1.763888888447917
 40
1.763888888447917
 40
1.763888888447917
 40
2.1166666661375
 40
2.1166666661375
 40
2.1166666661375
 40
2.1166666661375
 10
1071.418150231277
 20
67.67580022179634
 10
1069.153344459274
 20
64.6003634821138
 10
1065.463647194572
 20
62.55087617793868
 10
1061.514878749378
 20
63.106914589258
 10
1058.731241597297
 20
63.84829913768376
 10
1056.929456658511
 20
66.55269909360489
 10
1056.469191901681
 20
69.21231280821776
 10
1055.908330356683
 20
72.68910317193189
 10
1056.850908481447
 20
75.85549043242501
 10
1058.687144375085
 20
78.47272947256933
 10
1059.237670633628
 20
82.27439234054252
 10
1061.399812560171
 20
85.92516002626176
 10
1065.172881135617
 20
87.60326603712697
 10
1067.525192332945
 20
88.4614393225027
 10
1072.792054310795
 20
88.8393662972346
 10
1074.576613772155
 20
84.98189288240036
 10
1077.816381566483
 20
79.00706378233157
 10
1074.567656523893
 20
72.44691295931884
 10
1071.418150231277
 20
67.67580022179634
 72
     1
 10
1071.418150231277
 20
67.67580022179634
 11
1071.418150231277
 21
67.67580022179634
 97
        0
 92
        1
 93
        2
 72
     4
 94
        3
 73
     0
 74
     0
 95
       17
 96
       13
 40
0.0
 40
0.0
 40
0.0
 40
0.0
 40
0.3527777776895833
 40
0.3527777776895833
 40
0.3527777776895833
 40
0.7055555553791667
 40
0.7055555553791667
 40
0.7055555553791667
 40
1.05833333306875
 40
1.05833333306875
 40
1.05833333306875
 40
1.411111110758333
 40
1.411111110758333
 40
1.411111110758333
 40
1.411111110758333
 10
1134.001065797229
 20
74.71585284590438
 10
1134.154028036774
 20
75.1809407364131
 10
1134.104418661786
 20
75.8000243951125
 10
1133.826054946578
 20
76.22824976392906
 10
1133.223852255757
 20
76.98617077068401
 10
1132.063544096324
 20
77.52463919502857
 10
1131.343519139907
 20
76.53141816663104
 10
1130.981095094859
 20
75.64499509827625
 10
1131.252568619097
 20
74.76270614450377
 10
1131.964325346349
 20
74.15430228180865
 10
1132.72086831491
 20
73.9730902592845
 10
1133.58283120532
 20
73.79187823676037
 10
1134.001065797229
 20
74.71585284590438
 72
     1
 10
1134.001065797229
 20
74.71585284590438
 11
1134.001065797229
 21
74.71585284590438
 97
        0
 92
        1
 93
        2
 72
     4
 94
        3
 73
     0
 74
     0
 95
       17
 96
       13
 40
0.0
 40
0.0
 40
0.0
 40
0.0
 40
0.3527777776895833
 40
0.3527777776895833
 40
0.3527777776895833
 40
0.7055555553791667
 40
0.7055555553791667
 40
0.7055555553791667
 40
1.05833333306875
 40
1.05833333306875
 40
1.05833333306875
 40
1.411111110758333
 40
1.411111110758333
 40
1.411111110758333
 40
1.411111110758333
 10
1090.562545842811
 20
76.13557669537583
 10
1090.173250052978
 20
75.57747122676535
 10
1089.212068412593
 20
75.57609318857126
 10
1088.71528564362
 20
75.77900931265248
 10
1087.996638725397
 20
76.07218693844723
 10
1087.31382080022
 20
77.02027721598799
 10
1087.840231390366
 20
77.93701712461298
 10
1088.42796468015
 20
78.96021048373217
 10
1089.647528481928
 20
78.67909069213579
 10
1090.277291936632
 20
78.16611597438208
 10
1090.672099879242
 20
77.8450330751568
 10
1091.08826741386
 20
76.88729653025734
 10
1090.562545842811
 20
76.13557669537583
 72
     1
 10
1090.562545842811
 20
76.13557669537583
 11
1090.562545842811
 21
76.13557669537583
 97
        0
 75
     2
 76
     1
 98
        0
  0
SPLINE
  5
502
330
4F4
100
AcDbEntity
  8
Layer 1
370
     0
100
AcDbSpline
210
0.0
220
0.0
230
1.0
 70
    11
 71
     3
 72
    20
 73
    16
 74
     0
 42
0.0000000001
 43
0.0000000001
 40
0.0
 40
0.0
 40
0.0
 40
0.0
 40
1.0
 40
1.0
 40
1.0
 40
2.0
 40
2.0
 40
2.0
 40
3.0
 40
3.0
 40
3.0
 40
4.0
 40
4.0
 40
4.0
 40
5.0
 40
5.0
 40
5.0
 40
5.0
 10
1158.365470088013
 20
71.68279078069041
 30
0.0
 10
1158.365470088013
 20
71.68279078069041
 30
0.0
 10
1158.661059280647
 20
71.68279078069041
 30
0.0
 10
1158.661059280647
 20
71.68279078069041
 30
0.0
 10
1158.819533672969
 20
71.68279078069041
 30
0.0
 10
1158.975251988902
 20
71.63318140570281
 30
0.0
 10
1158.975251988902
 20
71.45989310279475
 30
0.0
 10
1158.975251988902
 20
71.26076658374731
 30
0.0
 10
1158.85191757053
 20
71.22114798566693
 30
0.0
 10
1158.661059280647
 20
71.22114798566693
 30
0.0
 10
1158.661059280647
 20
71.22114798566693
 30
0.0
 10
1158.365470088013
 20
71.22114798566693
 30
0.0
 10
1158.365470088013
 20
71.22114798566693
 30
0.0
 10
1158.365470088013
 20
71.22114798566693
 30
0.0
 10
1158.365470088013
 20
71.68279078069041
 30
0.0
 10
1158.365470088013
 20
71.68279078069041
 30
0.0
  0
SPLINE
  5
503
330
4F4
100
AcDbEntity
  8
Layer 1
370
     0
100
AcDbSpline
210
0.0
220
0.0
230
1.0
 70
    11
 71
     3
 72
    35
 73
    31
 74
     0
 42
0.0000000001
 43
0.0000000001
 40
0.0
 40
0.0
 40
0.0
 40
0.0
 40
1.0
 40
1.0
 40
1.0
 40
2.0
 40
2.0
 40
2.0
 40
3.0
 40
3.0
 40
3.0
 40
4.0
 40
4.0
 40
4.0
 40
5.0
 40
5.0
 40
5.0
 40
6.0
 40
6.0
 40
6.0
 40
7.0
 40
7.0
 40
7.0
 40
8.0
 40
8.0
 40
8.0
 40
9.0
 40
9.0
 40
9.0
 40
10.0
 40
10.0
 40
10.0
 40
10.0
 10
1158.115356155784
 20
70.35126137564136
 30
0.0
 10
1158.115356155784
 20
70.35126137564136
 30
0.0
 10
1158.365470088013
 20
70.35126137564136
 30
0.0
 10
1158.365470088013
 20
70.35126137564136
 30
0.0
 10
1158.365470088013
 20
70.35126137564136
 30
0.0
 10
1158.365470088013
 20
71.02615558120179
 30
0.0
 10
1158.365470088013
 20
71.02615558120179
 30
0.0
 10
1158.365470088013
 20
71.02615558120179
 30
0.0
 10
1158.573553855322
 20
71.02615558120179
 30
0.0
 10
1158.573553855322
 20
71.02615558120179
 30
0.0
 10
1158.573553855322
 20
71.02615558120179
 30
0.0
 10
1159.000056676396
 20
70.35126137564136
 30
0.0
 10
1159.000056676396
 20
70.35126137564136
 30
0.0
 10
1159.000056676396
 20
70.35126137564136
 30
0.0
 10
1159.263950990566
 20
70.35126137564136
 30
0.0
 10
1159.263950990566
 20
70.35126137564136
 30
0.0
 10
1159.263950990566
 20
70.35126137564136
 30
0.0
 10
1158.830557978521
 20
71.02615558120179
 30
0.0
 10
1158.830557978521
 20
71.02615558120179
 30
0.0
 10
1159.068958586101
 20
71.02615558120179
 30
0.0
 10
1159.224676902034
 20
71.20357799869217
 30
0.0
 10
1159.224676902034
 20
71.44852428769343
 30
0.0
 10
1159.224676902034
 20
71.73687877980883
 30
0.0
 10
1159.05035507048
 20
71.87778318515555
 30
0.0
 10
1158.700333369179
 20
71.87778318515555
 30
0.0
 10
1158.700333369179
 20
71.87778318515555
 30
0.0
 10
1158.115356155784
 20
71.87778318515555
 30
0.0
 10
1158.115356155784
 20
71.87778318515555
 30
0.0
 10
1158.115356155784
 20
71.87778318515555
 30
0.0
 10
1158.115356155784
 20
70.35126137564136
 30
0.0
 10
1158.115356155784
 20
70.35126137564136
 30
0.0
  0
SPLINE
  5
504
330
4F4
100
AcDbEntity
  8
Layer 1
370
     0
100
AcDbSpline
210
0.0
220
0.0
230
1.0
 70
    11
 71
     3
 72
    17
 73
    13
 74
     0
 42
0.0000000001
 43
0.0000000001
 40
0.0
 40
0.0
 40
0.0
 40
0.0
 40
1.0
 40
1.0
 40
1.0
 40
2.0
 40
2.0
 40
2.0
 40
3.0
 40
3.0
 40
3.0
 40
4.0
 40
4.0
 40
4.0
 40
4.0
 10
1157.560006763561
 20
71.1129719874301
 30
0.0
 10
1157.560006763561
 20
71.73687877980883
 30
0.0
 10
1158.012003291226
 20
72.22125920503497
 30
0.0
 10
1158.617651077533
 20
72.22125920503497
 30
0.0
 10
1159.21640867287
 20
72.22125920503497
 30
0.0
 10
1159.66702716234
 20
71.73687877980883
 30
0.0
 10
1159.66702716234
 20
71.1129719874301
 30
0.0
 10
1159.66702716234
 20
70.48906519505135
 30
0.0
 10
1159.21640867287
 20
70.00537378892227
 30
0.0
 10
1158.617651077533
 20
70.00537378892227
 30
0.0
 10
1158.012003291226
 20
70.00537378892227
 30
0.0
 10
1157.560006763561
 20
70.48906519505135
 30
0.0
 10
1157.560006763561
 20
71.1129719874301
 30
0.0
  0
SPLINE
  5
505
330
4F4
100
AcDbEntity
  8
Layer 1
370
     0
100
AcDbSpline
210
0.0
220
0.0
230
1.0
 70
    11
 71
     3
 72
    17
 73
    13
 74
     0
 42
0.0000000001
 43
0.0000000001
 40
0.0
 40
0.0
 40
0.0
 40
0.0
 40
1.0
 40
1.0
 40
1.0
 40
2.0
 40
2.0
 40
2.0
 40
3.0
 40
3.0
 40
3.0
 40
4.0
 40
4.0
 40
4.0
 40
4.0
 10
1157.311270869526
 20
71.1129719874301
 30
0.0
 10
1157.311270869526
 20
70.39535859785255
 30
0.0
 10
1157.895559063825
 20
69.80969236536008
 30
0.0
 10
1158.614205982048
 20
69.80969236536008
 30
0.0
 10
1159.332163881174
 20
69.80969236536008
 30
0.0
 10
1159.916452075472
 20
70.39535859785255
 30
0.0
 10
1159.916452075472
 20
71.1129719874301
 30
0.0
 10
1159.916452075472
 20
71.83127439610469
 30
0.0
 10
1159.332163881174
 20
72.41625160950011
 30
0.0
 10
1158.614205982048
 20
72.41625160950011
 30
0.0
 10
1157.895559063825
 20
72.41625160950011
 30
0.0
 10
1157.311270869526
 20
71.83127439610469
 30
0.0
 10
1157.311270869526
 20
71.1129719874301
 30
0.0
  0
HATCH
  5
506
330
4F4
100
AcDbEntity
  8
Layer 1
 62
   152
100
AcDbHatch
 10
0.0
 20
0.0
 30
0.0
210
0.0
220
0.0
230
1.0
  2
SOLID
 70
     1
 71
     0
 91
        4
 92
        1
 93
        1
 72
     4
 94
        3
 73
     0
 74
     1
 95
       20
 96
       16
 40
0.0
 40
0.0
 40
0.0
 40
0.0
 40
1.0
 40
1.0
 40
1.0
 40
2.0
 40
2.0
 40
2.0
 40
3.0
 40
3.0
 40
3.0
 40
4.0
 40
4.0
 40
4.0
 40
5.0
 40
5.0
 40
5.0
 40
5.0
 10
1158.365470088013
 20
71.68279078069041
 10
1158.365470088013
 20
71.68279078069041
 10
1158.661059280647
 20
71.68279078069041
 10
1158.661059280647
 20
71.68279078069041
 10
1158.819533672969
 20
71.68279078069041
 10
1158.975251988902
 20
71.63318140570281
 10
1158.975251988902
 20
71.45989310279475
 10
1158.975251988902
 20
71.26076658374731
 10
1158.85191757053
 20
71.22114798566693
 10
1158.661059280647
 20
71.22114798566693
 10
1158.661059280647
 20
71.22114798566693
 10
1158.365470088013
 20
71.22114798566693
 10
1158.365470088013
 20
71.22114798566693
 10
1158.365470088013
 20
71.22114798566693
 10
1158.365470088013
 20
71.68279078069041
 10
1158.365470088013
 20
71.68279078069041
 97
        0
 92
        1
 93
        1
 72
     4
 94
        3
 73
     0
 74
     1
 95
       35
 96
       31
 40
0.0
 40
0.0
 40
0.0
 40
0.0
 40
1.0
 40
1.0
 40
1.0
 40
2.0
 40
2.0
 40
2.0
 40
3.0
 40
3.0
 40
3.0
 40
4.0
 40
4.0
 40
4.0
 40
5.0
 40
5.0
 40
5.0
 40
6.0
 40
6.0
 40
6.0
 40
7.0
 40
7.0
 40
7.0
 40
8.0
 40
8.0
 40
8.0
 40
9.0
 40
9.0
 40
9.0
 40
10.0
 40
10.0
 40
10.0
 40
10.0
 10
1158.115356155784
 20
70.35126137564136
 10
1158.115356155784
 20
70.35126137564136
 10
1158.365470088013
 20
70.35126137564136
 10
1158.365470088013
 20
70.35126137564136
 10
1158.365470088013
 20
70.35126137564136
 10
1158.365470088013
 20
71.02615558120179
 10
1158.365470088013
 20
71.02615558120179
 10
1158.365470088013
 20
71.02615558120179
 10
1158.573553855322
 20
71.02615558120179
 10
1158.573553855322
 20
71.02615558120179
 10
1158.573553855322
 20
71.02615558120179
 10
1159.000056676396
 20
70.35126137564136
 10
1159.000056676396
 20
70.35126137564136
 10
1159.000056676396
 20
70.35126137564136
 10
1159.263950990566
 20
70.35126137564136
 10
1159.263950990566
 20
70.35126137564136
 10
1159.263950990566
 20
70.35126137564136
 10
1158.830557978521
 20
71.02615558120179
 10
1158.830557978521
 20
71.02615558120179
 10
1159.068958586101
 20
71.02615558120179
 10
1159.224676902034
 20
71.20357799869217
 10
1159.224676902034
 20
71.44852428769343
 10
1159.224676902034
 20
71.73687877980883
 10
1159.05035507048
 20
71.87778318515555
 10
1158.700333369179
 20
71.87778318515555
 10
1158.700333369179
 20
71.87778318515555
 10
1158.115356155784
 20
71.87778318515555
 10
1158.115356155784
 20
71.87778318515555
 10
1158.115356155784
 20
71.87778318515555
 10
1158.115356155784
 20
70.35126137564136
 10
1158.115356155784
 20
70.35126137564136
 97
        0
 92
        1
 93
        2
 72
     4
 94
        3
 73
     0
 74
     0
 95
       17
 96
       13
 40
0.0
 40
0.0
 40
0.0
 40
0.0
 40
0.3527777776895833
 40
0.3527777776895833
 40
0.3527777776895833
 40
0.7055555553791667
 40
0.7055555553791667
 40
0.7055555553791667
 40
1.05833333306875
 40
1.05833333306875
 40
1.05833333306875
 40
1.411111110758333
 40
1.411111110758333
 40
1.411111110758333
 40
1.411111110758333
 10
1157.560006763561
 20
71.1129719874301
 10
1157.560006763561
 20
71.73687877980883
 10
1158.012003291226
 20
72.22125920503497
 10
1158.617651077533
 20
72.22125920503497
 10
1159.21640867287
 20
72.22125920503497
 10
1159.66702716234
 20
71.73687877980883
 10
1159.66702716234
 20
71.1129719874301
 10
1159.66702716234
 20
70.48906519505135
 10
1159.21640867287
 20
70.00537378892227
 10
1158.617651077533
 20
70.00537378892227
 10
1158.012003291226
 20
70.00537378892227
 10
1157.560006763561
 20
70.48906519505135
 10
1157.560006763561
 20
71.1129719874301
 72
     1
 10
1157.560006763561
 20
71.1129719874301
 11
1157.560006763561
 21
71.1129719874301
 97
        0
 92
        1
 93
        2
 72
     4
 94
        3
 73
     0
 74
     0
 95
       17
 96
       13
 40
0.0
 40
0.0
 40
0.0
 40
0.0
 40
0.3527777776895833
 40
0.3527777776895833
 40
0.3527777776895833
 40
0.7055555553791667
 40
0.7055555553791667
 40
0.7055555553791667
 40
1.05833333306875
 40
1.05833333306875
 40
1.05833333306875
 40
1.411111110758333
 40
1.411111110758333
 40
1.411111110758333
 40
1.411111110758333
 10
1157.311270869526
 20
71.1129719874301
 10
1157.311270869526
 20
70.39535859785255
 10
1157.895559063825
 20
69.80969236536008
 10
1158.614205982048
 20
69.80969236536008
 10
1159.332163881174
 20
69.80969236536008
 10
1159.916452075472
 20
70.39535859785255
 10
1159.916452075472
 20
71.1129719874301
 10
1159.916452075472
 20
71.83127439610469
 10
1159.332163881174
 20
72.41625160950011
 10
1158.614205982048
 20
72.41625160950011
 10
1157.895559063825
 20
72.41625160950011
 10
1157.311270869526
 20
71.83127439610469
 10
1157.311270869526
 20
71.1129719874301
 72
     1
 10
1157.311270869526
 20
71.1129719874301
 11
1157.311270869526
 21
71.1129719874301
 97
        0
 75
     2
 76
     1
 98
        0
  0
ENDBLK
  5
4F7
330
4F4
100
AcDbEntity
  8
0
100
AcDbBlockEnd
  0
ENDSEC
  0
SECTION
  2
ENTITIES
  0
INSERT
  5
3D
330
1F
100
AcDbEntity
  8
Layer 1
100
AcDbBlockReference
  2
block 2
 10
0.0
 20
0.0
 30
0.0
  0
MTEXT
  5
4F3
330
1F
100
AcDbEntity
  8
Layer 1
 62
     7
100
AcDbMText
 10
1004.912304436272
 20
45.71503905107124
 30
0.0
 40
9.595555553156668
 41
0.0
 71
     7
 72
     1
  1
\fFrutiger LT Std 55 Roman|b0|i0|c0|p34;\W1;CAD Drawing: SN1020U
 73
     1
 44
1.0
  0
INSERT
  5
4F5
330
1F
100
AcDbEntity
  8
Layer 1
100
AcDbBlockReference
  2
block 3
 10
0.0
 20
0.0
 30
0.0
  0
ENDSEC
  0
SECTION
  2
OBJECTS
  0
DICTIONARY
  5
C
330
0
100
AcDbDictionary
281
     1
  3
ACAD_GROUP
350
D
  3
ACAD_LAYOUT
350
1A
  3
ACAD_MLINESTYLE
350
17
  3
ACAD_PLOTSETTINGS
350
19
  3
ACAD_PLOTSTYLENAME
350
E
  3
ACAD_TABLESTYLE
350
507
  3
ACAD_VISUALSTYLE
350
2A
  0
DICTIONARY
  5
D
102
{ACAD_REACTORS
330
C
102
}
330
C
100
AcDbDictionary
281
     1
  0
DICTIONARY
  5
1A
102
{ACAD_REACTORS
330
C
102
}
330
C
100
AcDbDictionary
281
     1
  3
Layout1
350
1E
  3
Layout2
350
26
  3
Model
350
22
  0
DICTIONARY
  5
17
102
{ACAD_REACTORS
330
C
102
}
330
C
100
AcDbDictionary
281
     1
  3
Standard
350
18
  0
DICTIONARY
  5
19
102
{ACAD_REACTORS
330
C
102
}
330
C
100
AcDbDictionary
281
     1
  0
ACDBDICTIONARYWDFLT
  5
E
102
{ACAD_REACTORS
330
C
102
}
330
C
100
AcDbDictionary
281
     1
  3
Normal
350
F
100
AcDbDictionaryWithDefault
340
F
  0
DICTIONARY
  5
507
102
{ACAD_REACTORS
330
C
102
}
330
C
100
AcDbDictionary
281
     1
  0
DICTIONARY
  5
2A
102
{ACAD_REACTORS
330
C
102
}
330
C
100
AcDbDictionary
281
     1
  3
2dWireframe
350
2F
  3
3D Hidden
350
31
  3
3dWireframe
350
30
  3
Basic
350
32
  3
Brighten
350
36
  3
ColorChange
350
3A
  3
Conceptual
350
34
  3
Dim
350
35
  3
Facepattern
350
39
  3
Flat
350
2B
  3
FlatWithEdges
350
2C
  3
Gouraud
350
2D
  3
GouraudWithEdges
350
2E
  3
Linepattern
350
38
  3
Realistic
350
33
  3
Thicken
350
37
  0
LAYOUT
  5
1E
102
{ACAD_REACTORS
330
1A
102
}
330
1A
100
AcDbPlotSettings
  1

  2
none_device
  4

  6

 40
0.0
 41
0.0
 42
0.0
 43
0.0
 44
0.0
 45
0.0
 46
0.0
 47
0.0
 48
0.0
 49
0.0
140
0.0
141
0.0
142
1.0
143
1.0
 70
   688
 72
     0
 73
     0
 74
     5
  7

 75
    16
147
1.0
148
0.0
149
0.0
100
AcDbLayout
  1
Layout1
 70
     1
 71
     1
 10
0.0
 20
0.0
 11
12.0
 21
9.0
 12
0.0
 22
0.0
 32
0.0
 14
1.000000000000000E+20
 24
1.000000000000000E+20
 34
1.000000000000000E+20
 15
-1.000000000000000E+20
 25
-1.000000000000000E+20
 35
-1.000000000000000E+20
146
0.0
 13
0.0
 23
0.0
 33
0.0
 16
1.0
 26
0.0
 36
0.0
 17
0.0
 27
1.0
 37
0.0
 76
     0
330
1B
  0
LAYOUT
  5
26
102
{ACAD_REACTORS
330
1A
102
}
330
1A
100
AcDbPlotSettings
  1

  2
none_device
  4

  6

 40
0.0
 41
0.0
 42
0.0
 43
0.0
 44
0.0
 45
0.0
 46
0.0
 47
0.0
 48
0.0
 49
0.0
140
0.0
141
0.0
142
1.0
143
1.0
 70
   688
 72
     0
 73
     0
 74
     5
  7

 75
    16
147
1.0
148
0.0
149
0.0
100
AcDbLayout
  1
Layout2
 70
     1
 71
     2
 10
0.0
 20
0.0
 11
0.0
 21
0.0
 12
0.0
 22
0.0
 32
0.0
 14
0.0
 24
0.0
 34
0.0
 15
0.0
 25
0.0
 35
0.0
146
0.0
 13
0.0
 23
0.0
 33
0.0
 16
1.0
 26
0.0
 36
0.0
 17
0.0
 27
1.0
 37
0.0
 76
     0
330
23
  0
LAYOUT
  5
22
102
{ACAD_REACTORS
330
1A
102
}
330
1A
100
AcDbPlotSettings
  1

  2
none_device
  4

  6

 40
0.0
 41
0.0
 42
0.0
 43
0.0
 44
0.0
 45
0.0
 46
0.0
 47
0.0
 48
0.0
 49
0.0
140
0.0
141
0.0
142
1.0
143
1.0
 70
  1712
 72
     0
 73
     0
 74
     0
  7

 75
     0
147
1.0
148
0.0
149
0.0
100
AcDbLayout
  1
Model
 70
     1
 71
     0
 10
0.0
 20
0.0
 11
12.0
 21
9.0
 12
0.0
 22
0.0
 32
0.0
 14
1.000000000000000E+20
 24
1.000000000000000E+20
 34
1.000000000000000E+20
 15
-1.000000000000000E+20
 25
-1.000000000000000E+20
 35
-1.000000000000000E+20
146
0.0
 13
0.0
 23
0.0
 33
0.0
 16
1.0
 26
0.0
 36
0.0
 17
0.0
 27
1.0
 37
0.0
 76
     0
330
1F
331
29
  0
MLINESTYLE
  5
18
102
{ACAD_REACTORS
330
17
102
}
330
17
100
AcDbMlineStyle
  2
Standard
 70
     0
  3

 62
   256
 51
90.0
 52
90.0
 71
     2
 49
0.5
 62
   256
  6
BYLAYER
 49
-0.5
 62
   256
  6
BYLAYER
  0
ACDBPLACEHOLDER
  5
F
102
{ACAD_REACTORS
330
E
102
}
330
E
  0
VISUALSTYLE
  5
2F
102
{ACAD_REACTORS
330
2A
102
}
330
2A
100
AcDbVisualStyle
  2
2dWireframe
 70
     4
 71
     0
 72
     2
 73
     0
 90
        0
 40
-0.6
 41
-30.0
 62
     5
 63
     7
 74
     1
 91
        4
 64
     7
 65
   257
 75
     1
175
     1
 42
1.0
 92
        0
 66
   257
 43
1.0
 76
     1
 77
     6
 78
     2
 67
     7
 79
     5
170
     0
171
     0
290
     0
174
     0
 93
        1
 44
0.0
173
     0
291
     0
 45
0.0
1001
ACAD
1000
AcDbSavedByObjectVersion
1070
     0
  0
VISUALSTYLE
  5
31
102
{ACAD_REACTORS
330
2A
102
}
330
2A
100
AcDbVisualStyle
  2
3D Hidden
 70
     6
 71
     1
 72
     2
 73
     2
 90
        0
 40
-0.6
 41
-30.0
 62
     5
 63
     7
 74
     2
 91
        2
 64
     7
 65
   257
 75
     2
175
     1
 42
40.0
 92
        0
 66
   257
 43
1.0
 76
     1
 77
     6
 78
     2
 67
     7
 79
     3
170
     0
171
     0
290
     0
174
     0
 93
        1
 44
0.0
173
     0
291
     0
 45
0.0
1001
ACAD
1000
AcDbSavedByObjectVersion
1070
     0
  0
VISUALSTYLE
  5
30
102
{ACAD_REACTORS
330
2A
102
}
330
2A
100
AcDbVisualStyle
  2
3dWireframe
 70
     5
 71
     0
 72
     2
 73
     0
 90
        0
 40
-0.6
 41
-30.0
 62
     5
 63
     7
 74
     1
 91
        4
 64
     7
 65
   257
 75
     1
175
     1
 42
1.0
 92
        0
 66
   257
 43
1.0
 76
     1
 77
     6
 78
     2
 67
     7
 79
     5
170
     0
171
     0
290
     0
174
     0
 93
        1
 44
0.0
173
     0
291
     0
 45
0.0
1001
ACAD
1000
AcDbSavedByObjectVersion
1070
     0
  0
VISUALSTYLE
  5
32
102
{ACAD_REACTORS
330
2A
102
}
330
2A
100
AcDbVisualStyle
  2
Basic
 70
     7
 71
     1
 72
     0
 73
     1
 90
        0
 40
-0.6
 41
-30.0
 62
     5
 63
     7
 74
     0
 91
        4
 64
     7
 65
   257
 75
     1
175
     1
 42
1.0
 92
        8
 66
     7
 43
1.0
 76
     1
 77
     6
 78
     2
 67
     7
 79
     5
170
     0
171
     0
290
     0
174
     0
 93
        1
 44
0.0
173
     0
291
     1
 45
0.0
1001
ACAD
1000
AcDbSavedByObjectVersion
1070
     0
  0
VISUALSTYLE
  5
36
102
{ACAD_REACTORS
330
2A
102
}
330
2A
100
AcDbVisualStyle
  2
Brighten
 70
    12
 71
     2
 72
     2
 73
     0
 90
        0
 40
-0.6
 41
-30.0
 62
     5
 63
     7
 74
     1
 91
        4
 64
     7
 65
   257
 75
     1
175
     1
 42
1.0
 92
        8
 66
     7
 43
1.0
 76
     1
 77
     6
 78
     2
 67
     7
 79
     5
170
     0
171
     0
290
     0
174
     0
 93
        1
 44
50.0
173
     0
291
     1
 45
0.0
1001
ACAD
1000
AcDbSavedByObjectVersion
1070
     0
  0
VISUALSTYLE
  5
3A
102
{ACAD_REACTORS
330
2A
102
}
330
2A
100
AcDbVisualStyle
  2
ColorChange
 70
    16
 71
     2
 72
     2
 73
     3
 90
        0
 40
-0.6
 41
-30.0
 62
     5
 63
     8
 74
     1
 91
        4
 64
     7
 65
   257
 75
     1
175
     1
 42
1.0
 92
        8
 66
     8
 43
1.0
 76
     1
 77
     6
 78
     2
 67
     7
 79
     5
170
     0
171
     0
290
     0
174
     0
 93
        1
 44
0.0
173
     0
291
     1
 45
0.0
1001
ACAD
1000
AcDbSavedByObjectVersion
1070
     0
  0
VISUALSTYLE
  5
34
102
{ACAD_REACTORS
330
2A
102
}
330
2A
100
AcDbVisualStyle
  2
Conceptual
 70
     9
 71
     3
 72
     2
 73
     0
 90
        0
 40
-0.6
 41
-30.0
 62
     5
 63
     7
 74
     2
 91
        2
 64
     7
 65
   257
 75
     1
175
     1
 42
40.0
 92
        8
 66
     7
 43
1.0
 76
     1
 77
     6
 78
     2
 67
     7
 79
     3
170
     0
171
     0
290
     0
174
     0
 93
        1
 44
0.0
173
     0
291
     0
 45
0.0
1001
ACAD
1000
AcDbSavedByObjectVersion
1070
     0
  0
VISUALSTYLE
  5
35
102
{ACAD_REACTORS
330
2A
102
}
330
2A
100
AcDbVisualStyle
  2
Dim
 70
    11
 71
     2
 72
     2
 73
     0
 90
        0
 40
-0.6
 41
-30.0
 62
     5
 63
     7
 74
     1
 91
        4
 64
     7
 65
   257
 75
     1
175
     1
 42
1.0
 92
        8
 66
     7
 43
1.0
 76
     1
 77
     6
 78
     2
 67
     7
 79
     5
170
     0
171
     0
290
     0
174
     0
 93
        1
 44
-50.0
173
     0
291
     1
 45
0.0
1001
ACAD
1000
AcDbSavedByObjectVersion
1070
     0
  0
VISUALSTYLE
  5
39
102
{ACAD_REACTORS
330
2A
102
}
330
2A
100
AcDbVisualStyle
  2
Facepattern
 70
    15
 71
     2
 72
     2
 73
     0
 90
        0
 40
-0.6
 41
-30.0
 62
     5
 63
     7
 74
     1
 91
        4
 64
     7
 65
   257
 75
     1
175
     1
 42
1.0
 92
        8
 66
     7
 43
1.0
 76
     1
 77
     6
 78
     2
 67
     7
 79
     5
170
     0
171
     0
290
     0
174
     0
 93
        1
 44
0.0
173
     0
291
     1
 45
0.0
1001
ACAD
1000
AcDbSavedByObjectVersion
1070
     0
  0
VISUALSTYLE
  5
2B
102
{ACAD_REACTORS
330
2A
102
}
330
2A
100
AcDbVisualStyle
  2
Flat
 70
     0
 71
     2
 72
     1
 73
     1
 90
        2
 40
-0.6
 41
30.0
 62
     5
 63
     7
 74
     0
 91
        4
 64
     7
 65
   257
 75
     1
175
     1
 42
1.0
 92
        8
 66
     7
 43
1.0
 76
     1
 77
     6
 78
     2
 67
     7
 79
     5
170
     0
171
     0
290
     0
174
     0
 93
       13
 44
0.0
173
     0
291
     1
 45
0.0
1001
ACAD
1000
AcDbSavedByObjectVersion
1070
     0
  0
VISUALSTYLE
  5
2C
102
{ACAD_REACTORS
330
2A
102
}
330
2A
100
AcDbVisualStyle
  2
FlatWithEdges
 70
     1
 71
     2
 72
     1
 73
     1
 90
        2
 40
-0.6
 41
30.0
 62
     5
 63
     7
 74
     1
 91
        4
 64
     7
 65
   257
 75
     1
175
     1
 42
1.0
 92
        0
 66
   257
 43
1.0
 76
     1
 77
     6
 78
     2
 67
     7
 79
     5
170
     0
171
     0
290
     0
174
     0
 93
       13
 44
0.0
173
     0
291
     1
 45
0.0
1001
ACAD
1000
AcDbSavedByObjectVersion
1070
     0
  0
VISUALSTYLE
  5
2D
102
{ACAD_REACTORS
330
2A
102
}
330
2A
100
AcDbVisualStyle
  2
Gouraud
 70
     2
 71
     2
 72
     2
 73
     1
 90
        2
 40
-0.6
 41
30.0
 62
     5
 63
     7
 74
     0
 91
        4
 64
     7
 65
   257
 75
     1
175
     1
 42
1.0
 92
        0
 66
     7
 43
1.0
 76
     1
 77
     6
 78
     2
 67
     7
 79
     5
170
     0
171
     0
290
     0
174
     0
 93
       13
 44
0.0
173
     0
291
     1
 45
0.0
1001
ACAD
1000
AcDbSavedByObjectVersion
1070
     0
  0
VISUALSTYLE
  5
2E
102
{ACAD_REACTORS
330
2A
102
}
330
2A
100
AcDbVisualStyle
  2
GouraudWithEdges
 70
     3
 71
     2
 72
     2
 73
     1
 90
        2
 40
-0.6
 41
30.0
 62
     5
 63
     7
 74
     1
 91
        4
 64
     7
 65
   257
 75
     1
175
     1
 42
1.0
 92
        0
 66
   257
 43
1.0
 76
     1
 77
     6
 78
     2
 67
     7
 79
     5
170
     0
171
     0
290
     0
174
     0
 93
       13
 44
0.0
173
     0
291
     1
 45
0.0
1001
ACAD
1000
AcDbSavedByObjectVersion
1070
     0
  0
VISUALSTYLE
  5
38
102
{ACAD_REACTORS
330
2A
102
}
330
2A
100
AcDbVisualStyle
  2
Linepattern
 70
    14
 71
     2
 72
     2
 73
     0
 90
        0
 40
-0.6
 41
-30.0
 62
     5
 63
     7
 74
     1
 91
        4
 64
     7
 65
   257
 75
     7
175
     7
 42
1.0
 92
        8
 66
     7
 43
1.0
 76
     1
 77
     6
 78
     2
 67
     7
 79
     5
170
     0
171
     0
290
     0
174
     0
 93
        1
 44
0.0
173
     0
291
     1
 45
0.0
1001
ACAD
1000
AcDbSavedByObjectVersion
1070
     0
  0
VISUALSTYLE
  5
33
102
{ACAD_REACTORS
330
2A
102
}
330
2A
100
AcDbVisualStyle
  2
Realistic
 70
     8
 71
     2
 72
     2
 73
     0
 90
        0
 40
-0.6
 41
-30.0
 62
     5
 63
     7
 74
     1
 91
        0
 64
     7
 65
   257
 75
     1
175
     1
 42
1.0
 92
        8
 66
     8
 43
1.0
 76
     1
 77
     6
 78
     2
 67
     7
 79
     5
170
     0
171
     0
290
     0
174
     0
 93
       13
 44
0.0
173
     0
291
     0
 45
0.0
1001
ACAD
1000
AcDbSavedByObjectVersion
1070
     0
  0
VISUALSTYLE
  5
37
102
{ACAD_REACTORS
330
2A
102
}
330
2A
100
AcDbVisualStyle
  2
Thicken
 70
    13
 71
     2
 72
     2
 73
     0
 90
        0
 40
-0.6
 41
-30.0
 62
     5
 63
     7
 74
     1
 91
        4
 64
     7
 65
   257
 75
     1
175
     1
 42
1.0
 92
       12
 66
     7
 43
1.0
 76
     1
 77
     6
 78
     2
 67
     7
 79
     5
170
     0
171
     0
290
     0
174
     0
 93
        1
 44
0.0
173
     0
291
     1
 45
0.0
1001
ACAD
1000
AcDbSavedByObjectVersion
1070
     0
  0
ENDSEC
  0
EOF
