  0
SECTION
  2
HEADER
  9
$ACADVER
  1
AC1015
  9
$ACADMAINTVER
 70
     6
  9
$DWGCODEPAGE
  3
ANSI_1252
  9
$INSBASE
 10
0.0
 20
0.0
 30
0.0
  9
$EXTMIN
 10
1.000000000000000E+20
 20
1.000000000000000E+20
 30
1.000000000000000E+20
  9
$EXTMAX
 10
-1.000000000000000E+20
 20
-1.000000000000000E+20
 30
-1.000000000000000E+20
  9
$LIMMIN
 10
0.0
 20
0.0
  9
$LIMMAX
 10
12.0
 20
9.0
  9
$ORTHOMODE
 70
     0
  9
$REGENMODE
 70
     1
  9
$FILLMODE
 70
     1
  9
$QTEXTMODE
 70
     0
  9
$MIRRTEXT
 70
     1
  9
$LTSCALE
 40
1.0
  9
$ATTMODE
 70
     1
  9
$TEXTSIZE
 40
0.2
  9
$TRACEWID
 40
0.05
  9
$TEXTSTYLE
  7
Standard
  9
$CLAYER
  8
0
  9
$CELTYPE
  6
ByLayer
  9
$CECOLOR
 62
   256
  9
$CELTSCALE
 40
1.0
  9
$DISPSILH
 70
     0
  9
$DIMSCALE
 40
1.0
  9
$DIMASZ
 40
0.18
  9
$DIMEXO
 40
0.0625
  9
$DIMDLI
 40
0.38
  9
$DIMRND
 40
0.0
  9
$DIMDLE
 40
0.0
  9
$DIMEXE
 40
0.18
  9
$DIMTP
 40
0.0
  9
$DIMTM
 40
0.0
  9
$DIMTXT
 40
0.18
  9
$DIMCEN
 40
0.09
  9
$DIMTSZ
 40
0.0
  9
$DIMTOL
 70
     0
  9
$DIMLIM
 70
     0
  9
$DIMTIH
 70
     1
  9
$DIMTOH
 70
     1
  9
$DIMSE1
 70
     0
  9
$DIMSE2
 70
     0
  9
$DIMTAD
 70
     0
  9
$DIMZIN
 70
     0
  9
$DIMBLK
  1

  9
$DIMASO
 70
     1
  9
$DIMSHO
 70
     1
  9
$DIMPOST
  1

  9
$DIMAPOST
  1

  9
$DIMALT
 70
     0
  9
$DIMALTD
 70
     2
  9
$DIMALTF
 40
25.4
  9
$DIMLFAC
 40
1.0
  9
$DIMTOFL
 70
     0
  9
$DIMTVP
 40
0.0
  9
$DIMTIX
 70
     0
  9
$DIMSOXD
 70
     0
  9
$DIMSAH
 70
     0
  9
$DIMBLK1
  1

  9
$DIMBLK2
  1

  9
$DIMSTYLE
  2
Standard
  9
$DIMCLRD
 70
     0
  9
$DIMCLRE
 70
     0
  9
$DIMCLRT
 70
     0
  9
$DIMTFAC
 40
1.0
  9
$DIMGAP
 40
0.09
  9
$DIMJUST
 70
     0
  9
$DIMSD1
 70
     0
  9
$DIMSD2
 70
     0
  9
$DIMTOLJ
 70
     1
  9
$DIMTZIN
 70
     0
  9
$DIMALTZ
 70
     0
  9
$DIMALTTZ
 70
     0
  9
$DIMUPT
 70
     0
  9
$DIMDEC
 70
     4
  9
$DIMTDEC
 70
     4
  9
$DIMALTU
 70
     2
  9
$DIMALTTD
 70
     2
  9
$DIMTXSTY
  7
Standard
  9
$DIMAUNIT
 70
     0
  9
$DIMADEC
 70
     0
  9
$DIMALTRND
 40
0.0
  9
$DIMAZIN
 70
     0
  9
$DIMDSEP
 70
    46
  9
$DIMATFIT
 70
     3
  9
$DIMFRAC
 70
     0
  9
$DIMLDRBLK
  1

  9
$DIMLUNIT
 70
     2
  9
$DIMLWD
 70
    -2
  9
$DIMLWE
 70
    -2
  9
$DIMTMOVE
 70
     0
  9
$LUNITS
 70
     2
  9
$LUPREC
 70
     4
  9
$SKETCHINC
 40
0.1
  9
$FILLETRAD
 40
0.5
  9
$AUNITS
 70
     0
  9
$AUPREC
 70
     0
  9
$MENU
  1
.
  9
$ELEVATION
 40
0.0
  9
$PELEVATION
 40
0.0
  9
$THICKNESS
 40
0.0
  9
$LIMCHECK
 70
     0
  9
$CHAMFERA
 40
0.5
  9
$CHAMFERB
 40
0.5
  9
$CHAMFERC
 40
1.0
  9
$CHAMFERD
 40
0.0
  9
$SKPOLY
 70
     0
  9
$TDCREATE
 40
2456510.557822488
  9
$TDUCREATE
 40
2456510.161989155
  9
$TDUPDATE
 40
2456510.5578225
  9
$TDUUPDATE
 40
2456510.161989167
  9
$TDINDWG
 40
0.0000000116
  9
$TDUSRTIMER
 40
0.0000000116
  9
$USRTIMER
 70
     1
  9
$ANGBASE
 50
0.0
  9
$ANGDIR
 70
     0
  9
$PDMODE
 70
     0
  9
$PDSIZE
 40
0.0
  9
$PLINEWID
 40
0.0
  9
$SPLFRAME
 70
     0
  9
$SPLINETYPE
 70
     6
  9
$SPLINESEGS
 70
     8
  9
$HANDSEED
  5
578
  9
$SURFTAB1
 70
     6
  9
$SURFTAB2
 70
     6
  9
$SURFTYPE
 70
     6
  9
$SURFU
 70
     6
  9
$SURFV
 70
     6
  9
$UCSBASE
  2

  9
$UCSNAME
  2

  9
$UCSORG
 10
0.0
 20
0.0
 30
0.0
  9
$UCSXDIR
 10
1.0
 20
0.0
 30
0.0
  9
$UCSYDIR
 10
0.0
 20
1.0
 30
0.0
  9
$UCSORTHOREF
  2

  9
$UCSORTHOVIEW
 70
     0
  9
$UCSORGTOP
 10
0.0
 20
0.0
 30
0.0
  9
$UCSORGBOTTOM
 10
0.0
 20
0.0
 30
0.0
  9
$UCSORGLEFT
 10
0.0
 20
0.0
 30
0.0
  9
$UCSORGRIGHT
 10
0.0
 20
0.0
 30
0.0
  9
$UCSORGFRONT
 10
0.0
 20
0.0
 30
0.0
  9
$UCSORGBACK
 10
0.0
 20
0.0
 30
0.0
  9
$PUCSBASE
  2

  9
$PUCSNAME
  2

  9
$PUCSORG
 10
0.0
 20
0.0
 30
0.0
  9
$PUCSXDIR
 10
1.0
 20
0.0
 30
0.0
  9
$PUCSYDIR
 10
0.0
 20
1.0
 30
0.0
  9
$PUCSORTHOREF
  2

  9
$PUCSORTHOVIEW
 70
     0
  9
$PUCSORGTOP
 10
0.0
 20
0.0
 30
0.0
  9
$PUCSORGBOTTOM
 10
0.0
 20
0.0
 30
0.0
  9
$PUCSORGLEFT
 10
0.0
 20
0.0
 30
0.0
  9
$PUCSORGRIGHT
 10
0.0
 20
0.0
 30
0.0
  9
$PUCSORGFRONT
 10
0.0
 20
0.0
 30
0.0
  9
$PUCSORGBACK
 10
0.0
 20
0.0
 30
0.0
  9
$USERI1
 70
     0
  9
$USERI2
 70
     0
  9
$USERI3
 70
     0
  9
$USERI4
 70
     0
  9
$USERI5
 70
     0
  9
$USERR1
 40
0.0
  9
$USERR2
 40
0.0
  9
$USERR3
 40
0.0
  9
$USERR4
 40
0.0
  9
$USERR5
 40
0.0
  9
$WORLDVIEW
 70
     1
  9
$SHADEDGE
 70
     3
  9
$SHADEDIF
 70
    70
  9
$TILEMODE
 70
     1
  9
$MAXACTVP
 70
    64
  9
$PINSBASE
 10
0.0
 20
0.0
 30
0.0
  9
$PLIMCHECK
 70
     0
  9
$PEXTMIN
 10
1.000000000000000E+20
 20
1.000000000000000E+20
 30
1.000000000000000E+20
  9
$PEXTMAX
 10
-1.000000000000000E+20
 20
-1.000000000000000E+20
 30
-1.000000000000000E+20
  9
$PLIMMIN
 10
0.0
 20
0.0
  9
$PLIMMAX
 10
12.0
 20
9.0
  9
$UNITMODE
 70
     0
  9
$VISRETAIN
 70
     1
  9
$PLINEGEN
 70
     0
  9
$PSLTSCALE
 70
     1
  9
$TREEDEPTH
 70
  3020
  9
$CMLSTYLE
  2
Standard
  9
$CMLJUST
 70
     0
  9
$CMLSCALE
 40
1.0
  9
$PROXYGRAPHICS
 70
     1
  9
$MEASUREMENT
 70
     0
  9
$CELWEIGHT
370
    -1
  9
$ENDCAPS
280
     0
  9
$JOINSTYLE
280
     0
  9
$LWDISPLAY
290
     1
  9
$INSUNITS
 70
     1
  9
$HYPERLINKBASE
  1

  9
$STYLESHEET
  1

  9
$XEDIT
290
     1
  9
$CEPSNTYPE
380
     0
  9
$PSTYLEMODE
290
     1
  9
$FINGERPRINTGUID
  2
{2B9AD48C-372B-4224-8794-E4E02428550D}
  9
$VERSIONGUID
  2
{FAEB1C32-E019-11D5-929B-00C0DF256EC4}
  9
$EXTNAMES
290
     1
  9
$PSVPSCALE
 40
0.0
  9
$OLESTARTUP
290
     0
  0
ENDSEC
  0
SECTION
  2
CLASSES
  0
CLASS
  1
ACDBDICTIONARYWDFLT
  2
AcDbDictionaryWithDefault
  3
ObjectDBX Classes
 90
        0
280
     0
281
     0
  0
CLASS
  1
VISUALSTYLE
  2
AcDbVisualStyle
  3
ObjectDBX Classes
 90
     4095
280
     0
281
     0
  0
CLASS
  1
ACDBPLACEHOLDER
  2
AcDbPlaceHolder
  3
ObjectDBX Classes
 90
        0
280
     0
281
     0
  0
CLASS
  1
LAYOUT
  2
AcDbLayout
  3
ObjectDBX Classes
 90
        0
280
     0
281
     0
  0
ENDSEC
  0
SECTION
  2
TABLES
  0
TABLE
  2
VPORT
  5
8
330
0
100
AcDbSymbolTable
 70
     1
  0
VPORT
  5
29
330
8
100
AcDbSymbolTableRecord
100
AcDbViewportTableRecord
  2
*Active
 70
     0
 10
0.0
 20
0.0
 11
1.0
 21
1.0
 12
0.0
 22
0.0
 13
0.0
 23
0.0
 14
0.5
 24
0.5
 15
0.5
 25
0.5
 16
0.0
 26
0.0
 36
1.0
 17
401.0937777046311
 27
689.8735668576966
 37
0.0
 40
1379.747133715393
 41
1.141901024991383
 42
50.0
 43
0.0
 44
0.0
 50
0.0
 51
0.0
 71
     0
 72
   100
 73
     1
 74
     3
 75
     0
 76
     0
 77
     0
 78
     0
281
     0
 65
     1
110
0.0
120
0.0
130
0.0
111
1.0
121
0.0
131
0.0
112
0.0
122
1.0
132
0.0
 79
     0
146
0.0
  0
ENDTAB
  0
TABLE
  2
LTYPE
  5
5
330
0
100
AcDbSymbolTable
 70
     1
  0
LTYPE
  5
14
330
5
100
AcDbSymbolTableRecord
100
AcDbLinetypeTableRecord
  2
ByBlock
 70
     0
  3

 72
    65
 73
     0
 40
0.0
  0
LTYPE
  5
15
330
5
100
AcDbSymbolTableRecord
100
AcDbLinetypeTableRecord
  2
ByLayer
 70
     0
  3

 72
    65
 73
     0
 40
0.0
  0
LTYPE
  5
16
330
5
100
AcDbSymbolTableRecord
100
AcDbLinetypeTableRecord
  2
Continuous
 70
     0
  3
Solid line
 72
    65
 73
     0
 40
0.0
  0
ENDTAB
  0
TABLE
  2
LAYER
  5
2
330
0
100
AcDbSymbolTable
 70
     2
  0
LAYER
  5
10
330
2
100
AcDbSymbolTableRecord
100
AcDbLayerTableRecord
  2
0
 70
     0
 62
     7
  6
Continuous
370
    -3
390
F
  0
LAYER
  5
3B
330
2
100
AcDbSymbolTableRecord
100
AcDbLayerTableRecord
  2
Layer 1
 70
     0
 62
     7
  6
Continuous
370
    -3
390
F
  0
ENDTAB
  0
TABLE
  2
STYLE
  5
3
330
0
100
AcDbSymbolTable
 70
     1
  0
STYLE
  5
11
330
3
100
AcDbSymbolTableRecord
100
AcDbTextStyleTableRecord
  2
Standard
 70
     0
 40
0.0
 41
1.0
 50
0.0
 71
     0
 42
0.2
  3
txt
  4

  0
ENDTAB
  0
TABLE
  2
VIEW
  5
6
330
0
100
AcDbSymbolTable
 70
     0
  0
ENDTAB
  0
TABLE
  2
UCS
  5
7
330
0
100
AcDbSymbolTable
 70
     0
  0
ENDTAB
  0
TABLE
  2
APPID
  5
9
330
0
100
AcDbSymbolTable
 70
     1
  0
APPID
  5
12
330
9
100
AcDbSymbolTableRecord
100
AcDbRegAppTableRecord
  2
ACAD
 70
     0
  0
ENDTAB
  0
TABLE
  2
DIMSTYLE
  5
A
330
0
100
AcDbSymbolTable
 70
     1
100
AcDbDimStyleTable
  0
DIMSTYLE
105
27
330
A
100
AcDbSymbolTableRecord
100
AcDbDimStyleTableRecord
  2
Standard
 70
     0
340
11
  0
ENDTAB
  0
TABLE
  2
BLOCK_RECORD
  5
1
330
0
100
AcDbSymbolTable
 70
     3
  0
BLOCK_RECORD
  5
1F
330
1
100
AcDbSymbolTableRecord
100
AcDbBlockTableRecord
  2
*Model_Space
340
22
  0
BLOCK_RECORD
  5
1B
330
1
100
AcDbSymbolTableRecord
100
AcDbBlockTableRecord
  2
*Paper_Space
340
1E
  0
BLOCK_RECORD
  5
23
330
1
100
AcDbSymbolTableRecord
100
AcDbBlockTableRecord
  2
*Paper_Space0
340
26
  0
BLOCK_RECORD
  5
3C
330
1
100
AcDbSymbolTableRecord
100
AcDbBlockTableRecord
  2
block 2
340
0
102
{BLKREFS
331
3D
102
}
  0
BLOCK_RECORD
  5
564
330
1
100
AcDbSymbolTableRecord
100
AcDbBlockTableRecord
  2
block 3
340
0
102
{BLKREFS
331
565
102
}
  0
ENDTAB
  0
ENDSEC
  0
SECTION
  2
BLOCKS
  0
BLOCK
  5
20
330
1F
100
AcDbEntity
  8
0
100
AcDbBlockBegin
  2
*Model_Space
 70
     0
 71
     0
 10
0.0
 20
0.0
 30
0.0
  3
*Model_Space
  1

  0
ENDBLK
  5
21
330
1F
100
AcDbEntity
  8
0
100
AcDbBlockEnd
  0
BLOCK
  5
1C
330
1B
100
AcDbEntity
 67
     1
  8
0
100
AcDbBlockBegin
  2
*Paper_Space
 70
     0
 71
     0
 10
0.0
 20
0.0
 30
0.0
  3
*Paper_Space
  1

  0
ENDBLK
  5
1D
330
1B
100
AcDbEntity
 67
     1
  8
0
100
AcDbBlockEnd
  0
BLOCK
  5
24
330
23
100
AcDbEntity
  8
0
100
AcDbBlockBegin
  2
*Paper_Space0
 70
     0
 71
     0
 10
0.0
 20
0.0
 30
0.0
  3
*Paper_Space0
  1

  0
ENDBLK
  5
25
330
23
100
AcDbEntity
  8
0
100
AcDbBlockEnd
  0
BLOCK
  5
3E
330
3C
100
AcDbEntity
  8
0
100
AcDbBlockBegin
  2
block 2
 70
     0
 71
     0
 10
0.0
 20
0.0
 30
0.0
  3
block 2
  1

  0
SPLINE
  5
40
330
3C
100
AcDbEntity
  8
Layer 1
 62
     7
370
    15
100
AcDbSpline
210
0.0
220
0.0
230
1.0
 70
     8
 71
     3
 72
     8
 73
     4
 74
     0
 42
0.0000000001
 43
0.0000000001
 40
0.0
 40
0.0
 40
0.0
 40
0.0
 40
1.0
 40
1.0
 40
1.0
 40
1.0
 10
460.0277342599931
 20
115.9102376012308
 30
0.0
 10
472.7573620779912
 20
116.1148762730546
 30
0.0
 10
485.4880234246349
 20
116.3195149448785
 30
0.0
 10
498.2951658910512
 20
116.5248426357993
 30
0.0
  0
SPLINE
  5
41
330
3C
100
AcDbEntity
  8
Layer 1
 62
     7
370
    15
100
AcDbSpline
210
0.0
220
0.0
230
1.0
 70
     8
 71
     3
 72
     8
 73
     4
 74
     0
 42
0.0000000001
 43
0.0000000001
 40
0.0
 40
0.0
 40
0.0
 40
0.0
 40
1.0
 40
1.0
 40
1.0
 40
1.0
 10
498.2951658910512
 20
116.5248426357993
 30
0.0
 10
511.184646139565
 20
116.7329264031084
 30
0.0
 10
524.1523300555939
 20
116.9410101704175
 30
0.0
 10
537.1696233466104
 20
117.1504719759207
 30
0.0
  0
SPLINE
  5
42
330
3C
100
AcDbEntity
  8
Layer 1
 62
     7
370
    15
100
AcDbSpline
210
0.0
220
0.0
230
1.0
 70
     8
 71
     3
 72
     8
 73
     4
 74
     0
 42
0.0000000001
 43
0.0000000001
 40
0.0
 40
0.0
 40
0.0
 40
0.0
 40
1.0
 40
1.0
 40
1.0
 40
1.0
 10
537.1696233466104
 20
117.1504719759207
 30
0.0
 10
550.0783961298415
 20
117.3578667241328
 30
0.0
 10
563.0360892689632
 20
117.5666395105389
 30
0.0
 10
576.0444253117181
 20
117.775412296945
 30
0.0
  0
SPLINE
  5
43
330
3C
100
AcDbEntity
  8
Layer 1
 62
     7
370
    15
100
AcDbSpline
210
0.0
220
0.0
230
1.0
 70
     8
 71
     3
 72
     8
 73
     4
 74
     0
 42
0.0000000001
 43
0.0000000001
 40
0.0
 40
0.0
 40
0.0
 40
0.0
 40
1.0
 40
1.0
 40
1.0
 40
1.0
 10
576.0444253117181
 20
117.775412296945
 30
0.0
 10
588.9556096617889
 20
117.9834960642541
 30
0.0
 10
601.9167478963958
 20
118.1908908124662
 30
0.0
 10
614.9199162959228
 20
118.3996635988723
 30
0.0
  0
SPLINE
  5
44
330
3C
100
AcDbEntity
  8
Layer 1
 62
     7
370
    15
100
AcDbSpline
210
0.0
220
0.0
230
1.0
 70
     8
 71
     3
 72
     8
 73
     4
 74
     0
 42
0.0000000001
 43
0.0000000001
 40
0.0
 40
0.0
 40
0.0
 40
0.0
 40
1.0
 40
1.0
 40
1.0
 40
1.0
 10
614.9199162959228
 20
118.3996635988723
 30
0.0
 10
627.8379908369642
 20
118.6077473661814
 30
0.0
 10
640.7980955429255
 20
118.8158311334905
 30
0.0
 10
653.7947182610305
 20
119.0252929389937
 30
0.0
  0
SPLINE
  5
45
330
3C
100
AcDbEntity
  8
Layer 1
 62
     7
370
    15
100
AcDbSpline
210
0.0
220
0.0
230
1.0
 70
     8
 71
     3
 72
     8
 73
     4
 74
     0
 42
0.0000000001
 43
0.0000000001
 40
0.0
 40
0.0
 40
0.0
 40
0.0
 40
1.0
 40
1.0
 40
1.0
 40
1.0
 10
653.7947182610305
 20
119.0252929389937
 30
0.0
 10
666.7193384834939
 20
119.2326876872057
 30
0.0
 10
679.6801322085522
 20
119.4414604736119
 30
0.0
 10
692.6695202261382
 20
119.650233260018
 30
0.0
  0
SPLINE
  5
46
330
3C
100
AcDbEntity
  8
Layer 1
 62
     7
370
    15
100
AcDbSpline
210
0.0
220
0.0
230
1.0
 70
     8
 71
     3
 72
     8
 73
     4
 74
     0
 42
0.0000000001
 43
0.0000000001
 40
0.0
 40
0.0
 40
0.0
 40
0.0
 40
1.0
 40
1.0
 40
1.0
 40
1.0
 10
692.6695202261382
 20
119.650233260018
 30
0.0
 10
705.6006861300235
 20
119.8583170273271
 30
0.0
 10
718.5590682882422
 20
120.0664007946362
 30
0.0
 10
731.545011210343
 20
120.2751735810423
 30
0.0
  0
SPLINE
  5
47
330
3C
100
AcDbEntity
  8
Layer 1
 62
     7
370
    15
100
AcDbSpline
210
0.0
220
0.0
230
1.0
 70
     8
 71
     3
 72
     8
 73
     4
 74
     0
 42
0.0000000001
 43
0.0000000001
 40
0.0
 40
0.0
 40
0.0
 40
0.0
 40
1.0
 40
1.0
 40
1.0
 40
1.0
 10
731.545011210343
 20
120.2751735810423
 30
0.0
 10
744.4854788720384
 20
120.4832573483514
 30
0.0
 10
757.4521292594218
 20
120.6920301347576
 30
0.0
 10
770.4198131754506
 20
120.9008029211637
 30
0.0
  0
SPLINE
  5
48
330
3C
100
AcDbEntity
  8
Layer 1
 62
     7
370
    15
100
AcDbSpline
210
0.0
220
0.0
230
1.0
 70
     8
 71
     3
 72
     8
 73
     4
 74
     0
 42
0.0000000001
 43
0.0000000001
 40
0.0
 40
0.0
 40
0.0
 40
0.0
 40
1.0
 40
1.0
 40
1.0
 40
1.0
 10
30.37230630751109
 20
120.9008029211637
 30
0.0
 10
39.00588784832145
 20
120.7616210635596
 30
0.0
 10
47.63878037003475
 20
120.6231282250526
 30
0.0
 10
56.28889836917431
 20
120.4839463674485
 30
0.0
  0
SPLINE
  5
49
330
3C
100
AcDbEntity
  8
Layer 1
 62
     7
370
    15
100
AcDbSpline
210
0.0
220
0.0
230
1.0
 70
     8
 71
     3
 72
     8
 73
     4
 74
     0
 42
0.0000000001
 43
0.0000000001
 40
0.0
 40
0.0
 40
0.0
 40
0.0
 40
1.0
 40
1.0
 40
1.0
 40
1.0
 10
56.28889836917431
 20
120.4839463674485
 30
0.0
 10
64.91627873811122
 20
120.3447645098444
 30
0.0
 10
73.56002331060306
 20
120.2062716713373
 30
0.0
 10
82.20566268561178
 20
120.0670898137332
 30
0.0
  0
SPLINE
  5
4A
330
3C
100
AcDbEntity
  8
Layer 1
 62
     7
370
    15
100
AcDbSpline
210
0.0
220
0.0
230
1.0
 70
     8
 71
     3
 72
     8
 73
     4
 74
     0
 42
0.0000000001
 43
0.0000000001
 40
0.0
 40
0.0
 40
0.0
 40
0.0
 40
1.0
 40
1.0
 40
1.0
 40
1.0
 10
82.20566268561178
 20
120.0670898137332
 30
0.0
 10
90.8449286339728
 20
119.9279079561291
 30
0.0
 10
99.48626163962497
 20
119.7894151176221
 30
0.0
 10
108.122254747275
 20
119.650233260018
 30
0.0
  0
SPLINE
  5
4B
330
3C
100
AcDbEntity
  8
Layer 1
 62
     7
370
    15
100
AcDbSpline
210
0.0
220
0.0
230
1.0
 70
     8
 71
     3
 72
     8
 73
     4
 74
     0
 42
0.0000000001
 43
0.0000000001
 40
0.0
 40
0.0
 40
0.0
 40
0.0
 40
1.0
 40
1.0
 40
1.0
 40
1.0
 10
108.122254747275
 20
119.650233260018
 30
0.0
 10
116.7694444152521
 20
119.5110514024139
 30
0.0
 10
125.4111219304528
 20
119.3725585639069
 30
0.0
 10
134.0388468089382
 20
119.2333767063028
 30
0.0
  0
SPLINE
  5
4C
330
3C
100
AcDbEntity
  8
Layer 1
 62
     7
370
    15
100
AcDbSpline
210
0.0
220
0.0
230
1.0
 70
     8
 71
     3
 72
     8
 73
     4
 74
     0
 42
0.0000000001
 43
0.0000000001
 40
0.0
 40
0.0
 40
0.0
 40
0.0
 40
1.0
 40
1.0
 40
1.0
 40
1.0
 10
134.0388468089382
 20
119.2333767063028
 30
0.0
 10
142.6948214704027
 20
119.0948838677957
 30
0.0
 10
151.3361544760548
 20
118.9557020101916
 30
0.0
 10
159.9554388706014
 20
118.8165201525875
 30
0.0
  0
SPLINE
  5
4D
330
3C
100
AcDbEntity
  8
Layer 1
 62
     7
370
    15
100
AcDbSpline
210
0.0
220
0.0
230
1.0
 70
     8
 71
     3
 72
     8
 73
     4
 74
     0
 42
0.0000000001
 43
0.0000000001
 40
0.0
 40
0.0
 40
0.0
 40
0.0
 40
1.0
 40
1.0
 40
1.0
 40
1.0
 10
159.9554388706014
 20
118.8165201525875
 30
0.0
 10
168.619337251682
 20
118.6780273140805
 30
0.0
 10
177.2610147668827
 20
118.5388454564764
 30
0.0
 10
185.8720309322646
 20
118.3996635988723
 30
0.0
  0
SPLINE
  5
4E
330
3C
100
AcDbEntity
  8
Layer 1
 62
     7
370
    15
100
AcDbSpline
210
0.0
220
0.0
230
1.0
 70
     8
 71
     3
 72
     8
 73
     4
 74
     0
 42
0.0000000001
 43
0.0000000001
 40
0.0
 40
0.0
 40
0.0
 40
0.0
 40
1.0
 40
1.0
 40
1.0
 40
1.0
 10
185.8720309322646
 20
118.3996635988723
 30
0.0
 10
194.5441975425098
 20
118.2611707603653
 30
0.0
 10
203.1857028029362
 20
118.1219889027612
 30
0.0
 10
211.7887952487021
 20
117.9841850833512
 30
0.0
  0
SPLINE
  5
4F
330
3C
100
AcDbEntity
  8
Layer 1
 62
     7
370
    15
100
AcDbSpline
210
0.0
220
0.0
230
1.0
 70
     8
 71
     3
 72
     8
 73
     4
 74
     0
 42
0.0000000001
 43
0.0000000001
 40
0.0
 40
0.0
 40
0.0
 40
0.0
 40
1.0
 40
1.0
 40
1.0
 40
1.0
 10
211.7887952487021
 20
117.9841850833512
 30
0.0
 10
220.4683688142406
 20
117.84431420665
 30
0.0
 10
229.1093573103442
 20
117.7051323490459
 30
0.0
 10
237.7053873103653
 20
117.567328529636
 30
0.0
  0
SPLINE
  5
50
330
3C
100
AcDbEntity
  8
Layer 1
 62
     7
370
    15
100
AcDbSpline
210
0.0
220
0.0
230
1.0
 70
     8
 71
     3
 72
     8
 73
     4
 74
     0
 42
0.0000000001
 43
0.0000000001
 40
0.0
 40
0.0
 40
0.0
 40
0.0
 40
1.0
 40
1.0
 40
1.0
 40
1.0
 10
237.7053873103653
 20
117.567328529636
 30
0.0
 10
246.3925400859713
 20
117.4274576529348
 30
0.0
 10
255.0338730916235
 20
117.2882757953307
 30
0.0
 10
263.6219793720285
 20
117.1504719759207
 30
0.0
  0
SPLINE
  5
51
330
3C
100
AcDbEntity
  8
Layer 1
 62
     7
370
    15
100
AcDbSpline
210
0.0
220
0.0
230
1.0
 70
     8
 71
     3
 72
     8
 73
     4
 74
     0
 42
0.0000000001
 43
0.0000000001
 40
0.0
 40
0.0
 40
0.0
 40
0.0
 40
1.0
 40
1.0
 40
1.0
 40
1.0
 10
263.6219793720285
 20
117.1504719759207
 30
0.0
 10
272.3149888099595
 20
117.0106010992196
 30
0.0
 10
280.9533934844492
 20
116.8714192416155
 30
0.0
 10
289.5385714336917
 20
116.7336154222055
 30
0.0
  0
SPLINE
  5
52
330
3C
100
AcDbEntity
  8
Layer 1
 62
     7
370
    15
100
AcDbSpline
210
0.0
220
0.0
230
1.0
 70
     8
 71
     3
 72
     8
 73
     4
 74
     0
 42
0.0000000001
 43
0.0000000001
 40
0.0
 40
0.0
 40
0.0
 40
0.0
 40
1.0
 40
1.0
 40
1.0
 40
1.0
 10
289.5385714336917
 20
116.7336154222055
 30
0.0
 10
298.2415716485299
 20
116.5937445455044
 30
0.0
 10
306.8899670999268
 20
116.4552517069973
 30
0.0
 10
315.455163495355
 20
116.3167588684903
 30
0.0
  0
SPLINE
  5
53
330
3C
100
AcDbEntity
  8
Layer 1
 62
     7
370
    15
100
AcDbSpline
210
0.0
220
0.0
230
1.0
 70
     8
 71
     3
 72
     8
 73
     4
 74
     0
 42
0.0000000001
 43
0.0000000001
 40
0.0
 40
0.0
 40
0.0
 40
0.0
 40
1.0
 40
1.0
 40
1.0
 40
1.0
 10
315.455163495355
 20
116.3167588684903
 30
0.0
 10
323.946118083076
 20
116.1803330872744
 30
0.0
 10
332.3557684173451
 20
116.0445963251555
 30
0.0
 10
340.7645574777429
 20
115.9102376012308
 30
0.0
  0
POLYLINE
  5
54
330
3C
100
AcDbEntity
  8
Layer 1
 62
     7
370
    15
100
AcDb2dPolyline
 66
     1
 10
0.0
 20
0.0
 30
0.0
  0
VERTEX
  5
55
330
54
100
AcDbEntity
  8
Layer 1
 62
     7
370
    15
100
AcDbVertex
100
AcDb2dVertex
 10
-4.603336587390833
 20
347.3999836371083
 30
0.0
  0
VERTEX
  5
56
330
54
100
AcDbEntity
  8
Layer 1
 62
     7
370
    15
100
AcDbVertex
100
AcDb2dVertex
 10
5.396569822869608
 20
347.3999836371083
 30
0.0
  0
SEQEND
  5
57
330
54
100
AcDbEntity
  8
Layer 1
370
    15
  0
POLYLINE
  5
58
330
3C
100
AcDbEntity
  8
Layer 1
 62
     7
370
    15
100
AcDb2dPolyline
 66
     1
 10
0.0
 20
0.0
 30
0.0
  0
VERTEX
  5
59
330
58
100
AcDbEntity
  8
Layer 1
 62
     7
370
    15
100
AcDbVertex
100
AcDb2dVertex
 10
5.396569822869608
 20
345.8999890628306
 30
0.0
  0
VERTEX
  5
5A
330
58
100
AcDbEntity
  8
Layer 1
 62
     7
370
    15
100
AcDbVertex
100
AcDb2dVertex
 10
5.396569822869608
 20
347.3999836371083
 30
0.0
  0
SEQEND
  5
5B
330
58
100
AcDbEntity
  8
Layer 1
370
    15
  0
POLYLINE
  5
5C
330
3C
100
AcDbEntity
  8
Layer 1
 62
     7
370
    15
100
AcDb2dPolyline
 66
     1
 10
0.0
 20
0.0
 30
0.0
  0
VERTEX
  5
5D
330
5C
100
AcDbEntity
  8
Layer 1
 62
     7
370
    15
100
AcDbVertex
100
AcDb2dVertex
 10
-4.603336587390833
 20
345.8999890628306
 30
0.0
  0
VERTEX
  5
5E
330
5C
100
AcDbEntity
  8
Layer 1
 62
     7
370
    15
100
AcDbVertex
100
AcDb2dVertex
 10
-4.603336587390833
 20
347.3999836371083
 30
0.0
  0
SEQEND
  5
5F
330
5C
100
AcDbEntity
  8
Layer 1
370
    15
  0
POLYLINE
  5
60
330
3C
100
AcDbEntity
  8
Layer 1
 62
     7
370
    15
100
AcDb2dPolyline
 66
     1
 10
0.0
 20
0.0
 30
0.0
  0
VERTEX
  5
61
330
60
100
AcDbEntity
  8
Layer 1
 62
     7
370
    15
100
AcDbVertex
100
AcDb2dVertex
 10
-4.603336587390833
 20
345.8999890628306
 30
0.0
  0
VERTEX
  5
62
330
60
100
AcDbEntity
  8
Layer 1
 62
     7
370
    15
100
AcDbVertex
100
AcDb2dVertex
 10
5.396569822869608
 20
345.8999890628306
 30
0.0
  0
SEQEND
  5
63
330
60
100
AcDbEntity
  8
Layer 1
370
    15
  0
POLYLINE
  5
64
330
3C
100
AcDbEntity
  8
Layer 1
 62
     7
370
    15
100
AcDb2dPolyline
 66
     1
 10
0.0
 20
0.0
 30
0.0
  0
VERTEX
  5
65
330
64
100
AcDbEntity
  8
Layer 1
 62
     7
370
    15
100
AcDbVertex
100
AcDb2dVertex
 10
795.3950328957693
 20
345.8999890628306
 30
0.0
  0
VERTEX
  5
66
330
64
100
AcDbEntity
  8
Layer 1
 62
     7
370
    15
100
AcDbVertex
100
AcDb2dVertex
 10
795.3950328957693
 20
347.3999836371083
 30
0.0
  0
SEQEND
  5
67
330
64
100
AcDbEntity
  8
Layer 1
370
    15
  0
POLYLINE
  5
68
330
3C
100
AcDbEntity
  8
Layer 1
 62
     7
370
    15
100
AcDb2dPolyline
 66
     1
 10
0.0
 20
0.0
 30
0.0
  0
VERTEX
  5
69
330
68
100
AcDbEntity
  8
Layer 1
 62
     7
370
    15
100
AcDbVertex
100
AcDb2dVertex
 10
5.396569822869608
 20
347.3999836371083
 30
0.0
  0
VERTEX
  5
6A
330
68
100
AcDbEntity
  8
Layer 1
 62
     7
370
    15
100
AcDbVertex
100
AcDb2dVertex
 10
795.3950328957693
 20
347.3999836371083
 30
0.0
  0
SEQEND
  5
6B
330
68
100
AcDbEntity
  8
Layer 1
370
    15
  0
POLYLINE
  5
6C
330
3C
100
AcDbEntity
  8
Layer 1
 62
     7
370
    15
100
AcDb2dPolyline
 66
     1
 10
0.0
 20
0.0
 30
0.0
  0
VERTEX
  5
6D
330
6C
100
AcDbEntity
  8
Layer 1
 62
     7
370
    15
100
AcDbVertex
100
AcDb2dVertex
 10
5.396569822869608
 20
345.8999890628306
 30
0.0
  0
VERTEX
  5
6E
330
6C
100
AcDbEntity
  8
Layer 1
 62
     7
370
    15
100
AcDbVertex
100
AcDb2dVertex
 10
795.3950328957693
 20
345.8999890628306
 30
0.0
  0
SEQEND
  5
6F
330
6C
100
AcDbEntity
  8
Layer 1
370
    15
  0
POLYLINE
  5
70
330
3C
100
AcDbEntity
  8
Layer 1
 62
     7
370
    15
100
AcDb2dPolyline
 66
     1
 10
0.0
 20
0.0
 30
0.0
  0
VERTEX
  5
71
330
70
100
AcDbEntity
  8
Layer 1
 62
     7
370
    15
100
AcDbVertex
100
AcDb2dVertex
 10
805.3954560703526
 20
345.8999890628306
 30
0.0
  0
VERTEX
  5
72
330
70
100
AcDbEntity
  8
Layer 1
 62
     7
370
    15
100
AcDbVertex
100
AcDb2dVertex
 10
805.3954560703526
 20
347.3999836371083
 30
0.0
  0
SEQEND
  5
73
330
70
100
AcDbEntity
  8
Layer 1
370
    15
  0
POLYLINE
  5
74
330
3C
100
AcDbEntity
  8
Layer 1
 62
     7
370
    15
100
AcDb2dPolyline
 66
     1
 10
0.0
 20
0.0
 30
0.0
  0
VERTEX
  5
75
330
74
100
AcDbEntity
  8
Layer 1
 62
     7
370
    15
100
AcDbVertex
100
AcDb2dVertex
 10
795.3950328957693
 20
347.3999836371083
 30
0.0
  0
VERTEX
  5
76
330
74
100
AcDbEntity
  8
Layer 1
 62
     7
370
    15
100
AcDbVertex
100
AcDb2dVertex
 10
805.3954560703526
 20
347.3999836371083
 30
0.0
  0
SEQEND
  5
77
330
74
100
AcDbEntity
  8
Layer 1
370
    15
  0
POLYLINE
  5
78
330
3C
100
AcDbEntity
  8
Layer 1
 62
     7
370
    15
100
AcDb2dPolyline
 66
     1
 10
0.0
 20
0.0
 30
0.0
  0
VERTEX
  5
79
330
78
100
AcDbEntity
  8
Layer 1
 62
     7
370
    15
100
AcDbVertex
100
AcDb2dVertex
 10
795.3950328957693
 20
345.8999890628306
 30
0.0
  0
VERTEX
  5
7A
330
78
100
AcDbEntity
  8
Layer 1
 62
     7
370
    15
100
AcDbVertex
100
AcDb2dVertex
 10
805.3954560703526
 20
345.8999890628306
 30
0.0
  0
SEQEND
  5
7B
330
78
100
AcDbEntity
  8
Layer 1
370
    15
  0
SPLINE
  5
7C
330
3C
100
AcDbEntity
  8
Layer 1
 62
     7
370
    15
100
AcDbSpline
210
0.0
220
0.0
230
1.0
 70
    24
 71
     3
 72
     8
 73
     4
 74
     0
 42
0.0000000001
 43
0.0000000001
 40
0.0
 40
0.0
 40
0.0
 40
0.0
 40
1.0
 40
1.0
 40
1.0
 40
1.0
 10
30.38401963216094
 20
120.9001139020666
 30
0.0
 10
30.38401963216094
 20
120.9001139020666
 30
0.0
 10
30.38401963216094
 20
120.9001139020666
 30
0.0
 10
30.38315835828963
 20
120.9001139020666
 30
0.0
  0
SPLINE
  5
7D
330
3C
100
AcDbEntity
  8
Layer 1
 62
     7
370
    15
100
AcDbSpline
210
0.0
220
0.0
230
1.0
 70
     8
 71
     3
 72
     8
 73
     4
 74
     0
 42
0.0000000001
 43
0.0000000001
 40
0.0
 40
0.0
 40
0.0
 40
0.0
 40
1.0
 40
1.0
 40
1.0
 40
1.0
 10
18.8961764818211
 20
132.3998426318306
 30
0.0
 10
18.8961764818211
 20
126.0532877289034
 30
0.0
 10
24.03780923878222
 20
120.9070040930371
 30
0.0
 10
30.38401963216094
 20
120.9001139020666
 30
0.0
  0
SPLINE
  5
7E
330
3C
100
AcDbEntity
  8
Layer 1
 62
     7
370
    15
100
AcDbSpline
210
0.0
220
0.0
230
1.0
 70
     8
 71
     3
 72
     8
 73
     4
 74
     0
 42
0.0000000001
 43
0.0000000001
 40
0.0
 40
0.0
 40
0.0
 40
0.0
 40
1.0
 40
1.0
 40
1.0
 40
1.0
 10
770.4080998508008
 20
120.9001139020666
 30
0.0
 10
776.753965734631
 20
120.9070040930371
 30
0.0
 10
781.8957707463663
 20
126.0532877289034
 30
0.0
 10
781.8957707463663
 20
132.3998426318306
 30
0.0
  0
POLYLINE
  5
7F
330
3C
100
AcDbEntity
  8
Layer 1
 62
     7
370
    15
100
AcDb2dPolyline
 66
     1
 10
0.0
 20
0.0
 30
0.0
  0
VERTEX
  5
80
330
7F
100
AcDbEntity
  8
Layer 1
 62
     7
370
    15
100
AcDbVertex
100
AcDb2dVertex
 10
770.4080998508008
 20
120.9001139020666
 30
0.0
  0
VERTEX
  5
81
330
7F
100
AcDbEntity
  8
Layer 1
 62
     7
370
    15
100
AcDbVertex
100
AcDb2dVertex
 10
770.4080998508008
 20
120.9001139020666
 30
0.0
  0
SEQEND
  5
82
330
7F
100
AcDbEntity
  8
Layer 1
370
    15
  0
POLYLINE
  5
83
330
3C
100
AcDbEntity
  8
Layer 1
 62
     7
370
    15
100
AcDb2dPolyline
 66
     1
 10
0.0
 20
0.0
 30
0.0
  0
VERTEX
  5
84
330
83
100
AcDbEntity
  8
Layer 1
 62
     7
370
    15
100
AcDbVertex
100
AcDb2dVertex
 10
18.8961764818211
 20
132.3998426318306
 30
0.0
  0
VERTEX
  5
85
330
83
100
AcDbEntity
  8
Layer 1
 62
     7
370
    15
100
AcDbVertex
100
AcDb2dVertex
 10
18.8961764818211
 20
345.8999890628306
 30
0.0
  0
SEQEND
  5
86
330
83
100
AcDbEntity
  8
Layer 1
370
    15
  0
POLYLINE
  5
87
330
3C
100
AcDbEntity
  8
Layer 1
 62
     7
370
    15
100
AcDb2dPolyline
 66
     1
 10
0.0
 20
0.0
 30
0.0
  0
VERTEX
  5
88
330
87
100
AcDbEntity
  8
Layer 1
 62
     7
370
    15
100
AcDbVertex
100
AcDb2dVertex
 10
781.8957707463663
 20
132.3998426318306
 30
0.0
  0
VERTEX
  5
89
330
87
100
AcDbEntity
  8
Layer 1
 62
     7
370
    15
100
AcDbVertex
100
AcDb2dVertex
 10
781.8957707463663
 20
345.8999890628306
 30
0.0
  0
SEQEND
  5
8A
330
87
100
AcDbEntity
  8
Layer 1
370
    15
  0
POLYLINE
  5
8B
330
3C
100
AcDbEntity
  8
Layer 1
 62
     7
370
    15
100
AcDb2dPolyline
 66
     1
 10
0.0
 20
0.0
 30
0.0
  0
VERTEX
  5
8C
330
8B
100
AcDbEntity
  8
Layer 1
 62
     7
370
    15
100
AcDbVertex
100
AcDb2dVertex
 10
770.404999264864
 20
120.9001139020666
 30
0.0
  0
VERTEX
  5
8D
330
8B
100
AcDbEntity
  8
Layer 1
 62
     7
370
    15
100
AcDbVertex
100
AcDb2dVertex
 10
692.0356226568522
 20
119.6509222791151
 30
0.0
  0
VERTEX
  5
8E
330
8B
100
AcDbEntity
  8
Layer 1
 62
     7
370
    15
100
AcDbVertex
100
AcDb2dVertex
 10
613.537399477692
 20
118.3996635988723
 30
0.0
  0
VERTEX
  5
8F
330
8B
100
AcDbEntity
  8
Layer 1
 62
     7
370
    15
100
AcDbVertex
100
AcDb2dVertex
 10
457.1524575680036
 20
115.9074815248426
 30
0.0
  0
SEQEND
  5
90
330
8B
100
AcDbEntity
  8
Layer 1
370
    15
  0
SPLINE
  5
91
330
3C
100
AcDbEntity
  8
Layer 1
 62
     7
370
    15
100
AcDbSpline
210
0.0
220
0.0
230
1.0
 70
     8
 71
     3
 72
     8
 73
     4
 74
     0
 42
0.0000000001
 43
0.0000000001
 40
0.0
 40
0.0
 40
0.0
 40
0.0
 40
1.0
 40
1.0
 40
1.0
 40
1.0
 10
446.3961804439566
 20
115.913682696716
 30
0.0
 10
447.4376328091475
 20
115.913682696716
 30
0.0
 10
448.4608261682667
 20
115.9116156394249
 30
0.0
 10
449.4674830690568
 20
115.9109266203278
 30
0.0
  0
SPLINE
  5
92
330
3C
100
AcDbEntity
  8
Layer 1
 62
     7
370
    15
100
AcDbSpline
210
0.0
220
0.0
230
1.0
 70
     8
 71
     3
 72
     8
 73
     4
 74
     0
 42
0.0000000001
 43
0.0000000001
 40
0.0
 40
0.0
 40
0.0
 40
0.0
 40
1.0
 40
1.0
 40
1.0
 40
1.0
 10
449.4674830690568
 20
115.9109266203278
 30
0.0
 10
449.9697779908062
 20
115.9109266203278
 30
0.0
 10
450.4724174221041
 20
115.9102376012308
 30
0.0
 10
450.9588649046214
 20
115.9102376012308
 30
0.0
  0
SPLINE
  5
93
330
3C
100
AcDbEntity
  8
Layer 1
 62
     7
370
    15
100
AcDbSpline
210
0.0
220
0.0
230
1.0
 70
     8
 71
     3
 72
     8
 73
     4
 74
     0
 42
0.0000000001
 43
0.0000000001
 40
0.0
 40
0.0
 40
0.0
 40
0.0
 40
1.0
 40
1.0
 40
1.0
 40
1.0
 10
450.9588649046214
 20
115.9102376012308
 30
0.0
 10
451.4466904253328
 20
115.9102376012308
 30
0.0
 10
451.9207355641032
 20
115.9095485821337
 30
0.0
 10
452.3816893400296
 20
115.9095485821337
 30
0.0
  0
SPLINE
  5
94
330
3C
100
AcDbEntity
  8
Layer 1
 62
     7
370
    15
100
AcDbSpline
210
0.0
220
0.0
230
1.0
 70
     8
 71
     3
 72
     8
 73
     4
 74
     0
 42
0.0000000001
 43
0.0000000001
 40
0.0
 40
0.0
 40
0.0
 40
0.0
 40
1.0
 40
1.0
 40
1.0
 40
1.0
 10
452.3816893400296
 20
115.9095485821337
 30
0.0
 10
452.8433321350531
 20
115.9095485821337
 30
0.0
 10
453.2908500385871
 20
115.9095485821337
 30
0.0
 10
453.7259655983741
 20
115.9081705439396
 30
0.0
  0
SPLINE
  5
95
330
3C
100
AcDbEntity
  8
Layer 1
 62
     7
370
    15
100
AcDbSpline
210
0.0
220
0.0
230
1.0
 70
    24
 71
     3
 72
     8
 73
     4
 74
     0
 42
0.0000000001
 43
0.0000000001
 40
0.0
 40
0.0
 40
0.0
 40
0.0
 40
1.0
 40
1.0
 40
1.0
 40
1.0
 10
453.7259655983741
 20
115.9081705439396
 30
0.0
 10
454.1610811581612
 20
115.9081705439396
 30
0.0
 10
454.5851724123954
 20
115.9081705439396
 30
0.0
 10
454.9872150555241
 20
115.9081705439396
 30
0.0
  0
SPLINE
  5
96
330
3C
100
AcDbEntity
  8
Layer 1
 62
     7
370
    15
100
AcDbSpline
210
0.0
220
0.0
230
1.0
 70
     8
 71
     3
 72
     8
 73
     4
 74
     0
 42
0.0000000001
 43
0.0000000001
 40
0.0
 40
0.0
 40
0.0
 40
0.0
 40
1.0
 40
1.0
 40
1.0
 40
1.0
 10
454.9872150555241
 20
115.9081705439396
 30
0.0
 10
455.7906113226843
 20
115.9081705439396
 30
0.0
 10
456.5127033363927
 20
115.9074815248426
 30
0.0
 10
457.1524575680036
 20
115.9074815248426
 30
0.0
  0
POLYLINE
  5
97
330
3C
100
AcDbEntity
  8
Layer 1
 62
     7
370
    15
100
AcDb2dPolyline
 66
     1
 10
0.0
 20
0.0
 30
0.0
  0
VERTEX
  5
98
330
97
100
AcDbEntity
  8
Layer 1
 62
     7
370
    15
100
AcDbVertex
100
AcDb2dVertex
 10
354.3961112937795
 20
115.913682696716
 30
0.0
  0
VERTEX
  5
99
330
97
100
AcDbEntity
  8
Layer 1
 62
     7
370
    15
100
AcDbVertex
100
AcDb2dVertex
 10
446.3961804439566
 20
115.913682696716
 30
0.0
  0
SEQEND
  5
9A
330
97
100
AcDbEntity
  8
Layer 1
370
    15
  0
SPLINE
  5
9B
330
3C
100
AcDbEntity
  8
Layer 1
 62
     7
370
    15
100
AcDbSpline
210
0.0
220
0.0
230
1.0
 70
     8
 71
     3
 72
     8
 73
     4
 74
     0
 42
0.0000000001
 43
0.0000000001
 40
0.0
 40
0.0
 40
0.0
 40
0.0
 40
1.0
 40
1.0
 40
1.0
 40
1.0
 10
343.6396619149581
 20
115.9074815248426
 30
0.0
 10
344.2794161465691
 20
115.9074815248426
 30
0.0
 10
345.0006468864061
 20
115.9081705439396
 30
0.0
 10
345.8026651153723
 20
115.9081705439396
 30
0.0
  0
SPLINE
  5
9C
330
3C
100
AcDbEntity
  8
Layer 1
 62
     7
370
    15
100
AcDbSpline
210
0.0
220
0.0
230
1.0
 70
    24
 71
     3
 72
     8
 73
     4
 74
     0
 42
0.0000000001
 43
0.0000000001
 40
0.0
 40
0.0
 40
0.0
 40
0.0
 40
1.0
 40
1.0
 40
1.0
 40
1.0
 10
345.8026651153723
 20
115.9081705439396
 30
0.0
 10
346.2031574655326
 20
115.9081705439396
 30
0.0
 10
346.6270764649926
 20
115.9081705439396
 30
0.0
 10
347.0628810438766
 20
115.9081705439396
 30
0.0
  0
SPLINE
  5
9D
330
3C
100
AcDbEntity
  8
Layer 1
 62
     7
370
    15
100
AcDbSpline
210
0.0
220
0.0
230
1.0
 70
     8
 71
     3
 72
     8
 73
     4
 74
     0
 42
0.0000000001
 43
0.0000000001
 40
0.0
 40
0.0
 40
0.0
 40
0.0
 40
1.0
 40
1.0
 40
1.0
 40
1.0
 10
347.0628810438766
 20
115.9081705439396
 30
0.0
 10
347.498857877535
 20
115.9095485821337
 30
0.0
 10
347.9472370549403
 20
115.9095485821337
 30
0.0
 10
348.4085353404153
 20
115.9095485821337
 30
0.0
  0
SPLINE
  5
9E
330
3C
100
AcDbEntity
  8
Layer 1
 62
     7
370
    15
100
AcDbSpline
210
0.0
220
0.0
230
1.0
 70
     8
 71
     3
 72
     8
 73
     4
 74
     0
 42
0.0000000001
 43
0.0000000001
 40
0.0
 40
0.0
 40
0.0
 40
0.0
 40
1.0
 40
1.0
 40
1.0
 40
1.0
 10
348.4085353404153
 20
115.9095485821337
 30
0.0
 10
348.8698336258902
 20
115.9095485821337
 30
0.0
 10
349.3431897455635
 20
115.9102376012308
 30
0.0
 10
349.8289482089838
 20
115.9102376012308
 30
0.0
  0
SPLINE
  5
9F
330
3C
100
AcDbEntity
  8
Layer 1
 62
     7
370
    15
100
AcDbSpline
210
0.0
220
0.0
230
1.0
 70
     8
 71
     3
 72
     8
 73
     4
 74
     0
 42
0.0000000001
 43
0.0000000001
 40
0.0
 40
0.0
 40
0.0
 40
0.0
 40
1.0
 40
1.0
 40
1.0
 40
1.0
 10
349.8289482089838
 20
115.9102376012308
 30
0.0
 10
350.3148789271783
 20
115.9102376012308
 30
0.0
 10
350.8164848298306
 20
115.9109266203278
 30
0.0
 10
351.3210190636455
 20
115.9109266203278
 30
0.0
  0
SPLINE
  5
A0
330
3C
100
AcDbEntity
  8
Layer 1
 62
     7
370
    15
100
AcDbSpline
210
0.0
220
0.0
230
1.0
 70
     8
 71
     3
 72
     8
 73
     4
 74
     0
 42
0.0000000001
 43
0.0000000001
 40
0.0
 40
0.0
 40
0.0
 40
0.0
 40
1.0
 40
1.0
 40
1.0
 40
1.0
 10
351.3210190636455
 20
115.9109266203278
 30
0.0
 10
352.3297430217266
 20
115.9116156394249
 30
0.0
 10
353.3546589285884
 20
115.913682696716
 30
0.0
 10
354.3961112937795
 20
115.913682696716
 30
0.0
  0
POLYLINE
  5
A1
330
3C
100
AcDbEntity
  8
Layer 1
 62
     7
370
    15
100
AcDb2dPolyline
 66
     1
 10
0.0
 20
0.0
 30
0.0
  0
VERTEX
  5
A2
330
A1
100
AcDbEntity
  8
Layer 1
 62
     7
370
    15
100
AcDbVertex
100
AcDb2dVertex
 10
30.38729247287193
 20
120.9001139020666
 30
0.0
  0
VERTEX
  5
A3
330
A1
100
AcDbEntity
  8
Layer 1
 62
     7
370
    15
100
AcDbVertex
100
AcDb2dVertex
 10
108.7564968261095
 20
119.6509222791151
 30
0.0
  0
VERTEX
  5
A4
330
A1
100
AcDbEntity
  8
Layer 1
 62
     7
370
    15
100
AcDbVertex
100
AcDb2dVertex
 10
187.2547200052697
 20
118.3996635988723
 30
0.0
  0
VERTEX
  5
A5
330
A1
100
AcDbEntity
  8
Layer 1
 62
     7
370
    15
100
AcDbVertex
100
AcDb2dVertex
 10
343.6396619149581
 20
115.9074815248426
 30
0.0
  0
SEQEND
  5
A6
330
A1
100
AcDbEntity
  8
Layer 1
370
    15
  0
SPLINE
  5
A7
330
3C
100
AcDbEntity
  8
Layer 1
 62
     7
370
    15
100
AcDbSpline
210
0.0
220
0.0
230
1.0
 70
     8
 71
     3
 72
     8
 73
     4
 74
     0
 42
0.0000000001
 43
0.0000000001
 40
0.0
 40
0.0
 40
0.0
 40
0.0
 40
1.0
 40
1.0
 40
1.0
 40
1.0
 10
457.1524575680036
 20
115.9074815248426
 30
0.0
 10
457.6182344776093
 20
115.9074815248426
 30
0.0
 10
458.0285453499026
 20
115.9074815248426
 30
0.0
 10
458.3854572421745
 20
115.9081705439396
 30
0.0
  0
SPLINE
  5
A8
330
3C
100
AcDbEntity
  8
Layer 1
 62
     7
370
    15
100
AcDbSpline
210
0.0
220
0.0
230
1.0
 70
    24
 71
     3
 72
     8
 73
     4
 74
     0
 42
0.0000000001
 43
0.0000000001
 40
0.0
 40
0.0
 40
0.0
 40
0.0
 40
1.0
 40
1.0
 40
1.0
 40
1.0
 10
458.3854572421745
 20
115.9081705439396
 30
0.0
 10
458.5635686787619
 20
115.9081705439396
 30
0.0
 10
458.7282442429569
 20
115.9081705439396
 30
0.0
 10
458.8794839347593
 20
115.9081705439396
 30
0.0
  0
SPLINE
  5
A9
330
3C
100
AcDbEntity
  8
Layer 1
 62
     7
370
    15
100
AcDbSpline
210
0.0
220
0.0
230
1.0
 70
    24
 71
     3
 72
     8
 73
     4
 74
     0
 42
0.0000000001
 43
0.0000000001
 40
0.0
 40
0.0
 40
0.0
 40
0.0
 40
1.0
 40
1.0
 40
1.0
 40
1.0
 10
458.8794839347593
 20
115.9081705439396
 30
0.0
 10
459.0310681361103
 20
115.9081705439396
 30
0.0
 10
459.1692164650688
 20
115.9081705439396
 30
0.0
 10
459.2915173547952
 20
115.9081705439396
 30
0.0
  0
SPLINE
  5
AA
330
3C
100
AcDbEntity
  8
Layer 1
 62
     7
370
    15
100
AcDbSpline
210
0.0
220
0.0
230
1.0
 70
     8
 71
     3
 72
     8
 73
     4
 74
     0
 42
0.0000000001
 43
0.0000000001
 40
0.0
 40
0.0
 40
0.0
 40
0.0
 40
1.0
 40
1.0
 40
1.0
 40
1.0
 10
459.2915173547952
 20
115.9081705439396
 30
0.0
 10
459.5350856056024
 20
115.9081705439396
 30
0.0
 10
459.7180201758691
 20
115.9095485821337
 30
0.0
 10
459.8413545942411
 20
115.9095485821337
 30
0.0
  0
SPLINE
  5
AB
330
3C
100
AcDbEntity
  8
Layer 1
 62
     7
370
    15
100
AcDbSpline
210
0.0
220
0.0
230
1.0
 70
     8
 71
     3
 72
     8
 73
     4
 74
     0
 42
0.0000000001
 43
0.0000000001
 40
0.0
 40
0.0
 40
0.0
 40
0.0
 40
1.0
 40
1.0
 40
1.0
 40
1.0
 10
459.8413545942411
 20
115.9095485821337
 30
0.0
 10
459.9636554839674
 20
115.9095485821337
 30
0.0
 10
460.0277342599931
 20
115.9102376012308
 30
0.0
 10
460.0277342599931
 20
115.9102376012308
 30
0.0
  0
SPLINE
  5
AC
330
3C
100
AcDbEntity
  8
Layer 1
 62
     7
370
    15
100
AcDbSpline
210
0.0
220
0.0
230
1.0
 70
     8
 71
     3
 72
     8
 73
     4
 74
     0
 42
0.0000000001
 43
0.0000000001
 40
0.0
 40
0.0
 40
0.0
 40
0.0
 40
1.0
 40
1.0
 40
1.0
 40
1.0
 10
340.7645574777429
 20
115.9102376012308
 30
0.0
 10
340.7645574777429
 20
115.9102376012308
 30
0.0
 10
340.8282917442201
 20
115.9095485821337
 30
0.0
 10
340.9521429269147
 20
115.9095485821337
 30
0.0
  0
SPLINE
  5
AD
330
3C
100
AcDbEntity
  8
Layer 1
 62
     7
370
    15
100
AcDbSpline
210
0.0
220
0.0
230
1.0
 70
     8
 71
     3
 72
     8
 73
     4
 74
     0
 42
0.0000000001
 43
0.0000000001
 40
0.0
 40
0.0
 40
0.0
 40
0.0
 40
1.0
 40
1.0
 40
1.0
 40
1.0
 10
340.9521429269147
 20
115.9095485821337
 30
0.0
 10
341.0141546456492
 20
115.9095485821337
 30
0.0
 10
341.0914970392931
 20
115.9095485821337
 30
0.0
 10
341.1838255982978
 20
115.9081705439396
 30
0.0
  0
SPLINE
  5
AE
330
3C
100
AcDbEntity
  8
Layer 1
 62
     7
370
    15
100
AcDbSpline
210
0.0
220
0.0
230
1.0
 70
    24
 71
     3
 72
     8
 73
     4
 74
     0
 42
0.0000000001
 43
0.0000000001
 40
0.0
 40
0.0
 40
0.0
 40
0.0
 40
1.0
 40
1.0
 40
1.0
 40
1.0
 10
341.1838255982978
 20
115.9081705439396
 30
0.0
 10
341.2766709216253
 20
115.9081705439396
 30
0.0
 10
341.3855359389592
 20
115.9081705439396
 30
0.0
 10
341.5083535930083
 20
115.9081705439396
 30
0.0
  0
SPLINE
  5
AF
330
3C
100
AcDbEntity
  8
Layer 1
 62
     7
370
    15
100
AcDbSpline
210
0.0
220
0.0
230
1.0
 70
    24
 71
     3
 72
     8
 73
     4
 74
     0
 42
0.0000000001
 43
0.0000000001
 40
0.0
 40
0.0
 40
0.0
 40
0.0
 40
1.0
 40
1.0
 40
1.0
 40
1.0
 10
341.5083535930083
 20
115.9081705439396
 30
0.0
 10
341.7536443915581
 20
115.9081705439396
 30
0.0
 10
342.0549179917433
 20
115.9081705439396
 30
0.0
 10
342.4101073362725
 20
115.9081705439396
 30
0.0
  0
SPLINE
  5
B0
330
3C
100
AcDbEntity
  8
Layer 1
 62
     7
370
    15
100
AcDbSpline
210
0.0
220
0.0
230
1.0
 70
     8
 71
     3
 72
     8
 73
     4
 74
     0
 42
0.0000000001
 43
0.0000000001
 40
0.0
 40
0.0
 40
0.0
 40
0.0
 40
1.0
 40
1.0
 40
1.0
 40
1.0
 10
342.4101073362725
 20
115.9081705439396
 30
0.0
 10
342.7652966808017
 20
115.9074815248426
 30
0.0
 10
343.1742295149009
 20
115.9074815248426
 30
0.0
 10
343.6396619149581
 20
115.9074815248426
 30
0.0
  0
POLYLINE
  5
B1
330
3C
100
AcDbEntity
  8
Layer 1
 62
     7
370
    15
100
AcDb2dPolyline
 66
     1
 10
0.0
 20
0.0
 30
0.0
  0
VERTEX
  5
B2
330
B1
100
AcDbEntity
  8
Layer 1
 62
     7
370
    15
100
AcDbVertex
100
AcDb2dVertex
 10
30.38401963216094
 20
120.9001139020666
 30
0.0
  0
VERTEX
  5
B3
330
B1
100
AcDbEntity
  8
Layer 1
 62
     7
370
    15
100
AcDbVertex
100
AcDb2dVertex
 10
30.38401963216094
 20
120.9001139020666
 30
0.0
  0
SEQEND
  5
B4
330
B1
100
AcDbEntity
  8
Layer 1
370
    15
  0
POLYLINE
  5
B5
330
3C
100
AcDbEntity
  8
Layer 1
 62
     7
370
    15
100
AcDb2dPolyline
 66
     1
 10
0.0
 20
0.0
 30
0.0
  0
VERTEX
  5
B6
330
B5
100
AcDbEntity
  8
Layer 1
 62
     7
370
    15
100
AcDbVertex
100
AcDb2dVertex
 10
354.3961112937795
 20
112.9949978016124
 30
0.0
  0
VERTEX
  5
B7
330
B5
100
AcDbEntity
  8
Layer 1
 62
     7
370
    15
100
AcDbVertex
100
AcDb2dVertex
 10
354.3961112937795
 20
115.913682696716
 30
0.0
  0
SEQEND
  5
B8
330
B5
100
AcDbEntity
  8
Layer 1
370
    15
  0
POLYLINE
  5
B9
330
3C
100
AcDbEntity
  8
Layer 1
 62
     7
370
    15
100
AcDb2dPolyline
 66
     1
 10
0.0
 20
0.0
 30
0.0
  0
VERTEX
  5
BA
330
B9
100
AcDbEntity
  8
Layer 1
 62
     7
370
    15
100
AcDbVertex
100
AcDb2dVertex
 10
343.6799695321356
 20
112.9949978016124
 30
0.0
  0
VERTEX
  5
BB
330
B9
100
AcDbEntity
  8
Layer 1
 62
     7
370
    15
100
AcDbVertex
100
AcDb2dVertex
 10
354.3961112937795
 20
112.9949978016124
 30
0.0
  0
SEQEND
  5
BC
330
B9
100
AcDbEntity
  8
Layer 1
370
    15
  0
POLYLINE
  5
BD
330
3C
100
AcDbEntity
  8
Layer 1
 62
     7
370
    15
100
AcDb2dPolyline
 66
     1
 10
0.0
 20
0.0
 30
0.0
  0
VERTEX
  5
BE
330
BD
100
AcDbEntity
  8
Layer 1
 62
     7
370
    15
100
AcDbVertex
100
AcDb2dVertex
 10
343.6799695321356
 20
112.9949978016124
 30
0.0
  0
VERTEX
  5
BF
330
BD
100
AcDbEntity
  8
Layer 1
 62
     7
370
    15
100
AcDbVertex
100
AcDb2dVertex
 10
340.7645574777429
 20
115.9102376012308
 30
0.0
  0
SEQEND
  5
C0
330
BD
100
AcDbEntity
  8
Layer 1
370
    15
  0
POLYLINE
  5
C1
330
3C
100
AcDbEntity
  8
Layer 1
 62
     7
370
    15
100
AcDb2dPolyline
 66
     1
 10
0.0
 20
0.0
 30
0.0
  0
VERTEX
  5
C2
330
C1
100
AcDbEntity
  8
Layer 1
 62
     7
370
    15
100
AcDbVertex
100
AcDb2dVertex
 10
457.1118054412776
 20
112.9949978016124
 30
0.0
  0
VERTEX
  5
C3
330
C1
100
AcDbEntity
  8
Layer 1
 62
     7
370
    15
100
AcDbVertex
100
AcDb2dVertex
 10
460.0277342599931
 20
115.9102376012308
 30
0.0
  0
SEQEND
  5
C4
330
C1
100
AcDbEntity
  8
Layer 1
370
    15
  0
POLYLINE
  5
C5
330
3C
100
AcDbEntity
  8
Layer 1
 62
     7
370
    15
100
AcDb2dPolyline
 66
     1
 10
0.0
 20
0.0
 30
0.0
  0
VERTEX
  5
C6
330
C5
100
AcDbEntity
  8
Layer 1
 62
     7
370
    15
100
AcDbVertex
100
AcDb2dVertex
 10
446.3961804439566
 20
112.9949978016124
 30
0.0
  0
VERTEX
  5
C7
330
C5
100
AcDbEntity
  8
Layer 1
 62
     7
370
    15
100
AcDbVertex
100
AcDb2dVertex
 10
457.1118054412776
 20
112.9949978016124
 30
0.0
  0
SEQEND
  5
C8
330
C5
100
AcDbEntity
  8
Layer 1
370
    15
  0
POLYLINE
  5
C9
330
3C
100
AcDbEntity
  8
Layer 1
 62
     7
370
    15
100
AcDb2dPolyline
 66
     1
 10
0.0
 20
0.0
 30
0.0
  0
VERTEX
  5
CA
330
C9
100
AcDbEntity
  8
Layer 1
 62
     7
370
    15
100
AcDbVertex
100
AcDb2dVertex
 10
446.3961804439566
 20
112.9949978016124
 30
0.0
  0
VERTEX
  5
CB
330
C9
100
AcDbEntity
  8
Layer 1
 62
     7
370
    15
100
AcDbVertex
100
AcDb2dVertex
 10
446.3961804439566
 20
115.913682696716
 30
0.0
  0
SEQEND
  5
CC
330
C9
100
AcDbEntity
  8
Layer 1
370
    15
  0
POLYLINE
  5
CD
330
3C
100
AcDbEntity
  8
Layer 1
 62
     7
370
    15
100
AcDb2dPolyline
 66
     1
 10
0.0
 20
0.0
 30
0.0
  0
VERTEX
  5
CE
330
CD
100
AcDbEntity
  8
Layer 1
 62
     7
370
    15
100
AcDbVertex
100
AcDb2dVertex
 10
354.3961112937795
 20
112.9949978016124
 30
0.0
  0
VERTEX
  5
CF
330
CD
100
AcDbEntity
  8
Layer 1
 62
     7
370
    15
100
AcDbVertex
100
AcDb2dVertex
 10
446.3961804439566
 20
112.9949978016124
 30
0.0
  0
SEQEND
  5
D0
330
CD
100
AcDbEntity
  8
Layer 1
370
    15
  0
SPLINE
  5
D1
330
3C
100
AcDbEntity
  8
Layer 1
 62
     7
370
    15
100
AcDbSpline
210
0.0
220
0.0
230
1.0
 70
     8
 71
     3
 72
     8
 73
     4
 74
     0
 42
0.0000000001
 43
0.0000000001
 40
0.0
 40
0.0
 40
0.0
 40
0.0
 40
1.0
 40
1.0
 40
1.0
 40
1.0
 10
366.89629575246
 20
110.9010687656775
 30
0.0
 10
366.7514294873052
 20
110.9010687656775
 30
0.0
 10
366.6058742030534
 20
110.9010687656775
 30
0.0
 10
366.4611801926729
 20
110.9003797465805
 30
0.0
  0
POLYLINE
  5
D2
330
3C
100
AcDbEntity
  8
Layer 1
 62
     7
370
    15
100
AcDb2dPolyline
 66
     1
 10
0.0
 20
0.0
 30
0.0
  0
VERTEX
  5
D3
330
D2
100
AcDbEntity
  8
Layer 1
 62
     7
370
    15
100
AcDbVertex
100
AcDb2dVertex
 10
356.9051743356869
 20
110.9003797465805
 30
0.0
  0
VERTEX
  5
D4
330
D2
100
AcDbEntity
  8
Layer 1
 62
     7
370
    15
100
AcDbVertex
100
AcDb2dVertex
 10
366.4611801926729
 20
110.9003797465805
 30
0.0
  0
SEQEND
  5
D5
330
D2
100
AcDbEntity
  8
Layer 1
370
    15
  0
POLYLINE
  5
D6
330
3C
100
AcDbEntity
  8
Layer 1
 62
     7
370
    15
100
AcDb2dPolyline
 66
     1
 10
0.0
 20
0.0
 30
0.0
  0
VERTEX
  5
D7
330
D6
100
AcDbEntity
  8
Layer 1
 62
     7
370
    15
100
AcDbVertex
100
AcDb2dVertex
 10
356.9051743356869
 20
110.9003797465805
 30
0.0
  0
VERTEX
  5
D8
330
D6
100
AcDbEntity
  8
Layer 1
 62
     7
370
    15
100
AcDbVertex
100
AcDb2dVertex
 10
354.3961112937795
 20
111.2972547464812
 30
0.0
  0
SEQEND
  5
D9
330
D6
100
AcDbEntity
  8
Layer 1
370
    15
  0
POLYLINE
  5
DA
330
3C
100
AcDbEntity
  8
Layer 1
 62
     7
370
    15
100
AcDb2dPolyline
 66
     1
 10
0.0
 20
0.0
 30
0.0
  0
VERTEX
  5
DB
330
DA
100
AcDbEntity
  8
Layer 1
 62
     7
370
    15
100
AcDbVertex
100
AcDb2dVertex
 10
354.3961112937795
 20
111.2972547464812
 30
0.0
  0
VERTEX
  5
DC
330
DA
100
AcDbEntity
  8
Layer 1
 62
     7
370
    15
100
AcDbVertex
100
AcDb2dVertex
 10
354.3961112937795
 20
112.9949978016124
 30
0.0
  0
SEQEND
  5
DD
330
DA
100
AcDbEntity
  8
Layer 1
370
    15
  0
POLYLINE
  5
DE
330
3C
100
AcDbEntity
  8
Layer 1
 62
     7
370
    15
100
AcDb2dPolyline
 66
     1
 10
0.0
 20
0.0
 30
0.0
  0
VERTEX
  5
DF
330
DE
100
AcDbEntity
  8
Layer 1
 62
     7
370
    15
100
AcDbVertex
100
AcDb2dVertex
 10
446.3961804439566
 20
111.2972547464812
 30
0.0
  0
VERTEX
  5
E0
330
DE
100
AcDbEntity
  8
Layer 1
 62
     7
370
    15
100
AcDbVertex
100
AcDb2dVertex
 10
446.3961804439566
 20
112.9949978016124
 30
0.0
  0
SEQEND
  5
E1
330
DE
100
AcDbEntity
  8
Layer 1
370
    15
  0
POLYLINE
  5
E2
330
3C
100
AcDbEntity
  8
Layer 1
 62
     7
370
    15
100
AcDb2dPolyline
 66
     1
 10
0.0
 20
0.0
 30
0.0
  0
VERTEX
  5
E3
330
E2
100
AcDbEntity
  8
Layer 1
 62
     7
370
    15
100
AcDbVertex
100
AcDb2dVertex
 10
443.8860838734035
 20
110.9003797465805
 30
0.0
  0
VERTEX
  5
E4
330
E2
100
AcDbEntity
  8
Layer 1
 62
     7
370
    15
100
AcDbVertex
100
AcDb2dVertex
 10
446.3961804439566
 20
111.2972547464812
 30
0.0
  0
SEQEND
  5
E5
330
E2
100
AcDbEntity
  8
Layer 1
370
    15
  0
POLYLINE
  5
E6
330
3C
100
AcDbEntity
  8
Layer 1
 62
     7
370
    15
100
AcDb2dPolyline
 66
     1
 10
0.0
 20
0.0
 30
0.0
  0
VERTEX
  5
E7
330
E6
100
AcDbEntity
  8
Layer 1
 62
     7
370
    15
100
AcDbVertex
100
AcDb2dVertex
 10
434.3311115450631
 20
110.9003797465805
 30
0.0
  0
VERTEX
  5
E8
330
E6
100
AcDbEntity
  8
Layer 1
 62
     7
370
    15
100
AcDbVertex
100
AcDb2dVertex
 10
443.8860838734035
 20
110.9003797465805
 30
0.0
  0
SEQEND
  5
E9
330
E6
100
AcDbEntity
  8
Layer 1
370
    15
  0
SPLINE
  5
EA
330
3C
100
AcDbEntity
  8
Layer 1
 62
     7
370
    15
100
AcDbSpline
210
0.0
220
0.0
230
1.0
 70
     8
 71
     3
 72
     8
 73
     4
 74
     0
 42
0.0000000001
 43
0.0000000001
 40
0.0
 40
0.0
 40
0.0
 40
0.0
 40
1.0
 40
1.0
 40
1.0
 40
1.0
 10
434.3311115450631
 20
110.9003797465805
 30
0.0
 10
434.185384006037
 20
110.9010687656775
 30
0.0
 10
434.0406899956565
 20
110.9010687656775
 30
0.0
 10
433.895995985276
 20
110.9010687656775
 30
0.0
  0
POLYLINE
  5
EB
330
3C
100
AcDbEntity
  8
Layer 1
 62
     7
370
    15
100
AcDb2dPolyline
 66
     1
 10
0.0
 20
0.0
 30
0.0
  0
VERTEX
  5
EC
330
EB
100
AcDbEntity
  8
Layer 1
 62
     7
370
    15
100
AcDbVertex
100
AcDb2dVertex
 10
366.89629575246
 20
110.9010687656775
 30
0.0
  0
VERTEX
  5
ED
330
EB
100
AcDbEntity
  8
Layer 1
 62
     7
370
    15
100
AcDbVertex
100
AcDb2dVertex
 10
433.895995985276
 20
110.9010687656775
 30
0.0
  0
SEQEND
  5
EE
330
EB
100
AcDbEntity
  8
Layer 1
370
    15
  0
POLYLINE
  5
EF
330
3C
100
AcDbEntity
  8
Layer 1
 62
     7
370
    15
100
AcDb2dPolyline
 66
     1
 10
0.0
 20
0.0
 30
0.0
  0
VERTEX
  5
F0
330
EF
100
AcDbEntity
  8
Layer 1
 62
     7
370
    15
100
AcDbVertex
100
AcDb2dVertex
 10
354.3961112937795
 20
111.2972547464812
 30
0.0
  0
VERTEX
  5
F1
330
EF
100
AcDbEntity
  8
Layer 1
 62
     7
370
    15
100
AcDbVertex
100
AcDb2dVertex
 10
343.6799695321356
 20
112.9949978016124
 30
0.0
  0
SEQEND
  5
F2
330
EF
100
AcDbEntity
  8
Layer 1
370
    15
  0
POLYLINE
  5
F3
330
3C
100
AcDbEntity
  8
Layer 1
 62
     7
370
    15
100
AcDb2dPolyline
 66
     1
 10
0.0
 20
0.0
 30
0.0
  0
VERTEX
  5
F4
330
F3
100
AcDbEntity
  8
Layer 1
 62
     7
370
    15
100
AcDbVertex
100
AcDb2dVertex
 10
446.3961804439566
 20
111.2972547464812
 30
0.0
  0
VERTEX
  5
F5
330
F3
100
AcDbEntity
  8
Layer 1
 62
     7
370
    15
100
AcDbVertex
100
AcDb2dVertex
 10
457.1118054412776
 20
112.9949978016124
 30
0.0
  0
SEQEND
  5
F6
330
F3
100
AcDbEntity
  8
Layer 1
370
    15
  0
POLYLINE
  5
F7
330
3C
100
AcDbEntity
  8
Layer 1
 62
     7
370
    15
100
AcDb2dPolyline
 66
     1
 10
0.0
 20
0.0
 30
0.0
  0
VERTEX
  5
F8
330
F7
100
AcDbEntity
  8
Layer 1
 62
     7
370
    15
100
AcDbVertex
100
AcDb2dVertex
 10
457.1118054412776
 20
112.9949978016124
 30
0.0
  0
VERTEX
  5
F9
330
F7
100
AcDbEntity
  8
Layer 1
 62
     7
370
    15
100
AcDbVertex
100
AcDb2dVertex
 10
457.1118054412776
 20
112.9949978016124
 30
0.0
  0
SEQEND
  5
FA
330
F7
100
AcDbEntity
  8
Layer 1
370
    15
  0
POLYLINE
  5
FB
330
3C
100
AcDbEntity
  8
Layer 1
 62
   253
370
    15
100
AcDb2dPolyline
 66
     1
 10
0.0
 20
0.0
 30
0.0
  0
VERTEX
  5
FC
330
FB
100
AcDbEntity
  8
Layer 1
 62
   253
370
    15
100
AcDbVertex
100
AcDb2dVertex
 10
770.4080998508008
 20
120.9001139020666
 30
0.0
  0
VERTEX
  5
FD
330
FB
100
AcDbEntity
  8
Layer 1
 62
   253
370
    15
100
AcDbVertex
100
AcDb2dVertex
 10
770.4080998508008
 20
120.9001139020666
 30
0.0
  0
SEQEND
  5
FE
330
FB
100
AcDbEntity
  8
Layer 1
370
    15
  0
POLYLINE
  5
FF
330
3C
100
AcDbEntity
  8
Layer 1
370
     0
100
AcDb2dPolyline
 66
     1
 10
0.0
 20
0.0
 30
0.0
  0
VERTEX
  5
100
330
FF
100
AcDbEntity
  8
Layer 1
370
     0
100
AcDbVertex
100
AcDb2dVertex
 10
-104.6036064734151
 20
347.3999836371083
 30
0.0
  0
VERTEX
  5
101
330
FF
100
AcDbEntity
  8
Layer 1
370
     0
100
AcDbVertex
100
AcDb2dVertex
 10
-109.6033012963839
 20
377.399875122664
 30
0.0
  0
VERTEX
  5
102
330
FF
100
AcDbEntity
  8
Layer 1
370
     0
100
AcDbVertex
100
AcDb2dVertex
 10
-99.60339488612347
 20
377.399875122664
 30
0.0
  0
SEQEND
  5
103
330
FF
100
AcDbEntity
  8
Layer 1
370
     0
  0
HATCH
  5
104
330
3C
100
AcDbEntity
  8
Layer 1
 62
     7
100
AcDbHatch
 10
0.0
 20
0.0
 30
0.0
210
0.0
220
0.0
230
1.0
  2
SOLID
 70
     1
 71
     0
 91
        1
 92
        1
 93
        3
 72
     1
 10
-104.6036064734151
 20
347.3999836371083
 11
-109.6033012963839
 21
377.399875122664
 72
     1
 10
-109.6033012963839
 20
377.399875122664
 11
-99.60339488612347
 21
377.399875122664
 72
     1
 10
-99.60339488612347
 20
377.399875122664
 11
-104.6036064734151
 21
347.3999836371083
 97
        0
 75
     2
 76
     1
 98
        0
  0
POLYLINE
  5
105
330
3C
100
AcDbEntity
  8
Layer 1
370
     0
100
AcDb2dPolyline
 66
     1
 10
0.0
 20
0.0
 30
0.0
  0
VERTEX
  5
106
330
105
100
AcDbEntity
  8
Layer 1
370
     0
100
AcDbVertex
100
AcDb2dVertex
 10
-104.6036064734151
 20
120.9001139020666
 30
0.0
  0
VERTEX
  5
107
330
105
100
AcDbEntity
  8
Layer 1
370
     0
100
AcDbVertex
100
AcDb2dVertex
 10
-99.60339488612347
 20
90.899533397414
 30
0.0
  0
VERTEX
  5
108
330
105
100
AcDbEntity
  8
Layer 1
370
     0
100
AcDbVertex
100
AcDb2dVertex
 10
-109.6033012963839
 20
90.899533397414
 30
0.0
  0
SEQEND
  5
109
330
105
100
AcDbEntity
  8
Layer 1
370
     0
  0
HATCH
  5
10A
330
3C
100
AcDbEntity
  8
Layer 1
 62
     7
100
AcDbHatch
 10
0.0
 20
0.0
 30
0.0
210
0.0
220
0.0
230
1.0
  2
SOLID
 70
     1
 71
     0
 91
        1
 92
        1
 93
        3
 72
     1
 10
-104.6036064734151
 20
120.9001139020666
 11
-99.60339488612347
 21
90.899533397414
 72
     1
 10
-99.60339488612347
 20
90.899533397414
 11
-109.6033012963839
 21
90.899533397414
 72
     1
 10
-109.6033012963839
 20
90.899533397414
 11
-104.6036064734151
 21
120.9001139020666
 97
        0
 75
     2
 76
     1
 98
        0
  0
POLYLINE
  5
10B
330
3C
100
AcDbEntity
  8
Layer 1
 62
     7
370
    25
100
AcDb2dPolyline
 66
     1
 10
0.0
 20
0.0
 30
0.0
  0
VERTEX
  5
10C
330
10B
100
AcDbEntity
  8
Layer 1
 62
     7
370
    25
100
AcDbVertex
100
AcDb2dVertex
 10
-45.48990206111016
 20
347.3999836371083
 30
0.0
  0
VERTEX
  5
10D
330
10B
100
AcDbEntity
  8
Layer 1
 62
     7
370
    25
100
AcDbVertex
100
AcDb2dVertex
 10
-114.6035128836755
 20
347.3999836371083
 30
0.0
  0
SEQEND
  5
10E
330
10B
100
AcDbEntity
  8
Layer 1
370
    25
  0
POLYLINE
  5
10F
330
3C
100
AcDbEntity
  8
Layer 1
 62
     7
370
    25
100
AcDb2dPolyline
 66
     1
 10
0.0
 20
0.0
 30
0.0
  0
VERTEX
  5
110
330
10F
100
AcDbEntity
  8
Layer 1
 62
     7
370
    25
100
AcDbVertex
100
AcDb2dVertex
 10
-45.48990206111016
 20
120.9001139020666
 30
0.0
  0
VERTEX
  5
111
330
10F
100
AcDbEntity
  8
Layer 1
 62
     7
370
    25
100
AcDbVertex
100
AcDb2dVertex
 10
-114.6035128836755
 20
120.9001139020666
 30
0.0
  0
SEQEND
  5
112
330
10F
100
AcDbEntity
  8
Layer 1
370
    25
  0
POLYLINE
  5
113
330
3C
100
AcDbEntity
  8
Layer 1
 62
     7
370
    25
100
AcDb2dPolyline
 66
     1
 10
0.0
 20
0.0
 30
0.0
  0
VERTEX
  5
114
330
113
100
AcDbEntity
  8
Layer 1
 62
     7
370
    25
100
AcDbVertex
100
AcDb2dVertex
 10
-104.6036064734151
 20
347.3999836371083
 30
0.0
  0
VERTEX
  5
115
330
113
100
AcDbEntity
  8
Layer 1
 62
     7
370
    25
100
AcDbVertex
100
AcDb2dVertex
 10
-104.6036064734151
 20
407.3997666082195
 30
0.0
  0
SEQEND
  5
116
330
113
100
AcDbEntity
  8
Layer 1
370
    25
  0
POLYLINE
  5
117
330
3C
100
AcDbEntity
  8
Layer 1
 62
     7
370
    25
100
AcDb2dPolyline
 66
     1
 10
0.0
 20
0.0
 30
0.0
  0
VERTEX
  5
118
330
117
100
AcDbEntity
  8
Layer 1
 62
     7
370
    25
100
AcDbVertex
100
AcDb2dVertex
 10
-104.6036064734151
 20
347.3999836371083
 30
0.0
  0
VERTEX
  5
119
330
117
100
AcDbEntity
  8
Layer 1
 62
     7
370
    25
100
AcDbVertex
100
AcDb2dVertex
 10
-104.6036064734151
 20
120.9001139020666
 30
0.0
  0
SEQEND
  5
11A
330
117
100
AcDbEntity
  8
Layer 1
370
    25
  0
POLYLINE
  5
11B
330
3C
100
AcDbEntity
  8
Layer 1
 62
     7
370
    25
100
AcDb2dPolyline
 66
     1
 10
0.0
 20
0.0
 30
0.0
  0
VERTEX
  5
11C
330
11B
100
AcDbEntity
  8
Layer 1
 62
     7
370
    25
100
AcDbVertex
100
AcDb2dVertex
 10
-104.6036064734151
 20
120.9001139020666
 30
0.0
  0
VERTEX
  5
11D
330
11B
100
AcDbEntity
  8
Layer 1
 62
     7
370
    25
100
AcDbVertex
100
AcDb2dVertex
 10
-104.6036064734151
 20
60.89964191185842
 30
0.0
  0
SEQEND
  5
11E
330
11B
100
AcDbEntity
  8
Layer 1
370
    25
  0
POLYLINE
  5
11F
330
3C
100
AcDbEntity
  8
Layer 1
 62
     7
370
    25
100
AcDb2dPolyline
 66
     1
 10
0.0
 20
0.0
 30
0.0
  0
VERTEX
  5
120
330
11F
100
AcDbEntity
  8
Layer 1
 62
     7
370
    25
100
AcDbVertex
100
AcDb2dVertex
 10
-152.1185356607551
 20
170.0616264765818
 30
0.0
  0
VERTEX
  5
121
330
11F
100
AcDbEntity
  8
Layer 1
 62
     7
370
    25
100
AcDbVertex
100
AcDb2dVertex
 10
-159.1737467049983
 20
175.3532931419256
 30
0.0
  0
SEQEND
  5
122
330
11F
100
AcDbEntity
  8
Layer 1
370
    25
  0
POLYLINE
  5
123
330
3C
100
AcDbEntity
  8
Layer 1
 62
     7
370
    25
100
AcDb2dPolyline
 66
     1
 10
0.0
 20
0.0
 30
0.0
  0
VERTEX
  5
124
330
123
100
AcDbEntity
  8
Layer 1
 62
     7
370
    25
100
AcDbVertex
100
AcDb2dVertex
 10
-159.1737467049983
 20
175.3532931419256
 30
0.0
  0
VERTEX
  5
125
330
123
100
AcDbEntity
  8
Layer 1
 62
     7
370
    25
100
AcDbVertex
100
AcDb2dVertex
 10
-159.1737467049983
 20
185.9373154917101
 30
0.0
  0
SEQEND
  5
126
330
123
100
AcDbEntity
  8
Layer 1
370
    25
  0
POLYLINE
  5
127
330
3C
100
AcDbEntity
  8
Layer 1
 62
     7
370
    25
100
AcDb2dPolyline
 66
     1
 10
0.0
 20
0.0
 30
0.0
  0
VERTEX
  5
128
330
127
100
AcDbEntity
  8
Layer 1
 62
     7
370
    25
100
AcDbVertex
100
AcDb2dVertex
 10
-159.1737467049983
 20
185.9373154917101
 30
0.0
  0
VERTEX
  5
129
330
127
100
AcDbEntity
  8
Layer 1
 62
     7
370
    25
100
AcDbVertex
100
AcDb2dVertex
 10
-152.1185356607551
 20
191.2289821570539
 30
0.0
  0
SEQEND
  5
12A
330
127
100
AcDbEntity
  8
Layer 1
370
    25
  0
POLYLINE
  5
12B
330
3C
100
AcDbEntity
  8
Layer 1
 62
     7
370
    25
100
AcDb2dPolyline
 66
     1
 10
0.0
 20
0.0
 30
0.0
  0
VERTEX
  5
12C
330
12B
100
AcDbEntity
  8
Layer 1
 62
     7
370
    25
100
AcDbVertex
100
AcDb2dVertex
 10
-152.1185356607551
 20
191.2289821570539
 30
0.0
  0
VERTEX
  5
12D
330
12B
100
AcDbEntity
  8
Layer 1
 62
     7
370
    25
100
AcDbVertex
100
AcDb2dVertex
 10
-145.0626355974149
 20
191.2289821570539
 30
0.0
  0
SEQEND
  5
12E
330
12B
100
AcDbEntity
  8
Layer 1
370
    25
  0
POLYLINE
  5
12F
330
3C
100
AcDbEntity
  8
Layer 1
 62
     7
370
    25
100
AcDb2dPolyline
 66
     1
 10
0.0
 20
0.0
 30
0.0
  0
VERTEX
  5
130
330
12F
100
AcDbEntity
  8
Layer 1
 62
     7
370
    25
100
AcDbVertex
100
AcDb2dVertex
 10
-145.0626355974149
 20
191.2289821570539
 30
0.0
  0
VERTEX
  5
131
330
12F
100
AcDbEntity
  8
Layer 1
 62
     7
370
    25
100
AcDbVertex
100
AcDb2dVertex
 10
-138.006907788849
 20
185.9373154917101
 30
0.0
  0
SEQEND
  5
132
330
12F
100
AcDbEntity
  8
Layer 1
370
    25
  0
POLYLINE
  5
133
330
3C
100
AcDbEntity
  8
Layer 1
 62
     7
370
    25
100
AcDb2dPolyline
 66
     1
 10
0.0
 20
0.0
 30
0.0
  0
VERTEX
  5
134
330
133
100
AcDbEntity
  8
Layer 1
 62
     7
370
    25
100
AcDbVertex
100
AcDb2dVertex
 10
-138.006907788849
 20
185.9373154917101
 30
0.0
  0
VERTEX
  5
135
330
133
100
AcDbEntity
  8
Layer 1
 62
     7
370
    25
100
AcDbVertex
100
AcDb2dVertex
 10
-138.006907788849
 20
175.3532931419256
 30
0.0
  0
SEQEND
  5
136
330
133
100
AcDbEntity
  8
Layer 1
370
    25
  0
POLYLINE
  5
137
330
3C
100
AcDbEntity
  8
Layer 1
 62
     7
370
    25
100
AcDb2dPolyline
 66
     1
 10
0.0
 20
0.0
 30
0.0
  0
VERTEX
  5
138
330
137
100
AcDbEntity
  8
Layer 1
 62
     7
370
    25
100
AcDbVertex
100
AcDb2dVertex
 10
-138.006907788849
 20
175.3532931419256
 30
0.0
  0
VERTEX
  5
139
330
137
100
AcDbEntity
  8
Layer 1
 62
     7
370
    25
100
AcDbVertex
100
AcDb2dVertex
 10
-130.9515244898316
 20
170.0616264765818
 30
0.0
  0
SEQEND
  5
13A
330
137
100
AcDbEntity
  8
Layer 1
370
    25
  0
POLYLINE
  5
13B
330
3C
100
AcDbEntity
  8
Layer 1
 62
     7
370
    25
100
AcDb2dPolyline
 66
     1
 10
0.0
 20
0.0
 30
0.0
  0
VERTEX
  5
13C
330
13B
100
AcDbEntity
  8
Layer 1
 62
     7
370
    25
100
AcDbVertex
100
AcDb2dVertex
 10
-130.9515244898316
 20
170.0616264765818
 30
0.0
  0
VERTEX
  5
13D
330
13B
100
AcDbEntity
  8
Layer 1
 62
     7
370
    25
100
AcDbVertex
100
AcDb2dVertex
 10
-116.8404133822482
 20
170.0616264765818
 30
0.0
  0
SEQEND
  5
13E
330
13B
100
AcDbEntity
  8
Layer 1
370
    25
  0
POLYLINE
  5
13F
330
3C
100
AcDbEntity
  8
Layer 1
 62
     7
370
    25
100
AcDb2dPolyline
 66
     1
 10
0.0
 20
0.0
 30
0.0
  0
VERTEX
  5
140
330
13F
100
AcDbEntity
  8
Layer 1
 62
     7
370
    25
100
AcDbVertex
100
AcDb2dVertex
 10
-116.8404133822482
 20
170.0616264765818
 30
0.0
  0
VERTEX
  5
141
330
13F
100
AcDbEntity
  8
Layer 1
 62
     7
370
    25
100
AcDbVertex
100
AcDb2dVertex
 10
-116.8404133822482
 20
191.2289821570539
 30
0.0
  0
SEQEND
  5
142
330
13F
100
AcDbEntity
  8
Layer 1
370
    25
  0
POLYLINE
  5
143
330
3C
100
AcDbEntity
  8
Layer 1
 62
     7
370
    25
100
AcDb2dPolyline
 66
     1
 10
0.0
 20
0.0
 30
0.0
  0
VERTEX
  5
144
330
143
100
AcDbEntity
  8
Layer 1
 62
     7
370
    25
100
AcDbVertex
100
AcDb2dVertex
 10
-152.1185356607551
 20
201.8123154877414
 30
0.0
  0
VERTEX
  5
145
330
143
100
AcDbEntity
  8
Layer 1
 62
     7
370
    25
100
AcDbVertex
100
AcDb2dVertex
 10
-159.1737467049983
 20
207.1039821530851
 30
0.0
  0
SEQEND
  5
146
330
143
100
AcDbEntity
  8
Layer 1
370
    25
  0
POLYLINE
  5
147
330
3C
100
AcDbEntity
  8
Layer 1
 62
     7
370
    25
100
AcDb2dPolyline
 66
     1
 10
0.0
 20
0.0
 30
0.0
  0
VERTEX
  5
148
330
147
100
AcDbEntity
  8
Layer 1
 62
     7
370
    25
100
AcDbVertex
100
AcDb2dVertex
 10
-159.1737467049983
 20
207.1039821530851
 30
0.0
  0
VERTEX
  5
149
330
147
100
AcDbEntity
  8
Layer 1
 62
     7
370
    25
100
AcDbVertex
100
AcDb2dVertex
 10
-159.1737467049983
 20
217.6873154837726
 30
0.0
  0
SEQEND
  5
14A
330
147
100
AcDbEntity
  8
Layer 1
370
    25
  0
POLYLINE
  5
14B
330
3C
100
AcDbEntity
  8
Layer 1
 62
     7
370
    25
100
AcDb2dPolyline
 66
     1
 10
0.0
 20
0.0
 30
0.0
  0
VERTEX
  5
14C
330
14B
100
AcDbEntity
  8
Layer 1
 62
     7
370
    25
100
AcDbVertex
100
AcDb2dVertex
 10
-159.1737467049983
 20
217.6873154837726
 30
0.0
  0
VERTEX
  5
14D
330
14B
100
AcDbEntity
  8
Layer 1
 62
     7
370
    25
100
AcDbVertex
100
AcDb2dVertex
 10
-152.1185356607551
 20
222.9782931300193
 30
0.0
  0
SEQEND
  5
14E
330
14B
100
AcDbEntity
  8
Layer 1
370
    25
  0
POLYLINE
  5
14F
330
3C
100
AcDbEntity
  8
Layer 1
 62
     7
370
    25
100
AcDb2dPolyline
 66
     1
 10
0.0
 20
0.0
 30
0.0
  0
VERTEX
  5
150
330
14F
100
AcDbEntity
  8
Layer 1
 62
     7
370
    25
100
AcDbVertex
100
AcDb2dVertex
 10
-152.1185356607551
 20
222.9782931300193
 30
0.0
  0
VERTEX
  5
151
330
14F
100
AcDbEntity
  8
Layer 1
 62
     7
370
    25
100
AcDbVertex
100
AcDb2dVertex
 10
-145.0626355974149
 20
222.9782931300193
 30
0.0
  0
SEQEND
  5
152
330
14F
100
AcDbEntity
  8
Layer 1
370
    25
  0
POLYLINE
  5
153
330
3C
100
AcDbEntity
  8
Layer 1
 62
     7
370
    25
100
AcDb2dPolyline
 66
     1
 10
0.0
 20
0.0
 30
0.0
  0
VERTEX
  5
154
330
153
100
AcDbEntity
  8
Layer 1
 62
     7
370
    25
100
AcDbVertex
100
AcDb2dVertex
 10
-145.0626355974149
 20
222.9782931300193
 30
0.0
  0
VERTEX
  5
155
330
153
100
AcDbEntity
  8
Layer 1
 62
     7
370
    25
100
AcDbVertex
100
AcDb2dVertex
 10
-138.006907788849
 20
217.6873154837726
 30
0.0
  0
SEQEND
  5
156
330
153
100
AcDbEntity
  8
Layer 1
370
    25
  0
POLYLINE
  5
157
330
3C
100
AcDbEntity
  8
Layer 1
 62
     7
370
    25
100
AcDb2dPolyline
 66
     1
 10
0.0
 20
0.0
 30
0.0
  0
VERTEX
  5
158
330
157
100
AcDbEntity
  8
Layer 1
 62
     7
370
    25
100
AcDbVertex
100
AcDb2dVertex
 10
-138.006907788849
 20
217.6873154837726
 30
0.0
  0
VERTEX
  5
159
330
157
100
AcDbEntity
  8
Layer 1
 62
     7
370
    25
100
AcDbVertex
100
AcDb2dVertex
 10
-138.006907788849
 20
207.1039821530851
 30
0.0
  0
SEQEND
  5
15A
330
157
100
AcDbEntity
  8
Layer 1
370
    25
  0
POLYLINE
  5
15B
330
3C
100
AcDbEntity
  8
Layer 1
 62
     7
370
    25
100
AcDb2dPolyline
 66
     1
 10
0.0
 20
0.0
 30
0.0
  0
VERTEX
  5
15C
330
15B
100
AcDbEntity
  8
Layer 1
 62
     7
370
    25
100
AcDbVertex
100
AcDb2dVertex
 10
-138.006907788849
 20
207.1039821530851
 30
0.0
  0
VERTEX
  5
15D
330
15B
100
AcDbEntity
  8
Layer 1
 62
     7
370
    25
100
AcDbVertex
100
AcDb2dVertex
 10
-130.9515244898316
 20
201.8123154877414
 30
0.0
  0
SEQEND
  5
15E
330
15B
100
AcDbEntity
  8
Layer 1
370
    25
  0
POLYLINE
  5
15F
330
3C
100
AcDbEntity
  8
Layer 1
 62
     7
370
    25
100
AcDb2dPolyline
 66
     1
 10
0.0
 20
0.0
 30
0.0
  0
VERTEX
  5
160
330
15F
100
AcDbEntity
  8
Layer 1
 62
     7
370
    25
100
AcDbVertex
100
AcDb2dVertex
 10
-130.9515244898316
 20
201.8123154877414
 30
0.0
  0
VERTEX
  5
161
330
15F
100
AcDbEntity
  8
Layer 1
 62
     7
370
    25
100
AcDbVertex
100
AcDb2dVertex
 10
-116.8404133822482
 20
201.8123154877414
 30
0.0
  0
SEQEND
  5
162
330
15F
100
AcDbEntity
  8
Layer 1
370
    25
  0
POLYLINE
  5
163
330
3C
100
AcDbEntity
  8
Layer 1
 62
     7
370
    25
100
AcDb2dPolyline
 66
     1
 10
0.0
 20
0.0
 30
0.0
  0
VERTEX
  5
164
330
163
100
AcDbEntity
  8
Layer 1
 62
     7
370
    25
100
AcDbVertex
100
AcDb2dVertex
 10
-116.8404133822482
 20
201.8123154877414
 30
0.0
  0
VERTEX
  5
165
330
163
100
AcDbEntity
  8
Layer 1
 62
     7
370
    25
100
AcDbVertex
100
AcDb2dVertex
 10
-116.8404133822482
 20
222.9782931300193
 30
0.0
  0
SEQEND
  5
166
330
163
100
AcDbEntity
  8
Layer 1
370
    25
  0
POLYLINE
  5
167
330
3C
100
AcDbEntity
  8
Layer 1
 62
     7
370
    25
100
AcDb2dPolyline
 66
     1
 10
0.0
 20
0.0
 30
0.0
  0
VERTEX
  5
168
330
167
100
AcDbEntity
  8
Layer 1
 62
     7
370
    25
100
AcDbVertex
100
AcDb2dVertex
 10
-123.8961411908142
 20
233.5616264607068
 30
0.0
  0
VERTEX
  5
169
330
167
100
AcDbEntity
  8
Layer 1
 62
     7
370
    25
100
AcDbVertex
100
AcDb2dVertex
 10
-116.8404133822482
 20
238.8532931260506
 30
0.0
  0
SEQEND
  5
16A
330
167
100
AcDbEntity
  8
Layer 1
370
    25
  0
POLYLINE
  5
16B
330
3C
100
AcDbEntity
  8
Layer 1
 62
     7
370
    25
100
AcDb2dPolyline
 66
     1
 10
0.0
 20
0.0
 30
0.0
  0
VERTEX
  5
16C
330
16B
100
AcDbEntity
  8
Layer 1
 62
     7
370
    25
100
AcDbVertex
100
AcDb2dVertex
 10
-116.8404133822482
 20
238.8532931260506
 30
0.0
  0
VERTEX
  5
16D
330
16B
100
AcDbEntity
  8
Layer 1
 62
     7
370
    25
100
AcDbVertex
100
AcDb2dVertex
 10
-116.8404133822482
 20
249.4366264567381
 30
0.0
  0
SEQEND
  5
16E
330
16B
100
AcDbEntity
  8
Layer 1
370
    25
  0
POLYLINE
  5
16F
330
3C
100
AcDbEntity
  8
Layer 1
 62
     7
370
    25
100
AcDb2dPolyline
 66
     1
 10
0.0
 20
0.0
 30
0.0
  0
VERTEX
  5
170
330
16F
100
AcDbEntity
  8
Layer 1
 62
     7
370
    25
100
AcDbVertex
100
AcDb2dVertex
 10
-116.8404133822482
 20
249.4366264567381
 30
0.0
  0
VERTEX
  5
171
330
16F
100
AcDbEntity
  8
Layer 1
 62
     7
370
    25
100
AcDbVertex
100
AcDb2dVertex
 10
-123.8961411908142
 20
254.7282931220818
 30
0.0
  0
SEQEND
  5
172
330
16F
100
AcDbEntity
  8
Layer 1
370
    25
  0
POLYLINE
  5
173
330
3C
100
AcDbEntity
  8
Layer 1
 62
     7
370
    25
100
AcDb2dPolyline
 66
     1
 10
0.0
 20
0.0
 30
0.0
  0
VERTEX
  5
174
330
173
100
AcDbEntity
  8
Layer 1
 62
     7
370
    25
100
AcDbVertex
100
AcDb2dVertex
 10
-123.8961411908142
 20
254.7282931220818
 30
0.0
  0
VERTEX
  5
175
330
173
100
AcDbEntity
  8
Layer 1
 62
     7
370
    25
100
AcDbVertex
100
AcDb2dVertex
 10
-138.006907788849
 20
254.7282931220818
 30
0.0
  0
SEQEND
  5
176
330
173
100
AcDbEntity
  8
Layer 1
370
    25
  0
POLYLINE
  5
177
330
3C
100
AcDbEntity
  8
Layer 1
 62
     7
370
    25
100
AcDb2dPolyline
 66
     1
 10
0.0
 20
0.0
 30
0.0
  0
VERTEX
  5
178
330
177
100
AcDbEntity
  8
Layer 1
 62
     7
370
    25
100
AcDbVertex
100
AcDb2dVertex
 10
-138.006907788849
 20
254.7282931220818
 30
0.0
  0
VERTEX
  5
179
330
177
100
AcDbEntity
  8
Layer 1
 62
     7
370
    25
100
AcDbVertex
100
AcDb2dVertex
 10
-145.0626355974149
 20
249.4366264567381
 30
0.0
  0
SEQEND
  5
17A
330
177
100
AcDbEntity
  8
Layer 1
370
    25
  0
POLYLINE
  5
17B
330
3C
100
AcDbEntity
  8
Layer 1
 62
     7
370
    25
100
AcDb2dPolyline
 66
     1
 10
0.0
 20
0.0
 30
0.0
  0
VERTEX
  5
17C
330
17B
100
AcDbEntity
  8
Layer 1
 62
     7
370
    25
100
AcDbVertex
100
AcDb2dVertex
 10
-145.0626355974149
 20
249.4366264567381
 30
0.0
  0
VERTEX
  5
17D
330
17B
100
AcDbEntity
  8
Layer 1
 62
     7
370
    25
100
AcDbVertex
100
AcDb2dVertex
 10
-145.0626355974149
 20
233.5616264607068
 30
0.0
  0
SEQEND
  5
17E
330
17B
100
AcDbEntity
  8
Layer 1
370
    25
  0
POLYLINE
  5
17F
330
3C
100
AcDbEntity
  8
Layer 1
 62
     7
370
    25
100
AcDb2dPolyline
 66
     1
 10
0.0
 20
0.0
 30
0.0
  0
VERTEX
  5
180
330
17F
100
AcDbEntity
  8
Layer 1
 62
     7
370
    25
100
AcDbVertex
100
AcDb2dVertex
 10
-145.0626355974149
 20
233.5616264607068
 30
0.0
  0
VERTEX
  5
181
330
17F
100
AcDbEntity
  8
Layer 1
 62
     7
370
    25
100
AcDbVertex
100
AcDb2dVertex
 10
-159.1737467049983
 20
233.5616264607068
 30
0.0
  0
SEQEND
  5
182
330
17F
100
AcDbEntity
  8
Layer 1
370
    25
  0
POLYLINE
  5
183
330
3C
100
AcDbEntity
  8
Layer 1
 62
     7
370
    25
100
AcDb2dPolyline
 66
     1
 10
0.0
 20
0.0
 30
0.0
  0
VERTEX
  5
184
330
183
100
AcDbEntity
  8
Layer 1
 62
     7
370
    25
100
AcDbVertex
100
AcDb2dVertex
 10
-159.1737467049983
 20
233.5616264607068
 30
0.0
  0
VERTEX
  5
185
330
183
100
AcDbEntity
  8
Layer 1
 62
     7
370
    25
100
AcDbVertex
100
AcDb2dVertex
 10
-159.1737467049983
 20
254.7282931220818
 30
0.0
  0
SEQEND
  5
186
330
183
100
AcDbEntity
  8
Layer 1
370
    25
  0
POLYLINE
  5
187
330
3C
100
AcDbEntity
  8
Layer 1
 62
     7
370
    15
100
AcDb2dPolyline
 66
     1
 10
0.0
 20
0.0
 30
0.0
  0
VERTEX
  5
188
330
187
100
AcDbEntity
  8
Layer 1
 62
     7
370
    15
100
AcDbVertex
100
AcDb2dVertex
 10
805.3954560703526
 20
598.7818832595927
 30
0.0
  0
VERTEX
  5
189
330
187
100
AcDbEntity
  8
Layer 1
 62
     7
370
    15
100
AcDbVertex
100
AcDb2dVertex
 10
805.3954560703526
 20
1083.781219889645
 30
0.0
  0
SEQEND
  5
18A
330
187
100
AcDbEntity
  8
Layer 1
370
    15
  0
SPLINE
  5
18B
330
3C
100
AcDbEntity
  8
Layer 1
 62
     7
370
    15
100
AcDbSpline
210
0.0
220
0.0
230
1.0
 70
     8
 71
     3
 72
     8
 73
     4
 74
     0
 42
0.0000000001
 43
0.0000000001
 40
0.0
 40
0.0
 40
0.0
 40
0.0
 40
1.0
 40
1.0
 40
1.0
 40
1.0
 10
795.3950328957693
 20
588.781804594558
 30
0.0
 10
800.9182099777219
 20
588.781804594558
 30
0.0
 10
805.3954560703526
 20
593.2590506871887
 30
0.0
 10
805.3954560703526
 20
598.7818832595927
 30
0.0
  0
POLYLINE
  5
18C
330
3C
100
AcDbEntity
  8
Layer 1
 62
     7
370
    15
100
AcDb2dPolyline
 66
     1
 10
0.0
 20
0.0
 30
0.0
  0
VERTEX
  5
18D
330
18C
100
AcDbEntity
  8
Layer 1
 62
     7
370
    15
100
AcDbVertex
100
AcDb2dVertex
 10
5.396569822869608
 20
588.781804594558
 30
0.0
  0
VERTEX
  5
18E
330
18C
100
AcDbEntity
  8
Layer 1
 62
     7
370
    15
100
AcDbVertex
100
AcDb2dVertex
 10
795.3950328957693
 20
588.781804594558
 30
0.0
  0
SEQEND
  5
18F
330
18C
100
AcDbEntity
  8
Layer 1
370
    15
  0
SPLINE
  5
190
330
3C
100
AcDbEntity
  8
Layer 1
 62
     7
370
    15
100
AcDbSpline
210
0.0
220
0.0
230
1.0
 70
     8
 71
     3
 72
     8
 73
     4
 74
     0
 42
0.0000000001
 43
0.0000000001
 40
0.0
 40
0.0
 40
0.0
 40
0.0
 40
1.0
 40
1.0
 40
1.0
 40
1.0
 10
-4.603336587390833
 20
598.7818832595927
 30
0.0
 10
-4.603336587390833
 20
593.2590506871887
 30
0.0
 10
-0.126435004308669
 20
588.781804594558
 30
0.0
 10
5.396569822869608
 20
588.781804594558
 30
0.0
  0
POLYLINE
  5
191
330
3C
100
AcDbEntity
  8
Layer 1
 62
     7
370
    15
100
AcDb2dPolyline
 66
     1
 10
0.0
 20
0.0
 30
0.0
  0
VERTEX
  5
192
330
191
100
AcDbEntity
  8
Layer 1
 62
     7
370
    15
100
AcDbVertex
100
AcDb2dVertex
 10
-4.603336587390833
 20
1083.781219889645
 30
0.0
  0
VERTEX
  5
193
330
191
100
AcDbEntity
  8
Layer 1
 62
     7
370
    15
100
AcDbVertex
100
AcDb2dVertex
 10
-4.603336587390833
 20
598.7818832595927
 30
0.0
  0
SEQEND
  5
194
330
191
100
AcDbEntity
  8
Layer 1
370
    15
  0
SPLINE
  5
195
330
3C
100
AcDbEntity
  8
Layer 1
 62
     7
370
    15
100
AcDbSpline
210
0.0
220
0.0
230
1.0
 70
     8
 71
     3
 72
     8
 73
     4
 74
     0
 42
0.0000000001
 43
0.0000000001
 40
0.0
 40
0.0
 40
0.0
 40
0.0
 40
1.0
 40
1.0
 40
1.0
 40
1.0
 10
5.396569822869608
 20
1093.781470809454
 30
0.0
 10
-0.126435004308669
 20
1093.781470809454
 30
0.0
 10
-4.603336587390833
 20
1089.304224716823
 30
0.0
 10
-4.603336587390833
 20
1083.781219889645
 30
0.0
  0
POLYLINE
  5
196
330
3C
100
AcDbEntity
  8
Layer 1
 62
     7
370
    15
100
AcDb2dPolyline
 66
     1
 10
0.0
 20
0.0
 30
0.0
  0
VERTEX
  5
197
330
196
100
AcDbEntity
  8
Layer 1
 62
     7
370
    15
100
AcDbVertex
100
AcDb2dVertex
 10
795.3950328957693
 20
1093.781470809454
 30
0.0
  0
VERTEX
  5
198
330
196
100
AcDbEntity
  8
Layer 1
 62
     7
370
    15
100
AcDbVertex
100
AcDb2dVertex
 10
5.396569822869608
 20
1093.781470809454
 30
0.0
  0
SEQEND
  5
199
330
196
100
AcDbEntity
  8
Layer 1
370
    15
  0
SPLINE
  5
19A
330
3C
100
AcDbEntity
  8
Layer 1
 62
     7
370
    15
100
AcDbSpline
210
0.0
220
0.0
230
1.0
 70
     8
 71
     3
 72
     8
 73
     4
 74
     0
 42
0.0000000001
 43
0.0000000001
 40
0.0
 40
0.0
 40
0.0
 40
0.0
 40
1.0
 40
1.0
 40
1.0
 40
1.0
 10
805.3954560703526
 20
1083.781219889645
 30
0.0
 10
805.3954560703526
 20
1089.304224716823
 30
0.0
 10
800.9182099777219
 20
1093.781470809454
 30
0.0
 10
795.3950328957693
 20
1093.781470809454
 30
0.0
  0
SPLINE
  5
19B
330
3C
100
AcDbEntity
  8
Layer 1
 62
     7
370
    15
100
AcDbSpline
210
0.0
220
0.0
230
1.0
 70
     8
 71
     3
 72
     8
 73
     4
 74
     0
 42
0.0000000001
 43
0.0000000001
 40
0.0
 40
0.0
 40
0.0
 40
0.0
 40
1.0
 40
1.0
 40
1.0
 40
1.0
 10
30.39642197590784
 20
1068.781101892093
 30
0.0
 10
24.87341714872956
 20
1068.781101892093
 30
0.0
 10
20.3965155656474
 20
1064.304200309011
 30
0.0
 10
20.3965155656474
 20
1058.781367736607
 30
0.0
  0
POLYLINE
  5
19C
330
3C
100
AcDbEntity
  8
Layer 1
 62
     7
370
    15
100
AcDb2dPolyline
 66
     1
 10
0.0
 20
0.0
 30
0.0
  0
VERTEX
  5
19D
330
19C
100
AcDbEntity
  8
Layer 1
 62
     7
370
    15
100
AcDbVertex
100
AcDb2dVertex
 10
770.3956975070539
 20
1068.781101892093
 30
0.0
  0
VERTEX
  5
19E
330
19C
100
AcDbEntity
  8
Layer 1
 62
     7
370
    15
100
AcDbVertex
100
AcDb2dVertex
 10
30.39642197590784
 20
1068.781101892093
 30
0.0
  0
SEQEND
  5
19F
330
19C
100
AcDbEntity
  8
Layer 1
370
    15
  0
SPLINE
  5
1A0
330
3C
100
AcDbEntity
  8
Layer 1
 62
     7
370
    15
100
AcDbSpline
210
0.0
220
0.0
230
1.0
 70
     8
 71
     3
 72
     8
 73
     4
 74
     0
 42
0.0000000001
 43
0.0000000001
 40
0.0
 40
0.0
 40
0.0
 40
0.0
 40
1.0
 40
1.0
 40
1.0
 40
1.0
 10
780.3961206816372
 20
1058.781367736607
 30
0.0
 10
780.3961206816372
 20
1064.304200309011
 30
0.0
 10
775.9185300794579
 20
1068.781101892093
 30
0.0
 10
770.3956975070539
 20
1068.781101892093
 30
0.0
  0
POLYLINE
  5
1A1
330
3C
100
AcDbEntity
  8
Layer 1
 62
     7
370
    15
100
AcDb2dPolyline
 66
     1
 10
0.0
 20
0.0
 30
0.0
  0
VERTEX
  5
1A2
330
1A1
100
AcDbEntity
  8
Layer 1
 62
     7
370
    15
100
AcDbVertex
100
AcDb2dVertex
 10
780.3961206816372
 20
623.7819076674052
 30
0.0
  0
VERTEX
  5
1A3
330
1A1
100
AcDbEntity
  8
Layer 1
 62
     7
370
    15
100
AcDbVertex
100
AcDb2dVertex
 10
780.3961206816372
 20
1058.781367736607
 30
0.0
  0
SEQEND
  5
1A4
330
1A1
100
AcDbEntity
  8
Layer 1
370
    15
  0
POLYLINE
  5
1A5
330
3C
100
AcDbEntity
  8
Layer 1
 62
     7
370
    15
100
AcDb2dPolyline
 66
     1
 10
0.0
 20
0.0
 30
0.0
  0
VERTEX
  5
1A6
330
1A5
100
AcDbEntity
  8
Layer 1
 62
     7
370
    15
100
AcDbVertex
100
AcDb2dVertex
 10
20.3965155656474
 20
1058.781367736607
 30
0.0
  0
VERTEX
  5
1A7
330
1A5
100
AcDbEntity
  8
Layer 1
 62
     7
370
    15
100
AcDbVertex
100
AcDb2dVertex
 10
20.3965155656474
 20
623.7819076674052
 30
0.0
  0
SEQEND
  5
1A8
330
1A5
100
AcDbEntity
  8
Layer 1
370
    15
  0
SPLINE
  5
1A9
330
3C
100
AcDbEntity
  8
Layer 1
 62
     7
370
    15
100
AcDbSpline
210
0.0
220
0.0
230
1.0
 70
     8
 71
     3
 72
     8
 73
     4
 74
     0
 42
0.0000000001
 43
0.0000000001
 40
0.0
 40
0.0
 40
0.0
 40
0.0
 40
1.0
 40
1.0
 40
1.0
 40
1.0
 10
20.3965155656474
 20
623.7819076674052
 30
0.0
 10
20.3965155656474
 20
618.2590750950012
 30
0.0
 10
24.87341714872956
 20
613.782173511919
 30
0.0
 10
30.39642197590784
 20
613.782173511919
 30
0.0
  0
SPLINE
  5
1AA
330
3C
100
AcDbEntity
  8
Layer 1
 62
     7
370
    15
100
AcDbSpline
210
0.0
220
0.0
230
1.0
 70
     8
 71
     3
 72
     8
 73
     4
 74
     0
 42
0.0000000001
 43
0.0000000001
 40
0.0
 40
0.0
 40
0.0
 40
0.0
 40
1.0
 40
1.0
 40
1.0
 40
1.0
 10
770.3956975070539
 20
613.782173511919
 30
0.0
 10
775.9185300794579
 20
613.782173511919
 30
0.0
 10
780.3961206816372
 20
618.2590750950012
 30
0.0
 10
780.3961206816372
 20
623.7819076674052
 30
0.0
  0
POLYLINE
  5
1AB
330
3C
100
AcDbEntity
  8
Layer 1
 62
     7
370
    15
100
AcDb2dPolyline
 66
     1
 10
0.0
 20
0.0
 30
0.0
  0
VERTEX
  5
1AC
330
1AB
100
AcDbEntity
  8
Layer 1
 62
     7
370
    15
100
AcDbVertex
100
AcDb2dVertex
 10
30.39642197590784
 20
613.782173511919
 30
0.0
  0
VERTEX
  5
1AD
330
1AB
100
AcDbEntity
  8
Layer 1
 62
     7
370
    15
100
AcDbVertex
100
AcDb2dVertex
 10
770.3956975070539
 20
613.782173511919
 30
0.0
  0
SEQEND
  5
1AE
330
1AB
100
AcDbEntity
  8
Layer 1
370
    15
  0
POLYLINE
  5
1AF
330
3C
100
AcDbEntity
  8
Layer 1
 62
     7
370
    15
100
AcDb2dPolyline
 66
     1
 10
0.0
 20
0.0
 30
0.0
  0
VERTEX
  5
1B0
330
1AF
100
AcDbEntity
  8
Layer 1
 62
     7
370
    15
100
AcDbVertex
100
AcDb2dVertex
 10
30.39642197590784
 20
1068.781101892093
 30
0.0
  0
VERTEX
  5
1B1
330
1AF
100
AcDbEntity
  8
Layer 1
 62
     7
370
    15
100
AcDbVertex
100
AcDb2dVertex
 10
30.39642197590784
 20
1058.781367736607
 30
0.0
  0
SEQEND
  5
1B2
330
1AF
100
AcDbEntity
  8
Layer 1
370
    15
  0
POLYLINE
  5
1B3
330
3C
100
AcDbEntity
  8
Layer 1
 62
     7
370
    15
100
AcDb2dPolyline
 66
     1
 10
0.0
 20
0.0
 30
0.0
  0
VERTEX
  5
1B4
330
1B3
100
AcDbEntity
  8
Layer 1
 62
     7
370
    15
100
AcDbVertex
100
AcDb2dVertex
 10
20.3965155656474
 20
1058.781367736607
 30
0.0
  0
VERTEX
  5
1B5
330
1B3
100
AcDbEntity
  8
Layer 1
 62
     7
370
    15
100
AcDbVertex
100
AcDb2dVertex
 10
30.39642197590784
 20
1058.781367736607
 30
0.0
  0
SEQEND
  5
1B6
330
1B3
100
AcDbEntity
  8
Layer 1
370
    15
  0
POLYLINE
  5
1B7
330
3C
100
AcDbEntity
  8
Layer 1
 62
     7
370
    15
100
AcDb2dPolyline
 66
     1
 10
0.0
 20
0.0
 30
0.0
  0
VERTEX
  5
1B8
330
1B7
100
AcDbEntity
  8
Layer 1
 62
     7
370
    15
100
AcDbVertex
100
AcDb2dVertex
 10
770.3956975070539
 20
1068.781101892093
 30
0.0
  0
VERTEX
  5
1B9
330
1B7
100
AcDbEntity
  8
Layer 1
 62
     7
370
    15
100
AcDbVertex
100
AcDb2dVertex
 10
770.3956975070539
 20
1058.781367736607
 30
0.0
  0
SEQEND
  5
1BA
330
1B7
100
AcDbEntity
  8
Layer 1
370
    15
  0
POLYLINE
  5
1BB
330
3C
100
AcDbEntity
  8
Layer 1
 62
     7
370
    15
100
AcDb2dPolyline
 66
     1
 10
0.0
 20
0.0
 30
0.0
  0
VERTEX
  5
1BC
330
1BB
100
AcDbEntity
  8
Layer 1
 62
     7
370
    15
100
AcDbVertex
100
AcDb2dVertex
 10
770.3956975070539
 20
1058.781367736607
 30
0.0
  0
VERTEX
  5
1BD
330
1BB
100
AcDbEntity
  8
Layer 1
 62
     7
370
    15
100
AcDbVertex
100
AcDb2dVertex
 10
30.39642197590784
 20
1058.781367736607
 30
0.0
  0
SEQEND
  5
1BE
330
1BB
100
AcDbEntity
  8
Layer 1
370
    15
  0
POLYLINE
  5
1BF
330
3C
100
AcDbEntity
  8
Layer 1
 62
     7
370
    15
100
AcDb2dPolyline
 66
     1
 10
0.0
 20
0.0
 30
0.0
  0
VERTEX
  5
1C0
330
1BF
100
AcDbEntity
  8
Layer 1
 62
     7
370
    15
100
AcDbVertex
100
AcDb2dVertex
 10
770.3956975070539
 20
1058.781367736607
 30
0.0
  0
VERTEX
  5
1C1
330
1BF
100
AcDbEntity
  8
Layer 1
 62
     7
370
    15
100
AcDbVertex
100
AcDb2dVertex
 10
780.3961206816372
 20
1058.781367736607
 30
0.0
  0
SEQEND
  5
1C2
330
1BF
100
AcDbEntity
  8
Layer 1
370
    15
  0
POLYLINE
  5
1C3
330
3C
100
AcDbEntity
  8
Layer 1
 62
     7
370
    15
100
AcDb2dPolyline
 66
     1
 10
0.0
 20
0.0
 30
0.0
  0
VERTEX
  5
1C4
330
1C3
100
AcDbEntity
  8
Layer 1
 62
     7
370
    15
100
AcDbVertex
100
AcDb2dVertex
 10
30.39642197590784
 20
1058.781367736607
 30
0.0
  0
VERTEX
  5
1C5
330
1C3
100
AcDbEntity
  8
Layer 1
 62
     7
370
    15
100
AcDbVertex
100
AcDb2dVertex
 10
30.39642197590784
 20
623.7819076674052
 30
0.0
  0
SEQEND
  5
1C6
330
1C3
100
AcDbEntity
  8
Layer 1
370
    15
  0
POLYLINE
  5
1C7
330
3C
100
AcDbEntity
  8
Layer 1
 62
     7
370
    15
100
AcDb2dPolyline
 66
     1
 10
0.0
 20
0.0
 30
0.0
  0
VERTEX
  5
1C8
330
1C7
100
AcDbEntity
  8
Layer 1
 62
     7
370
    15
100
AcDbVertex
100
AcDb2dVertex
 10
20.3965155656474
 20
623.7819076674052
 30
0.0
  0
VERTEX
  5
1C9
330
1C7
100
AcDbEntity
  8
Layer 1
 62
     7
370
    15
100
AcDbVertex
100
AcDb2dVertex
 10
30.39642197590784
 20
623.7819076674052
 30
0.0
  0
SEQEND
  5
1CA
330
1C7
100
AcDbEntity
  8
Layer 1
370
    15
  0
POLYLINE
  5
1CB
330
3C
100
AcDbEntity
  8
Layer 1
 62
     7
370
    15
100
AcDb2dPolyline
 66
     1
 10
0.0
 20
0.0
 30
0.0
  0
VERTEX
  5
1CC
330
1CB
100
AcDbEntity
  8
Layer 1
 62
     7
370
    15
100
AcDbVertex
100
AcDb2dVertex
 10
770.3956975070539
 20
623.7819076674052
 30
0.0
  0
VERTEX
  5
1CD
330
1CB
100
AcDbEntity
  8
Layer 1
 62
     7
370
    15
100
AcDbVertex
100
AcDb2dVertex
 10
770.3956975070539
 20
1058.781367736607
 30
0.0
  0
SEQEND
  5
1CE
330
1CB
100
AcDbEntity
  8
Layer 1
370
    15
  0
POLYLINE
  5
1CF
330
3C
100
AcDbEntity
  8
Layer 1
 62
     7
370
    15
100
AcDb2dPolyline
 66
     1
 10
0.0
 20
0.0
 30
0.0
  0
VERTEX
  5
1D0
330
1CF
100
AcDbEntity
  8
Layer 1
 62
     7
370
    15
100
AcDbVertex
100
AcDb2dVertex
 10
770.3956975070539
 20
623.7819076674052
 30
0.0
  0
VERTEX
  5
1D1
330
1CF
100
AcDbEntity
  8
Layer 1
 62
     7
370
    15
100
AcDbVertex
100
AcDb2dVertex
 10
780.3961206816372
 20
623.7819076674052
 30
0.0
  0
SEQEND
  5
1D2
330
1CF
100
AcDbEntity
  8
Layer 1
370
    15
  0
POLYLINE
  5
1D3
330
3C
100
AcDbEntity
  8
Layer 1
 62
     7
370
    15
100
AcDb2dPolyline
 66
     1
 10
0.0
 20
0.0
 30
0.0
  0
VERTEX
  5
1D4
330
1D3
100
AcDbEntity
  8
Layer 1
 62
     7
370
    15
100
AcDbVertex
100
AcDb2dVertex
 10
30.39642197590784
 20
623.7819076674052
 30
0.0
  0
VERTEX
  5
1D5
330
1D3
100
AcDbEntity
  8
Layer 1
 62
     7
370
    15
100
AcDbVertex
100
AcDb2dVertex
 10
770.3956975070539
 20
623.7819076674052
 30
0.0
  0
SEQEND
  5
1D6
330
1D3
100
AcDbEntity
  8
Layer 1
370
    15
  0
POLYLINE
  5
1D7
330
3C
100
AcDbEntity
  8
Layer 1
 62
     7
370
    15
100
AcDb2dPolyline
 66
     1
 10
0.0
 20
0.0
 30
0.0
  0
VERTEX
  5
1D8
330
1D7
100
AcDbEntity
  8
Layer 1
 62
     7
370
    15
100
AcDbVertex
100
AcDb2dVertex
 10
770.3956975070539
 20
623.7819076674052
 30
0.0
  0
VERTEX
  5
1D9
330
1D7
100
AcDbEntity
  8
Layer 1
 62
     7
370
    15
100
AcDbVertex
100
AcDb2dVertex
 10
770.3956975070539
 20
613.782173511919
 30
0.0
  0
SEQEND
  5
1DA
330
1D7
100
AcDbEntity
  8
Layer 1
370
    15
  0
POLYLINE
  5
1DB
330
3C
100
AcDbEntity
  8
Layer 1
 62
     7
370
    15
100
AcDb2dPolyline
 66
     1
 10
0.0
 20
0.0
 30
0.0
  0
VERTEX
  5
1DC
330
1DB
100
AcDbEntity
  8
Layer 1
 62
     7
370
    15
100
AcDbVertex
100
AcDb2dVertex
 10
30.39642197590784
 20
623.7819076674052
 30
0.0
  0
VERTEX
  5
1DD
330
1DB
100
AcDbEntity
  8
Layer 1
 62
     7
370
    15
100
AcDbVertex
100
AcDb2dVertex
 10
30.39642197590784
 20
613.782173511919
 30
0.0
  0
SEQEND
  5
1DE
330
1DB
100
AcDbEntity
  8
Layer 1
370
    15
  0
POLYLINE
  5
1DF
330
3C
100
AcDbEntity
  8
Layer 1
 62
     7
370
    15
100
AcDb2dPolyline
 66
     1
 10
0.0
 20
0.0
 30
0.0
  0
VERTEX
  5
1E0
330
1DF
100
AcDbEntity
  8
Layer 1
 62
     7
370
    15
100
AcDbVertex
100
AcDb2dVertex
 10
770.3956975070539
 20
1058.781367736607
 30
0.0
  0
VERTEX
  5
1E1
330
1DF
100
AcDbEntity
  8
Layer 1
 62
     7
370
    15
100
AcDbVertex
100
AcDb2dVertex
 10
614.1737086138177
 20
1015.258270688026
 30
0.0
  0
VERTEX
  5
1E2
330
1DF
100
AcDbEntity
  8
Layer 1
 62
     7
370
    15
100
AcDbVertex
100
AcDb2dVertex
 10
457.9527532492271
 20
971.735345894219
 30
0.0
  0
SEQEND
  5
1E3
330
1DF
100
AcDbEntity
  8
Layer 1
370
    15
  0
SPLINE
  5
1E4
330
3C
100
AcDbEntity
  8
Layer 1
 62
     7
370
    15
100
AcDbSpline
210
0.0
220
0.0
230
1.0
 70
     8
 71
     3
 72
     8
 73
     4
 74
     0
 42
0.0000000001
 43
0.0000000001
 40
0.0
 40
0.0
 40
0.0
 40
0.0
 40
1.0
 40
1.0
 40
1.0
 40
1.0
 10
446.3961804439566
 20
978.7815996902004
 30
0.0
 10
447.5823268195281
 20
978.7815996902004
 30
0.0
 10
448.7684731950995
 20
978.6181299094254
 30
0.0
 10
449.9108668580084
 20
978.2973915197487
 30
0.0
  0
SPLINE
  5
1E5
330
3C
100
AcDbEntity
  8
Layer 1
 62
     7
370
    15
100
AcDbSpline
210
0.0
220
0.0
230
1.0
 70
     8
 71
     3
 72
     8
 73
     4
 74
     0
 42
0.0000000001
 43
0.0000000001
 40
0.0
 40
0.0
 40
0.0
 40
0.0
 40
1.0
 40
1.0
 40
1.0
 40
1.0
 10
449.9108668580084
 20
978.2973915197487
 30
0.0
 10
451.0529160113687
 20
977.9766531300719
 30
0.0
 10
452.1501789234208
 20
977.4986461314934
 30
0.0
 10
453.1637260151813
 20
976.8811127657624
 30
0.0
  0
SPLINE
  5
1E6
330
3C
100
AcDbEntity
  8
Layer 1
 62
     7
370
    15
100
AcDbSpline
210
0.0
220
0.0
230
1.0
 70
     8
 71
     3
 72
     8
 73
     4
 74
     0
 42
0.0000000001
 43
0.0000000001
 40
0.0
 40
0.0
 40
0.0
 40
0.0
 40
1.0
 40
1.0
 40
1.0
 40
1.0
 10
453.1637260151813
 20
976.8811127657624
 30
0.0
 10
454.1758950687477
 20
976.2634071452571
 30
0.0
 10
455.1043483020226
 20
975.5063474123734
 30
0.0
 10
455.9122231933137
 20
974.6381833500905
 30
0.0
  0
SPLINE
  5
1E7
330
3C
100
AcDbEntity
  8
Layer 1
 62
     7
370
    15
100
AcDbSpline
210
0.0
220
0.0
230
1.0
 70
     8
 71
     3
 72
     8
 73
     4
 74
     0
 42
0.0000000001
 43
0.0000000001
 40
0.0
 40
0.0
 40
0.0
 40
0.0
 40
1.0
 40
1.0
 40
1.0
 40
1.0
 10
455.9122231933137
 20
974.6381833500905
 30
0.0
 10
456.7207871037018
 20
973.7696747782591
 30
0.0
 10
457.4087726721062
 20
972.7902341318024
 30
0.0
 10
457.9527532492271
 20
971.735345894219
 30
0.0
  0
POLYLINE
  5
1E8
330
3C
100
AcDbEntity
  8
Layer 1
 62
     7
370
    15
100
AcDb2dPolyline
 66
     1
 10
0.0
 20
0.0
 30
0.0
  0
VERTEX
  5
1E9
330
1E8
100
AcDbEntity
  8
Layer 1
 62
     7
370
    15
100
AcDbVertex
100
AcDb2dVertex
 10
354.3961112937795
 20
978.7815996902004
 30
0.0
  0
VERTEX
  5
1EA
330
1E8
100
AcDbEntity
  8
Layer 1
 62
     7
370
    15
100
AcDbVertex
100
AcDb2dVertex
 10
446.3961804439566
 20
978.7815996902004
 30
0.0
  0
SEQEND
  5
1EB
330
1E8
100
AcDbEntity
  8
Layer 1
370
    15
  0
SPLINE
  5
1EC
330
3C
100
AcDbEntity
  8
Layer 1
 62
     7
370
    15
100
AcDbSpline
210
0.0
220
0.0
230
1.0
 70
     8
 71
     3
 72
     8
 73
     4
 74
     0
 42
0.0000000001
 43
0.0000000001
 40
0.0
 40
0.0
 40
0.0
 40
0.0
 40
1.0
 40
1.0
 40
1.0
 40
1.0
 10
342.8397107432831
 20
971.735345894219
 30
0.0
 10
343.383002301307
 20
972.7902341318024
 30
0.0
 10
344.07133237926
 20
973.7696747782591
 30
0.0
 10
344.8800685444224
 20
974.6381833500905
 30
0.0
  0
SPLINE
  5
1ED
330
3C
100
AcDbEntity
  8
Layer 1
 62
     7
370
    15
100
AcDbSpline
210
0.0
220
0.0
230
1.0
 70
     8
 71
     3
 72
     8
 73
     4
 74
     0
 42
0.0000000001
 43
0.0000000001
 40
0.0
 40
0.0
 40
0.0
 40
0.0
 40
1.0
 40
1.0
 40
1.0
 40
1.0
 10
344.8800685444224
 20
974.6381833500905
 30
0.0
 10
345.6877711809392
 20
975.5063474123734
 30
0.0
 10
346.6157076498912
 20
976.2634071452571
 30
0.0
 10
347.6285657225547
 20
976.8811127657624
 30
0.0
  0
SPLINE
  5
1EE
330
3C
100
AcDbEntity
  8
Layer 1
 62
     7
370
    15
100
AcDbSpline
210
0.0
220
0.0
230
1.0
 70
     8
 71
     3
 72
     8
 73
     4
 74
     0
 42
0.0000000001
 43
0.0000000001
 40
0.0
 40
0.0
 40
0.0
 40
0.0
 40
1.0
 40
1.0
 40
1.0
 40
1.0
 10
347.6285657225547
 20
976.8811127657624
 30
0.0
 10
348.6414237952181
 20
977.4986461314934
 30
0.0
 10
349.739203471593
 20
977.9766531300719
 30
0.0
 10
350.8812526249533
 20
978.2973915197487
 30
0.0
  0
SPLINE
  5
1EF
330
3C
100
AcDbEntity
  8
Layer 1
 62
     7
370
    15
100
AcDbSpline
210
0.0
220
0.0
230
1.0
 70
     8
 71
     3
 72
     8
 73
     4
 74
     0
 42
0.0000000001
 43
0.0000000001
 40
0.0
 40
0.0
 40
0.0
 40
0.0
 40
1.0
 40
1.0
 40
1.0
 40
1.0
 10
350.8812526249533
 20
978.2973915197487
 30
0.0
 10
352.0234740330879
 20
978.6181299094254
 30
0.0
 10
353.2097926634337
 20
978.7815996902004
 30
0.0
 10
354.3961112937795
 20
978.7815996902004
 30
0.0
  0
POLYLINE
  5
1F0
330
3C
100
AcDbEntity
  8
Layer 1
 62
     7
370
    15
100
AcDb2dPolyline
 66
     1
 10
0.0
 20
0.0
 30
0.0
  0
VERTEX
  5
1F1
330
1F0
100
AcDbEntity
  8
Layer 1
 62
     7
370
    15
100
AcDbVertex
100
AcDb2dVertex
 10
342.8397107432831
 20
971.735345894219
 30
0.0
  0
VERTEX
  5
1F2
330
1F0
100
AcDbEntity
  8
Layer 1
 62
     7
370
    15
100
AcDbVertex
100
AcDb2dVertex
 10
186.6182386143697
 20
1015.258270688026
 30
0.0
  0
VERTEX
  5
1F3
330
1F0
100
AcDbEntity
  8
Layer 1
 62
     7
370
    15
100
AcDbVertex
100
AcDb2dVertex
 10
30.39642197590784
 20
1058.781367736607
 30
0.0
  0
SEQEND
  5
1F4
330
1F0
100
AcDbEntity
  8
Layer 1
370
    15
  0
SPLINE
  5
1F5
330
3C
100
AcDbEntity
  8
Layer 1
 62
     7
370
    15
100
AcDbSpline
210
0.0
220
0.0
230
1.0
 70
     8
 71
     3
 72
     8
 73
     4
 74
     0
 42
0.0000000001
 43
0.0000000001
 40
0.0
 40
0.0
 40
0.0
 40
0.0
 40
1.0
 40
1.0
 40
1.0
 40
1.0
 10
341.3960434801892
 20
965.7813596218359
 30
0.0
 10
341.3960434801892
 20
966.8121321910227
 30
0.0
 10
341.5192056437869
 20
967.8429047602094
 30
0.0
 10
341.762084875497
 20
968.8449107820944
 30
0.0
  0
SPLINE
  5
1F6
330
3C
100
AcDbEntity
  8
Layer 1
 62
     7
370
    15
100
AcDbSpline
210
0.0
220
0.0
230
1.0
 70
     8
 71
     3
 72
     8
 73
     4
 74
     0
 42
0.0000000001
 43
0.0000000001
 40
0.0
 40
0.0
 40
0.0
 40
0.0
 40
1.0
 40
1.0
 40
1.0
 40
1.0
 10
341.762084875497
 20
968.8449107820944
 30
0.0
 10
342.0049641072071
 20
969.8465722944308
 30
0.0
 10
342.3677326618039
 20
970.8189504951425
 30
0.0
 10
342.8397107432831
 20
971.735345894219
 30
0.0
  0
POLYLINE
  5
1F7
330
3C
100
AcDbEntity
  8
Layer 1
 62
     7
370
    15
100
AcDb2dPolyline
 66
     1
 10
0.0
 20
0.0
 30
0.0
  0
VERTEX
  5
1F8
330
1F7
100
AcDbEntity
  8
Layer 1
 62
     7
370
    15
100
AcDbVertex
100
AcDb2dVertex
 10
341.3960434801892
 20
965.7813596218359
 30
0.0
  0
VERTEX
  5
1F9
330
1F7
100
AcDbEntity
  8
Layer 1
 62
     7
370
    15
100
AcDbVertex
100
AcDb2dVertex
 10
341.3960434801892
 20
873.7814627264331
 30
0.0
  0
SEQEND
  5
1FA
330
1F7
100
AcDbEntity
  8
Layer 1
370
    15
  0
SPLINE
  5
1FB
330
3C
100
AcDbEntity
  8
Layer 1
 62
     7
370
    15
100
AcDbSpline
210
0.0
220
0.0
230
1.0
 70
     8
 71
     3
 72
     8
 73
     4
 74
     0
 42
0.0000000001
 43
0.0000000001
 40
0.0
 40
0.0
 40
0.0
 40
0.0
 40
1.0
 40
1.0
 40
1.0
 40
1.0
 10
344.1379949768996
 20
865.7960759011726
 30
0.0
 10
343.2574285708697
 20
866.92710074898
 30
0.0
 10
342.56599790698
 20
868.2048866644592
 30
0.0
 10
342.1005655069228
 20
869.5600149735823
 30
0.0
  0
SPLINE
  5
1FC
330
3C
100
AcDbEntity
  8
Layer 1
 62
     7
370
    15
100
AcDbSpline
210
0.0
220
0.0
230
1.0
 70
     8
 71
     3
 72
     8
 73
     4
 74
     0
 42
0.0000000001
 43
0.0000000001
 40
0.0
 40
0.0
 40
0.0
 40
0.0
 40
1.0
 40
1.0
 40
1.0
 40
1.0
 10
342.1005655069228
 20
869.5600149735823
 30
0.0
 10
341.6351331068655
 20
870.9154877922538
 30
0.0
 10
341.3960434801892
 20
872.3484752593434
 30
0.0
 10
341.3960434801892
 20
873.7814627264331
 30
0.0
  0
POLYLINE
  5
1FD
330
3C
100
AcDbEntity
  8
Layer 1
 62
     7
370
    15
100
AcDb2dPolyline
 66
     1
 10
0.0
 20
0.0
 30
0.0
  0
VERTEX
  5
1FE
330
1FD
100
AcDbEntity
  8
Layer 1
 62
     7
370
    15
100
AcDbVertex
100
AcDb2dVertex
 10
30.39642197590784
 20
623.7819076674052
 30
0.0
  0
VERTEX
  5
1FF
330
1FD
100
AcDbEntity
  8
Layer 1
 62
     7
370
    15
100
AcDbVertex
100
AcDb2dVertex
 10
187.2671223490166
 20
744.7889917842889
 30
0.0
  0
VERTEX
  5
200
330
1FD
100
AcDbEntity
  8
Layer 1
 62
     7
370
    15
100
AcDbVertex
100
AcDb2dVertex
 10
344.1379949768996
 20
865.7960759011726
 30
0.0
  0
SEQEND
  5
201
330
1FD
100
AcDbEntity
  8
Layer 1
370
    15
  0
POLYLINE
  5
202
330
3C
100
AcDbEntity
  8
Layer 1
 62
     7
370
    15
100
AcDb2dPolyline
 66
     1
 10
0.0
 20
0.0
 30
0.0
  0
VERTEX
  5
203
330
202
100
AcDbEntity
  8
Layer 1
 62
     7
370
    15
100
AcDbVertex
100
AcDb2dVertex
 10
770.3956975070539
 20
623.7819076674052
 30
0.0
  0
VERTEX
  5
204
330
202
100
AcDbEntity
  8
Layer 1
 62
     7
370
    15
100
AcDbVertex
100
AcDb2dVertex
 10
613.5249971339451
 20
744.7889917842889
 30
0.0
  0
VERTEX
  5
205
330
202
100
AcDbEntity
  8
Layer 1
 62
     7
370
    15
100
AcDbVertex
100
AcDb2dVertex
 10
456.6542967608365
 20
865.7960759011726
 30
0.0
  0
SEQEND
  5
206
330
202
100
AcDbEntity
  8
Layer 1
370
    15
  0
SPLINE
  5
207
330
3C
100
AcDbEntity
  8
Layer 1
 62
     7
370
    15
100
AcDbSpline
210
0.0
220
0.0
230
1.0
 70
     8
 71
     3
 72
     8
 73
     4
 74
     0
 42
0.0000000001
 43
0.0000000001
 40
0.0
 40
0.0
 40
0.0
 40
0.0
 40
1.0
 40
1.0
 40
1.0
 40
1.0
 10
459.3962482575468
 20
873.7814627264331
 30
0.0
 10
459.3962482575468
 20
872.3484752593434
 30
0.0
 10
459.1564696117734
 20
870.9154877922538
 30
0.0
 10
458.6913817212647
 20
869.5600149735823
 30
0.0
  0
SPLINE
  5
208
330
3C
100
AcDbEntity
  8
Layer 1
 62
     7
370
    15
100
AcDbSpline
210
0.0
220
0.0
230
1.0
 70
     8
 71
     3
 72
     8
 73
     4
 74
     0
 42
0.0000000001
 43
0.0000000001
 40
0.0
 40
0.0
 40
0.0
 40
0.0
 40
1.0
 40
1.0
 40
1.0
 40
1.0
 10
458.6913817212647
 20
869.5600149735823
 30
0.0
 10
458.2256048116589
 20
868.2048866644592
 30
0.0
 10
457.5345186573178
 20
866.92710074898
 30
0.0
 10
456.6542967608365
 20
865.7960759011726
 30
0.0
  0
POLYLINE
  5
209
330
3C
100
AcDbEntity
  8
Layer 1
 62
     7
370
    15
100
AcDb2dPolyline
 66
     1
 10
0.0
 20
0.0
 30
0.0
  0
VERTEX
  5
20A
330
209
100
AcDbEntity
  8
Layer 1
 62
     7
370
    15
100
AcDbVertex
100
AcDb2dVertex
 10
459.3962482575468
 20
965.7813596218359
 30
0.0
  0
VERTEX
  5
20B
330
209
100
AcDbEntity
  8
Layer 1
 62
     7
370
    15
100
AcDbVertex
100
AcDb2dVertex
 10
459.3962482575468
 20
873.7814627264331
 30
0.0
  0
SEQEND
  5
20C
330
209
100
AcDbEntity
  8
Layer 1
370
    15
  0
SPLINE
  5
20D
330
3C
100
AcDbEntity
  8
Layer 1
 62
     7
370
    15
100
AcDbSpline
210
0.0
220
0.0
230
1.0
 70
     8
 71
     3
 72
     8
 73
     4
 74
     0
 42
0.0000000001
 43
0.0000000001
 40
0.0
 40
0.0
 40
0.0
 40
0.0
 40
1.0
 40
1.0
 40
1.0
 40
1.0
 10
457.9527532492271
 20
971.735345894219
 30
0.0
 10
458.4243868211578
 20
970.8189504951425
 30
0.0
 10
458.7871553757546
 20
969.8465722944308
 30
0.0
 10
459.0300346074648
 20
968.8449107820944
 30
0.0
  0
SPLINE
  5
20E
330
3C
100
AcDbEntity
  8
Layer 1
 62
     7
370
    15
100
AcDbSpline
210
0.0
220
0.0
230
1.0
 70
     8
 71
     3
 72
     8
 73
     4
 74
     0
 42
0.0000000001
 43
0.0000000001
 40
0.0
 40
0.0
 40
0.0
 40
0.0
 40
1.0
 40
1.0
 40
1.0
 40
1.0
 10
459.0300346074648
 20
968.8449107820944
 30
0.0
 10
459.2729138391749
 20
967.8429047602094
 30
0.0
 10
459.3962482575468
 20
966.8121321910227
 30
0.0
 10
459.3962482575468
 20
965.7813596218359
 30
0.0
  0
SPLINE
  5
20F
330
3C
100
AcDbEntity
  8
Layer 1
 62
     7
370
    15
100
AcDbSpline
210
0.0
220
0.0
230
1.0
 70
     8
 71
     3
 72
     8
 73
     4
 74
     0
 42
0.0000000001
 43
0.0000000001
 40
0.0
 40
0.0
 40
0.0
 40
0.0
 40
1.0
 40
1.0
 40
1.0
 40
1.0
 10
354.3961112937795
 20
860.7817394223914
 30
0.0
 10
353.4111584945466
 20
860.7817394223914
 30
0.0
 10
352.4262056953136
 20
860.8940495352106
 30
0.0
 10
351.4662298383487
 20
861.1162581940092
 30
0.0
  0
SPLINE
  5
210
330
3C
100
AcDbEntity
  8
Layer 1
 62
     7
370
    15
100
AcDbSpline
210
0.0
220
0.0
230
1.0
 70
     8
 71
     3
 72
     8
 73
     4
 74
     0
 42
0.0000000001
 43
0.0000000001
 40
0.0
 40
0.0
 40
0.0
 40
0.0
 40
1.0
 40
1.0
 40
1.0
 40
1.0
 10
351.4662298383487
 20
861.1162581940092
 30
0.0
 10
350.5060817266096
 20
861.3382945980335
 30
0.0
 10
349.5719440857841
 20
861.6698850384888
 30
0.0
 10
348.6867268008492
 20
862.1024167766619
 30
0.0
  0
SPLINE
  5
211
330
3C
100
AcDbEntity
  8
Layer 1
 62
     7
370
    15
100
AcDbSpline
210
0.0
220
0.0
230
1.0
 70
     8
 71
     3
 72
     8
 73
     4
 74
     0
 42
0.0000000001
 43
0.0000000001
 40
0.0
 40
0.0
 40
0.0
 40
0.0
 40
1.0
 40
1.0
 40
1.0
 40
1.0
 10
348.6867268008492
 20
862.1024167766619
 30
0.0
 10
347.802026280237
 20
862.534948514835
 30
0.0
 10
346.9664183702897
 20
863.0685938055002
 30
0.0
 10
346.2014349177899
 20
863.6897445214908
 30
0.0
  0
SPLINE
  5
212
330
3C
100
AcDbEntity
  8
Layer 1
 62
     7
370
    15
100
AcDbSpline
210
0.0
220
0.0
230
1.0
 70
     8
 71
     3
 72
     8
 73
     4
 74
     0
 42
0.0000000001
 43
0.0000000001
 40
0.0
 40
0.0
 40
0.0
 40
0.0
 40
1.0
 40
1.0
 40
1.0
 40
1.0
 10
346.2014349177899
 20
863.6897445214908
 30
0.0
 10
345.436968229613
 20
864.310722982707
 30
0.0
 10
344.7427814893351
 20
865.0186901049259
 30
0.0
 10
344.1379949768996
 20
865.7960759011726
 30
0.0
  0
POLYLINE
  5
213
330
3C
100
AcDbEntity
  8
Layer 1
 62
     7
370
    15
100
AcDb2dPolyline
 66
     1
 10
0.0
 20
0.0
 30
0.0
  0
VERTEX
  5
214
330
213
100
AcDbEntity
  8
Layer 1
 62
     7
370
    15
100
AcDbVertex
100
AcDb2dVertex
 10
354.3961112937795
 20
860.7817394223914
 30
0.0
  0
VERTEX
  5
215
330
213
100
AcDbEntity
  8
Layer 1
 62
     7
370
    15
100
AcDbVertex
100
AcDb2dVertex
 10
446.3961804439566
 20
860.7817394223914
 30
0.0
  0
SEQEND
  5
216
330
213
100
AcDbEntity
  8
Layer 1
370
    15
  0
SPLINE
  5
217
330
3C
100
AcDbEntity
  8
Layer 1
 62
     7
370
    15
100
AcDbSpline
210
0.0
220
0.0
230
1.0
 70
     8
 71
     3
 72
     8
 73
     4
 74
     0
 42
0.0000000001
 43
0.0000000001
 40
0.0
 40
0.0
 40
0.0
 40
0.0
 40
1.0
 40
1.0
 40
1.0
 40
1.0
 10
456.6542967608365
 20
865.7960759011726
 30
0.0
 10
456.0493379936266
 20
865.0186901049259
 30
0.0
 10
455.3554957628972
 20
864.310722982707
 30
0.0
 10
454.5903400556232
 20
863.6897445214908
 30
0.0
  0
SPLINE
  5
218
330
3C
100
AcDbEntity
  8
Layer 1
 62
     7
370
    15
100
AcDbSpline
210
0.0
220
0.0
230
1.0
 70
     8
 71
     3
 72
     8
 73
     4
 74
     0
 42
0.0000000001
 43
0.0000000001
 40
0.0
 40
0.0
 40
0.0
 40
0.0
 40
1.0
 40
1.0
 40
1.0
 40
1.0
 10
454.5903400556232
 20
863.6897445214908
 30
0.0
 10
453.8258733674463
 20
863.0685938055002
 30
0.0
 10
452.9904377122733
 20
862.534948514835
 30
0.0
 10
452.1053926821126
 20
862.1024167766619
 30
0.0
  0
SPLINE
  5
219
330
3C
100
AcDbEntity
  8
Layer 1
 62
     7
370
    15
100
AcDbSpline
210
0.0
220
0.0
230
1.0
 70
     8
 71
     3
 72
     8
 73
     4
 74
     0
 42
0.0000000001
 43
0.0000000001
 40
0.0
 40
0.0
 40
0.0
 40
0.0
 40
1.0
 40
1.0
 40
1.0
 40
1.0
 10
452.1053926821126
 20
862.1024167766619
 30
0.0
 10
451.2203476519519
 20
861.6698850384888
 30
0.0
 10
450.2860377563521
 20
861.3382945980335
 30
0.0
 10
449.325889644613
 20
861.1162581940092
 30
0.0
  0
SPLINE
  5
21A
330
3C
100
AcDbEntity
  8
Layer 1
 62
     7
370
    15
100
AcDbSpline
210
0.0
220
0.0
230
1.0
 70
     8
 71
     3
 72
     8
 73
     4
 74
     0
 42
0.0000000001
 43
0.0000000001
 40
0.0
 40
0.0
 40
0.0
 40
0.0
 40
1.0
 40
1.0
 40
1.0
 40
1.0
 10
449.325889644613
 20
861.1162581940092
 30
0.0
 10
448.3660860424224
 20
860.8940495352106
 30
0.0
 10
447.3811332431895
 20
860.7817394223914
 30
0.0
 10
446.3961804439566
 20
860.7817394223914
 30
0.0
  0
SPLINE
  5
21B
330
3C
100
AcDbEntity
  8
Layer 1
 62
     7
370
    15
100
AcDbSpline
210
0.0
220
0.0
230
1.0
 70
     8
 71
     3
 72
     8
 73
     4
 74
     0
 42
0.0000000001
 43
0.0000000001
 40
0.0
 40
0.0
 40
0.0
 40
0.0
 40
1.0
 40
1.0
 40
1.0
 40
1.0
 10
435.4883191185585
 20
963.1537852952359
 30
0.0
 10
434.9615640188638
 20
963.2387068989473
 30
0.0
 10
434.4292967663927
 20
963.2815983377387
 30
0.0
 10
433.895995985276
 20
963.2815983377387
 30
0.0
  0
POLYLINE
  5
21C
330
3C
100
AcDbEntity
  8
Layer 1
 62
     7
370
    15
100
AcDb2dPolyline
 66
     1
 10
0.0
 20
0.0
 30
0.0
  0
VERTEX
  5
21D
330
21C
100
AcDbEntity
  8
Layer 1
 62
     7
370
    15
100
AcDbVertex
100
AcDb2dVertex
 10
433.895995985276
 20
963.2815983377387
 30
0.0
  0
VERTEX
  5
21E
330
21C
100
AcDbEntity
  8
Layer 1
 62
     7
370
    15
100
AcDbVertex
100
AcDb2dVertex
 10
366.89629575246
 20
963.2815983377387
 30
0.0
  0
SEQEND
  5
21F
330
21C
100
AcDbEntity
  8
Layer 1
370
    15
  0
SPLINE
  5
220
330
3C
100
AcDbEntity
  8
Layer 1
 62
     7
370
    15
100
AcDbSpline
210
0.0
220
0.0
230
1.0
 70
     8
 71
     3
 72
     8
 73
     4
 74
     0
 42
0.0000000001
 43
0.0000000001
 40
0.0
 40
0.0
 40
0.0
 40
0.0
 40
1.0
 40
1.0
 40
1.0
 40
1.0
 10
366.89629575246
 20
963.2815983377387
 30
0.0
 10
366.3629949713433
 20
963.2815983377387
 30
0.0
 10
365.8305554640979
 20
963.2387068989473
 30
0.0
 10
365.3039726191775
 20
963.1537852952359
 30
0.0
  0
SPLINE
  5
221
330
3C
100
AcDbEntity
  8
Layer 1
 62
     7
370
    15
100
AcDbSpline
210
0.0
220
0.0
230
1.0
 70
     8
 71
     3
 72
     8
 73
     4
 74
     0
 42
0.0000000001
 43
0.0000000001
 40
0.0
 40
0.0
 40
0.0
 40
0.0
 40
1.0
 40
1.0
 40
1.0
 40
1.0
 10
443.8960746503107
 20
953.2816919274783
 30
0.0
 10
443.8960746503107
 20
953.8144759442721
 30
0.0
 10
443.8536999758422
 20
954.3469154515175
 30
0.0
 10
443.768950626905
 20
954.8731537868894
 30
0.0
  0
SPLINE
  5
222
330
3C
100
AcDbEntity
  8
Layer 1
 62
     7
370
    15
100
AcDbSpline
210
0.0
220
0.0
230
1.0
 70
     8
 71
     3
 72
     8
 73
     4
 74
     0
 42
0.0000000001
 43
0.0000000001
 40
0.0
 40
0.0
 40
0.0
 40
0.0
 40
1.0
 40
1.0
 40
1.0
 40
1.0
 10
443.768950626905
 20
884.689840816154
 30
0.0
 10
443.8536999758422
 20
885.2164236610744
 30
0.0
 10
443.8960746503107
 20
885.748346403997
 30
0.0
 10
443.8960746503107
 20
886.2816471851137
 30
0.0
  0
POLYLINE
  5
223
330
3C
100
AcDbEntity
  8
Layer 1
 62
     7
370
    15
100
AcDb2dPolyline
 66
     1
 10
0.0
 20
0.0
 30
0.0
  0
VERTEX
  5
224
330
223
100
AcDbEntity
  8
Layer 1
 62
     7
370
    15
100
AcDbVertex
100
AcDb2dVertex
 10
443.8960746503107
 20
886.2816471851137
 30
0.0
  0
VERTEX
  5
225
330
223
100
AcDbEntity
  8
Layer 1
 62
     7
370
    15
100
AcDbVertex
100
AcDb2dVertex
 10
443.8960746503107
 20
953.2816919274783
 30
0.0
  0
SEQEND
  5
226
330
223
100
AcDbEntity
  8
Layer 1
370
    15
  0
SPLINE
  5
227
330
3C
100
AcDbEntity
  8
Layer 1
 62
     7
370
    15
100
AcDbSpline
210
0.0
220
0.0
230
1.0
 70
     8
 71
     3
 72
     8
 73
     4
 74
     0
 42
0.0000000001
 43
0.0000000001
 40
0.0
 40
0.0
 40
0.0
 40
0.0
 40
1.0
 40
1.0
 40
1.0
 40
1.0
 10
356.896044832651
 20
886.2816471851137
 30
0.0
 10
356.896044832651
 20
885.748346403997
 30
0.0
 10
356.9384195071196
 20
885.2164236610744
 30
0.0
 10
357.023341110831
 20
884.689840816154
 30
0.0
  0
SPLINE
  5
228
330
3C
100
AcDbEntity
  8
Layer 1
 62
     7
370
    15
100
AcDbSpline
210
0.0
220
0.0
230
1.0
 70
     8
 71
     3
 72
     8
 73
     4
 74
     0
 42
0.0000000001
 43
0.0000000001
 40
0.0
 40
0.0
 40
0.0
 40
0.0
 40
1.0
 40
1.0
 40
1.0
 40
1.0
 10
357.023341110831
 20
954.8731537868894
 30
0.0
 10
356.9384195071196
 20
954.3469154515175
 30
0.0
 10
356.896044832651
 20
953.8144759442721
 30
0.0
 10
356.896044832651
 20
953.2816919274783
 30
0.0
  0
POLYLINE
  5
229
330
3C
100
AcDbEntity
  8
Layer 1
 62
     7
370
    15
100
AcDb2dPolyline
 66
     1
 10
0.0
 20
0.0
 30
0.0
  0
VERTEX
  5
22A
330
229
100
AcDbEntity
  8
Layer 1
 62
     7
370
    15
100
AcDbVertex
100
AcDb2dVertex
 10
356.896044832651
 20
953.2816919274783
 30
0.0
  0
VERTEX
  5
22B
330
229
100
AcDbEntity
  8
Layer 1
 62
     7
370
    15
100
AcDbVertex
100
AcDb2dVertex
 10
356.896044832651
 20
886.2816471851137
 30
0.0
  0
SEQEND
  5
22C
330
229
100
AcDbEntity
  8
Layer 1
370
    15
  0
SPLINE
  5
22D
330
3C
100
AcDbEntity
  8
Layer 1
 62
     7
370
    15
100
AcDbSpline
210
0.0
220
0.0
230
1.0
 70
     8
 71
     3
 72
     8
 73
     4
 74
     0
 42
0.0000000001
 43
0.0000000001
 40
0.0
 40
0.0
 40
0.0
 40
0.0
 40
1.0
 40
1.0
 40
1.0
 40
1.0
 10
433.895995985276
 20
876.2817407748532
 30
0.0
 10
434.4292967663927
 20
876.2817407748532
 30
0.0
 10
434.9615640188638
 20
876.3241154493218
 30
0.0
 10
435.4883191185585
 20
876.4090370530332
 30
0.0
  0
SPLINE
  5
22E
330
3C
100
AcDbEntity
  8
Layer 1
 62
     7
370
    15
100
AcDbSpline
210
0.0
220
0.0
230
1.0
 70
     8
 71
     3
 72
     8
 73
     4
 74
     0
 42
0.0000000001
 43
0.0000000001
 40
0.0
 40
0.0
 40
0.0
 40
0.0
 40
1.0
 40
1.0
 40
1.0
 40
1.0
 10
365.3039726191775
 20
876.4090370530332
 30
0.0
 10
365.8305554640979
 20
876.3241154493218
 30
0.0
 10
366.3629949713433
 20
876.2817407748532
 30
0.0
 10
366.89629575246
 20
876.2817407748532
 30
0.0
  0
POLYLINE
  5
22F
330
3C
100
AcDbEntity
  8
Layer 1
 62
     7
370
    15
100
AcDb2dPolyline
 66
     1
 10
0.0
 20
0.0
 30
0.0
  0
VERTEX
  5
230
330
22F
100
AcDbEntity
  8
Layer 1
 62
     7
370
    15
100
AcDbVertex
100
AcDb2dVertex
 10
366.89629575246
 20
876.2817407748532
 30
0.0
  0
VERTEX
  5
231
330
22F
100
AcDbEntity
  8
Layer 1
 62
     7
370
    15
100
AcDbVertex
100
AcDb2dVertex
 10
433.895995985276
 20
876.2817407748532
 30
0.0
  0
SEQEND
  5
232
330
22F
100
AcDbEntity
  8
Layer 1
370
    15
  0
SPLINE
  5
233
330
3C
100
AcDbEntity
  8
Layer 1
 62
     7
370
    15
100
AcDbSpline
210
0.0
220
0.0
230
1.0
 70
     8
 71
     3
 72
     8
 73
     4
 74
     0
 42
0.0000000001
 43
0.0000000001
 40
0.0
 40
0.0
 40
0.0
 40
0.0
 40
1.0
 40
1.0
 40
1.0
 40
1.0
 10
443.768950626905
 20
954.8731537868894
 30
0.0
 10
443.0816540775976
 20
959.1299137684641
 30
0.0
 10
439.7440455714876
 20
962.4675222745741
 30
0.0
 10
435.4883191185585
 20
963.1537852952359
 30
0.0
  0
SPLINE
  5
234
330
3C
100
AcDbEntity
  8
Layer 1
 62
     7
370
    15
100
AcDbSpline
210
0.0
220
0.0
230
1.0
 70
     8
 71
     3
 72
     8
 73
     4
 74
     0
 42
0.0000000001
 43
0.0000000001
 40
0.0
 40
0.0
 40
0.0
 40
0.0
 40
1.0
 40
1.0
 40
1.0
 40
1.0
 10
365.3039726191775
 20
963.1537852952359
 30
0.0
 10
361.0472126376028
 20
962.4675222745741
 30
0.0
 10
357.7104654053641
 20
959.1299137684641
 30
0.0
 10
357.023341110831
 20
954.8731537868894
 30
0.0
  0
SPLINE
  5
235
330
3C
100
AcDbEntity
  8
Layer 1
 62
     7
370
    15
100
AcDbSpline
210
0.0
220
0.0
230
1.0
 70
     8
 71
     3
 72
     8
 73
     4
 74
     0
 42
0.0000000001
 43
0.0000000001
 40
0.0
 40
0.0
 40
0.0
 40
0.0
 40
1.0
 40
1.0
 40
1.0
 40
1.0
 10
435.4883191185585
 20
876.4090370530332
 30
0.0
 10
439.7440455714876
 20
877.095300073695
 30
0.0
 10
443.0816540775976
 20
880.432908579805
 30
0.0
 10
443.768950626905
 20
884.689840816154
 30
0.0
  0
SPLINE
  5
236
330
3C
100
AcDbEntity
  8
Layer 1
 62
     7
370
    15
100
AcDbSpline
210
0.0
220
0.0
230
1.0
 70
     8
 71
     3
 72
     8
 73
     4
 74
     0
 42
0.0000000001
 43
0.0000000001
 40
0.0
 40
0.0
 40
0.0
 40
0.0
 40
1.0
 40
1.0
 40
1.0
 40
1.0
 10
357.023341110831
 20
884.689840816154
 30
0.0
 10
357.7104654053641
 20
880.432908579805
 30
0.0
 10
361.0472126376028
 20
877.095300073695
 30
0.0
 10
365.3039726191775
 20
876.4090370530332
 30
0.0
  0
POLYLINE
  5
237
330
3C
100
AcDbEntity
  8
Layer 1
370
     0
100
AcDb2dPolyline
 66
     1
 10
0.0
 20
0.0
 30
0.0
  0
VERTEX
  5
238
330
237
100
AcDbEntity
  8
Layer 1
370
     0
100
AcDbVertex
100
AcDb2dVertex
 10
-104.6036064734151
 20
919.7814111741345
 30
0.0
  0
VERTEX
  5
239
330
237
100
AcDbEntity
  8
Layer 1
370
     0
100
AcDbVertex
100
AcDb2dVertex
 10
-99.60339488612347
 20
889.7813474338047
 30
0.0
  0
VERTEX
  5
23A
330
237
100
AcDbEntity
  8
Layer 1
370
     0
100
AcDbVertex
100
AcDb2dVertex
 10
-109.6033012963839
 20
889.7813474338047
 30
0.0
  0
SEQEND
  5
23B
330
237
100
AcDbEntity
  8
Layer 1
370
     0
  0
HATCH
  5
23C
330
3C
100
AcDbEntity
  8
Layer 1
 62
     7
100
AcDbHatch
 10
0.0
 20
0.0
 30
0.0
210
0.0
220
0.0
230
1.0
  2
SOLID
 70
     1
 71
     0
 91
        1
 92
        1
 93
        3
 72
     1
 10
-104.6036064734151
 20
919.7814111741345
 11
-99.60339488612347
 21
889.7813474338047
 72
     1
 10
-99.60339488612347
 20
889.7813474338047
 11
-109.6033012963839
 21
889.7813474338047
 72
     1
 10
-109.6033012963839
 20
889.7813474338047
 11
-104.6036064734151
 21
919.7814111741345
 97
        0
 75
     2
 76
     1
 98
        0
  0
POLYLINE
  5
23D
330
3C
100
AcDbEntity
  8
Layer 1
370
     0
100
AcDb2dPolyline
 66
     1
 10
0.0
 20
0.0
 30
0.0
  0
VERTEX
  5
23E
330
23D
100
AcDbEntity
  8
Layer 1
370
     0
100
AcDbVertex
100
AcDb2dVertex
 10
-104.6036064734151
 20
1093.781470809454
 30
0.0
  0
VERTEX
  5
23F
330
23D
100
AcDbEntity
  8
Layer 1
370
     0
100
AcDbVertex
100
AcDb2dVertex
 10
-109.6033012963839
 20
1123.781534549784
 30
0.0
  0
VERTEX
  5
240
330
23D
100
AcDbEntity
  8
Layer 1
370
     0
100
AcDbVertex
100
AcDb2dVertex
 10
-99.60339488612347
 20
1123.781534549784
 30
0.0
  0
SEQEND
  5
241
330
23D
100
AcDbEntity
  8
Layer 1
370
     0
  0
HATCH
  5
242
330
3C
100
AcDbEntity
  8
Layer 1
 62
     7
100
AcDbHatch
 10
0.0
 20
0.0
 30
0.0
210
0.0
220
0.0
230
1.0
  2
SOLID
 70
     1
 71
     0
 91
        1
 92
        1
 93
        3
 72
     1
 10
-104.6036064734151
 20
1093.781470809454
 11
-109.6033012963839
 21
1123.781534549784
 72
     1
 10
-109.6033012963839
 20
1123.781534549784
 11
-99.60339488612347
 21
1123.781534549784
 72
     1
 10
-99.60339488612347
 20
1123.781534549784
 11
-104.6036064734151
 21
1093.781470809454
 97
        0
 75
     2
 76
     1
 98
        0
  0
POLYLINE
  5
243
330
3C
100
AcDbEntity
  8
Layer 1
 62
     7
370
    25
100
AcDb2dPolyline
 66
     1
 10
0.0
 20
0.0
 30
0.0
  0
VERTEX
  5
244
330
243
100
AcDbEntity
  8
Layer 1
 62
     7
370
    25
100
AcDbVertex
100
AcDb2dVertex
 10
-46.1405083434996
 20
919.7814111741345
 30
0.0
  0
VERTEX
  5
245
330
243
100
AcDbEntity
  8
Layer 1
 62
     7
370
    25
100
AcDbVertex
100
AcDb2dVertex
 10
-114.6035128836755
 20
919.7814111741345
 30
0.0
  0
SEQEND
  5
246
330
243
100
AcDbEntity
  8
Layer 1
370
    25
  0
POLYLINE
  5
247
330
3C
100
AcDbEntity
  8
Layer 1
 62
     7
370
    25
100
AcDb2dPolyline
 66
     1
 10
0.0
 20
0.0
 30
0.0
  0
VERTEX
  5
248
330
247
100
AcDbEntity
  8
Layer 1
 62
     7
370
    25
100
AcDbVertex
100
AcDb2dVertex
 10
-44.48496770806279
 20
1093.781470809454
 30
0.0
  0
VERTEX
  5
249
330
247
100
AcDbEntity
  8
Layer 1
 62
     7
370
    25
100
AcDbVertex
100
AcDb2dVertex
 10
-114.6035128836755
 20
1093.781470809454
 30
0.0
  0
SEQEND
  5
24A
330
247
100
AcDbEntity
  8
Layer 1
370
    25
  0
POLYLINE
  5
24B
330
3C
100
AcDbEntity
  8
Layer 1
 62
     7
370
    25
100
AcDb2dPolyline
 66
     1
 10
0.0
 20
0.0
 30
0.0
  0
VERTEX
  5
24C
330
24B
100
AcDbEntity
  8
Layer 1
 62
     7
370
    25
100
AcDbVertex
100
AcDb2dVertex
 10
-104.6036064734151
 20
919.7814111741345
 30
0.0
  0
VERTEX
  5
24D
330
24B
100
AcDbEntity
  8
Layer 1
 62
     7
370
    25
100
AcDbVertex
100
AcDb2dVertex
 10
-104.6036064734151
 20
859.7818004577977
 30
0.0
  0
SEQEND
  5
24E
330
24B
100
AcDbEntity
  8
Layer 1
370
    25
  0
POLYLINE
  5
24F
330
3C
100
AcDbEntity
  8
Layer 1
 62
     7
370
    25
100
AcDb2dPolyline
 66
     1
 10
0.0
 20
0.0
 30
0.0
  0
VERTEX
  5
250
330
24F
100
AcDbEntity
  8
Layer 1
 62
     7
370
    25
100
AcDbVertex
100
AcDb2dVertex
 10
-104.6036064734151
 20
919.7814111741345
 30
0.0
  0
VERTEX
  5
251
330
24F
100
AcDbEntity
  8
Layer 1
 62
     7
370
    25
100
AcDbVertex
100
AcDb2dVertex
 10
-104.6036064734151
 20
1093.781470809454
 30
0.0
  0
SEQEND
  5
252
330
24F
100
AcDbEntity
  8
Layer 1
370
    25
  0
POLYLINE
  5
253
330
3C
100
AcDbEntity
  8
Layer 1
 62
     7
370
    25
100
AcDb2dPolyline
 66
     1
 10
0.0
 20
0.0
 30
0.0
  0
VERTEX
  5
254
330
253
100
AcDbEntity
  8
Layer 1
 62
     7
370
    25
100
AcDbVertex
100
AcDb2dVertex
 10
-104.6036064734151
 20
1093.781470809454
 30
0.0
  0
VERTEX
  5
255
330
253
100
AcDbEntity
  8
Layer 1
 62
     7
370
    25
100
AcDbVertex
100
AcDb2dVertex
 10
-104.6036064734151
 20
1153.781426035339
 30
0.0
  0
SEQEND
  5
256
330
253
100
AcDbEntity
  8
Layer 1
370
    25
  0
POLYLINE
  5
257
330
3C
100
AcDbEntity
  8
Layer 1
 62
     7
370
    25
100
AcDb2dPolyline
 66
     1
 10
0.0
 20
0.0
 30
0.0
  0
VERTEX
  5
258
330
257
100
AcDbEntity
  8
Layer 1
 62
     7
370
    25
100
AcDbVertex
100
AcDb2dVertex
 10
-116.8404133822482
 20
942.6937077178857
 30
0.0
  0
VERTEX
  5
259
330
257
100
AcDbEntity
  8
Layer 1
 62
     7
370
    25
100
AcDbVertex
100
AcDb2dVertex
 10
-116.8404133822482
 20
953.2766965390247
 30
0.0
  0
SEQEND
  5
25A
330
257
100
AcDbEntity
  8
Layer 1
370
    25
  0
POLYLINE
  5
25B
330
3C
100
AcDbEntity
  8
Layer 1
 62
     7
370
    25
100
AcDb2dPolyline
 66
     1
 10
0.0
 20
0.0
 30
0.0
  0
VERTEX
  5
25C
330
25B
100
AcDbEntity
  8
Layer 1
 62
     7
370
    25
100
AcDbVertex
100
AcDb2dVertex
 10
-116.8404133822482
 20
947.9850298736809
 30
0.0
  0
VERTEX
  5
25D
330
25B
100
AcDbEntity
  8
Layer 1
 62
     7
370
    25
100
AcDbVertex
100
AcDb2dVertex
 10
-159.1737467049983
 20
947.9850298736809
 30
0.0
  0
SEQEND
  5
25E
330
25B
100
AcDbEntity
  8
Layer 1
370
    25
  0
POLYLINE
  5
25F
330
3C
100
AcDbEntity
  8
Layer 1
 62
     7
370
    25
100
AcDb2dPolyline
 66
     1
 10
0.0
 20
0.0
 30
0.0
  0
VERTEX
  5
260
330
25F
100
AcDbEntity
  8
Layer 1
 62
     7
370
    25
100
AcDbVertex
100
AcDb2dVertex
 10
-159.1737467049983
 20
947.9850298736809
 30
0.0
  0
VERTEX
  5
261
330
25F
100
AcDbEntity
  8
Layer 1
 62
     7
370
    25
100
AcDbVertex
100
AcDb2dVertex
 10
-152.1185356607551
 20
942.6937077178857
 30
0.0
  0
SEQEND
  5
262
330
25F
100
AcDbEntity
  8
Layer 1
370
    25
  0
POLYLINE
  5
263
330
3C
100
AcDbEntity
  8
Layer 1
 62
     7
370
    25
100
AcDb2dPolyline
 66
     1
 10
0.0
 20
0.0
 30
0.0
  0
VERTEX
  5
264
330
263
100
AcDbEntity
  8
Layer 1
 62
     7
370
    25
100
AcDbVertex
100
AcDb2dVertex
 10
-159.1737467049983
 20
963.8602021244864
 30
0.0
  0
VERTEX
  5
265
330
263
100
AcDbEntity
  8
Layer 1
 62
     7
370
    25
100
AcDbVertex
100
AcDb2dVertex
 10
-159.1737467049983
 20
985.0270410406356
 30
0.0
  0
SEQEND
  5
266
330
263
100
AcDbEntity
  8
Layer 1
370
    25
  0
POLYLINE
  5
267
330
3C
100
AcDbEntity
  8
Layer 1
 62
     7
370
    25
100
AcDb2dPolyline
 66
     1
 10
0.0
 20
0.0
 30
0.0
  0
VERTEX
  5
268
330
267
100
AcDbEntity
  8
Layer 1
 62
     7
370
    25
100
AcDbVertex
100
AcDb2dVertex
 10
-159.1737467049983
 20
985.0270410406356
 30
0.0
  0
VERTEX
  5
269
330
267
100
AcDbEntity
  8
Layer 1
 62
     7
370
    25
100
AcDbVertex
100
AcDb2dVertex
 10
-116.8404133822482
 20
969.1518687898301
 30
0.0
  0
SEQEND
  5
26A
330
267
100
AcDbEntity
  8
Layer 1
370
    25
  0
POLYLINE
  5
26B
330
3C
100
AcDbEntity
  8
Layer 1
 62
     7
370
    25
100
AcDb2dPolyline
 66
     1
 10
0.0
 20
0.0
 30
0.0
  0
VERTEX
  5
26C
330
26B
100
AcDbEntity
  8
Layer 1
 62
     7
370
    25
100
AcDbVertex
100
AcDb2dVertex
 10
-116.8404133822482
 20
1011.48520211258
 30
0.0
  0
VERTEX
  5
26D
330
26B
100
AcDbEntity
  8
Layer 1
 62
     7
370
    25
100
AcDbVertex
100
AcDb2dVertex
 10
-159.1737467049983
 20
1011.48520211258
 30
0.0
  0
SEQEND
  5
26E
330
26B
100
AcDbEntity
  8
Layer 1
370
    25
  0
POLYLINE
  5
26F
330
3C
100
AcDbEntity
  8
Layer 1
 62
     7
370
    25
100
AcDb2dPolyline
 66
     1
 10
0.0
 20
0.0
 30
0.0
  0
VERTEX
  5
270
330
26F
100
AcDbEntity
  8
Layer 1
 62
     7
370
    25
100
AcDbVertex
100
AcDb2dVertex
 10
-159.1737467049983
 20
1011.48520211258
 30
0.0
  0
VERTEX
  5
271
330
26F
100
AcDbEntity
  8
Layer 1
 62
     7
370
    25
100
AcDbVertex
100
AcDb2dVertex
 10
-130.9515244898316
 20
995.6100298617746
 30
0.0
  0
SEQEND
  5
272
330
26F
100
AcDbEntity
  8
Layer 1
370
    25
  0
POLYLINE
  5
273
330
3C
100
AcDbEntity
  8
Layer 1
 62
     7
370
    25
100
AcDb2dPolyline
 66
     1
 10
0.0
 20
0.0
 30
0.0
  0
VERTEX
  5
274
330
273
100
AcDbEntity
  8
Layer 1
 62
     7
370
    25
100
AcDbVertex
100
AcDb2dVertex
 10
-130.9515244898316
 20
995.6100298617746
 30
0.0
  0
VERTEX
  5
275
330
273
100
AcDbEntity
  8
Layer 1
 62
     7
370
    25
100
AcDbVertex
100
AcDb2dVertex
 10
-130.9515244898316
 20
1016.776868777924
 30
0.0
  0
SEQEND
  5
276
330
273
100
AcDbEntity
  8
Layer 1
370
    25
  0
POLYLINE
  5
277
330
3C
100
AcDbEntity
  8
Layer 1
370
     0
100
AcDb2dPolyline
 66
     1
 10
0.0
 20
0.0
 30
0.0
  0
VERTEX
  5
278
330
277
100
AcDbEntity
  8
Layer 1
370
     0
100
AcDbVertex
100
AcDb2dVertex
 10
400.3962319962552
 20
472.2207884561636
 30
0.0
  0
VERTEX
  5
279
330
277
100
AcDbEntity
  8
Layer 1
370
     0
100
AcDbVertex
100
AcDb2dVertex
 10
370.395996001151
 20
467.2202323593235
 30
0.0
  0
VERTEX
  5
27A
330
277
100
AcDbEntity
  8
Layer 1
370
     0
100
AcDbVertex
100
AcDb2dVertex
 10
370.395996001151
 20
477.2206555339067
 30
0.0
  0
SEQEND
  5
27B
330
277
100
AcDbEntity
  8
Layer 1
370
     0
  0
HATCH
  5
27C
330
3C
100
AcDbEntity
  8
Layer 1
 62
     7
100
AcDbHatch
 10
0.0
 20
0.0
 30
0.0
210
0.0
220
0.0
230
1.0
  2
SOLID
 70
     1
 71
     0
 91
        1
 92
        1
 93
        3
 72
     1
 10
400.3962319962552
 20
472.2207884561636
 11
370.395996001151
 21
467.2202323593235
 72
     1
 10
370.395996001151
 20
467.2202323593235
 11
370.395996001151
 21
477.2206555339067
 72
     1
 10
370.395996001151
 20
477.2206555339067
 11
400.3962319962552
 21
472.2207884561636
 97
        0
 75
     2
 76
     1
 98
        0
  0
POLYLINE
  5
27D
330
3C
100
AcDbEntity
  8
Layer 1
370
     0
100
AcDb2dPolyline
 66
     1
 10
0.0
 20
0.0
 30
0.0
  0
VERTEX
  5
27E
330
27D
100
AcDbEntity
  8
Layer 1
370
     0
100
AcDbVertex
100
AcDb2dVertex
 10
-4.603336587390833
 20
472.2207884561636
 30
0.0
  0
VERTEX
  5
27F
330
27D
100
AcDbEntity
  8
Layer 1
370
     0
100
AcDbVertex
100
AcDb2dVertex
 10
25.39672715293901
 20
477.2206555339067
 30
0.0
  0
VERTEX
  5
280
330
27D
100
AcDbEntity
  8
Layer 1
370
     0
100
AcDbVertex
100
AcDb2dVertex
 10
25.39672715293901
 20
467.2202323593235
 30
0.0
  0
SEQEND
  5
281
330
27D
100
AcDbEntity
  8
Layer 1
370
     0
  0
HATCH
  5
282
330
3C
100
AcDbEntity
  8
Layer 1
 62
     7
100
AcDbHatch
 10
0.0
 20
0.0
 30
0.0
210
0.0
220
0.0
230
1.0
  2
SOLID
 70
     1
 71
     0
 91
        1
 92
        1
 93
        3
 72
     1
 10
-4.603336587390833
 20
472.2207884561636
 11
25.39672715293901
 21
477.2206555339067
 72
     1
 10
25.39672715293901
 20
477.2206555339067
 11
25.39672715293901
 21
467.2202323593235
 72
     1
 10
25.39672715293901
 20
467.2202323593235
 11
-4.603336587390833
 21
472.2207884561636
 97
        0
 75
     2
 76
     1
 98
        0
  0
POLYLINE
  5
283
330
3C
100
AcDbEntity
  8
Layer 1
 62
     7
370
    25
100
AcDb2dPolyline
 66
     1
 10
0.0
 20
0.0
 30
0.0
  0
VERTEX
  5
284
330
283
100
AcDbEntity
  8
Layer 1
 62
     7
370
    25
100
AcDbVertex
100
AcDb2dVertex
 10
400.3962319962552
 20
551.5634045387585
 30
0.0
  0
VERTEX
  5
285
330
283
100
AcDbEntity
  8
Layer 1
 62
     7
370
    25
100
AcDbVertex
100
AcDb2dVertex
 10
400.3962319962552
 20
462.2203652815804
 30
0.0
  0
SEQEND
  5
286
330
283
100
AcDbEntity
  8
Layer 1
370
    25
  0
POLYLINE
  5
287
330
3C
100
AcDbEntity
  8
Layer 1
 62
     7
370
    25
100
AcDb2dPolyline
 66
     1
 10
0.0
 20
0.0
 30
0.0
  0
VERTEX
  5
288
330
287
100
AcDbEntity
  8
Layer 1
 62
     7
370
    25
100
AcDbVertex
100
AcDb2dVertex
 10
-4.603336587390833
 20
549.0650212928552
 30
0.0
  0
VERTEX
  5
289
330
287
100
AcDbEntity
  8
Layer 1
 62
     7
370
    25
100
AcDbVertex
100
AcDb2dVertex
 10
-4.603336587390833
 20
462.2203652815804
 30
0.0
  0
SEQEND
  5
28A
330
287
100
AcDbEntity
  8
Layer 1
370
    25
  0
POLYLINE
  5
28B
330
3C
100
AcDbEntity
  8
Layer 1
 62
     7
370
    25
100
AcDb2dPolyline
 66
     1
 10
0.0
 20
0.0
 30
0.0
  0
VERTEX
  5
28C
330
28B
100
AcDbEntity
  8
Layer 1
 62
     7
370
    25
100
AcDbVertex
100
AcDb2dVertex
 10
400.3962319962552
 20
472.2207884561636
 30
0.0
  0
VERTEX
  5
28D
330
28B
100
AcDbEntity
  8
Layer 1
 62
     7
370
    25
100
AcDbVertex
100
AcDb2dVertex
 10
-4.603336587390833
 20
472.2207884561636
 30
0.0
  0
SEQEND
  5
28E
330
28B
100
AcDbEntity
  8
Layer 1
370
    25
  0
POLYLINE
  5
28F
330
3C
100
AcDbEntity
  8
Layer 1
 62
     7
370
    25
100
AcDb2dPolyline
 66
     1
 10
0.0
 20
0.0
 30
0.0
  0
VERTEX
  5
290
330
28F
100
AcDbEntity
  8
Layer 1
 62
     7
370
    25
100
AcDbVertex
100
AcDb2dVertex
 10
149.6835421717805
 20
484.4581121293195
 30
0.0
  0
VERTEX
  5
291
330
28F
100
AcDbEntity
  8
Layer 1
 62
     7
370
    25
100
AcDbVertex
100
AcDb2dVertex
 10
149.6835421717805
 20
526.791100942521
 30
0.0
  0
SEQEND
  5
292
330
28F
100
AcDbEntity
  8
Layer 1
370
    25
  0
POLYLINE
  5
293
330
3C
100
AcDbEntity
  8
Layer 1
 62
     7
370
    25
100
AcDb2dPolyline
 66
     1
 10
0.0
 20
0.0
 30
0.0
  0
VERTEX
  5
294
330
293
100
AcDbEntity
  8
Layer 1
 62
     7
370
    25
100
AcDbVertex
100
AcDb2dVertex
 10
149.6835421717805
 20
526.791100942521
 30
0.0
  0
VERTEX
  5
295
330
293
100
AcDbEntity
  8
Layer 1
 62
     7
370
    25
100
AcDbVertex
100
AcDb2dVertex
 10
133.808369920975
 20
498.5688787273543
 30
0.0
  0
SEQEND
  5
296
330
293
100
AcDbEntity
  8
Layer 1
370
    25
  0
POLYLINE
  5
297
330
3C
100
AcDbEntity
  8
Layer 1
 62
     7
370
    25
100
AcDb2dPolyline
 66
     1
 10
0.0
 20
0.0
 30
0.0
  0
VERTEX
  5
298
330
297
100
AcDbEntity
  8
Layer 1
 62
     7
370
    25
100
AcDbVertex
100
AcDb2dVertex
 10
133.808369920975
 20
498.5688787273543
 30
0.0
  0
VERTEX
  5
299
330
297
100
AcDbEntity
  8
Layer 1
 62
     7
370
    25
100
AcDbVertex
100
AcDb2dVertex
 10
154.9753810918985
 20
498.5688787273543
 30
0.0
  0
SEQEND
  5
29A
330
297
100
AcDbEntity
  8
Layer 1
370
    25
  0
POLYLINE
  5
29B
330
3C
100
AcDbEntity
  8
Layer 1
 62
     7
370
    25
100
AcDb2dPolyline
 66
     1
 10
0.0
 20
0.0
 30
0.0
  0
VERTEX
  5
29C
330
29B
100
AcDbEntity
  8
Layer 1
 62
     7
370
    25
100
AcDbVertex
100
AcDb2dVertex
 10
170.8500365783812
 20
484.4581121293195
 30
0.0
  0
VERTEX
  5
29D
330
29B
100
AcDbEntity
  8
Layer 1
 62
     7
370
    25
100
AcDbVertex
100
AcDb2dVertex
 10
165.5583699130375
 20
491.5133231735626
 30
0.0
  0
SEQEND
  5
29E
330
29B
100
AcDbEntity
  8
Layer 1
370
    25
  0
POLYLINE
  5
29F
330
3C
100
AcDbEntity
  8
Layer 1
 62
     7
370
    25
100
AcDb2dPolyline
 66
     1
 10
0.0
 20
0.0
 30
0.0
  0
VERTEX
  5
2A0
330
29F
100
AcDbEntity
  8
Layer 1
 62
     7
370
    25
100
AcDbVertex
100
AcDb2dVertex
 10
165.5583699130375
 20
491.5133231735626
 30
0.0
  0
VERTEX
  5
2A1
330
29F
100
AcDbEntity
  8
Layer 1
 62
     7
370
    25
100
AcDbVertex
100
AcDb2dVertex
 10
165.5583699130375
 20
519.7355453887293
 30
0.0
  0
SEQEND
  5
2A2
330
29F
100
AcDbEntity
  8
Layer 1
370
    25
  0
POLYLINE
  5
2A3
330
3C
100
AcDbEntity
  8
Layer 1
 62
     7
370
    25
100
AcDb2dPolyline
 66
     1
 10
0.0
 20
0.0
 30
0.0
  0
VERTEX
  5
2A4
330
2A3
100
AcDbEntity
  8
Layer 1
 62
     7
370
    25
100
AcDbVertex
100
AcDb2dVertex
 10
165.5583699130375
 20
519.7355453887293
 30
0.0
  0
VERTEX
  5
2A5
330
2A3
100
AcDbEntity
  8
Layer 1
 62
     7
370
    25
100
AcDbVertex
100
AcDb2dVertex
 10
170.8500365783812
 20
526.791100942521
 30
0.0
  0
SEQEND
  5
2A6
330
2A3
100
AcDbEntity
  8
Layer 1
370
    25
  0
POLYLINE
  5
2A7
330
3C
100
AcDbEntity
  8
Layer 1
 62
     7
370
    25
100
AcDb2dPolyline
 66
     1
 10
0.0
 20
0.0
 30
0.0
  0
VERTEX
  5
2A8
330
2A7
100
AcDbEntity
  8
Layer 1
 62
     7
370
    25
100
AcDbVertex
100
AcDb2dVertex
 10
170.8500365783812
 20
526.791100942521
 30
0.0
  0
VERTEX
  5
2A9
330
2A7
100
AcDbEntity
  8
Layer 1
 62
     7
370
    25
100
AcDbVertex
100
AcDb2dVertex
 10
176.141703243725
 20
526.791100942521
 30
0.0
  0
SEQEND
  5
2AA
330
2A7
100
AcDbEntity
  8
Layer 1
370
    25
  0
POLYLINE
  5
2AB
330
3C
100
AcDbEntity
  8
Layer 1
 62
     7
370
    25
100
AcDb2dPolyline
 66
     1
 10
0.0
 20
0.0
 30
0.0
  0
VERTEX
  5
2AC
330
2AB
100
AcDbEntity
  8
Layer 1
 62
     7
370
    25
100
AcDbVertex
100
AcDb2dVertex
 10
176.141703243725
 20
526.791100942521
 30
0.0
  0
VERTEX
  5
2AD
330
2AB
100
AcDbEntity
  8
Layer 1
 62
     7
370
    25
100
AcDbVertex
100
AcDb2dVertex
 10
181.433542163843
 20
519.7355453887293
 30
0.0
  0
SEQEND
  5
2AE
330
2AB
100
AcDbEntity
  8
Layer 1
370
    25
  0
POLYLINE
  5
2AF
330
3C
100
AcDbEntity
  8
Layer 1
 62
     7
370
    25
100
AcDb2dPolyline
 66
     1
 10
0.0
 20
0.0
 30
0.0
  0
VERTEX
  5
2B0
330
2AF
100
AcDbEntity
  8
Layer 1
 62
     7
370
    25
100
AcDbVertex
100
AcDb2dVertex
 10
181.433542163843
 20
519.7355453887293
 30
0.0
  0
VERTEX
  5
2B1
330
2AF
100
AcDbEntity
  8
Layer 1
 62
     7
370
    25
100
AcDbVertex
100
AcDb2dVertex
 10
181.433542163843
 20
491.5133231735626
 30
0.0
  0
SEQEND
  5
2B2
330
2AF
100
AcDbEntity
  8
Layer 1
370
    25
  0
POLYLINE
  5
2B3
330
3C
100
AcDbEntity
  8
Layer 1
 62
     7
370
    25
100
AcDb2dPolyline
 66
     1
 10
0.0
 20
0.0
 30
0.0
  0
VERTEX
  5
2B4
330
2B3
100
AcDbEntity
  8
Layer 1
 62
     7
370
    25
100
AcDbVertex
100
AcDb2dVertex
 10
181.433542163843
 20
491.5133231735626
 30
0.0
  0
VERTEX
  5
2B5
330
2B3
100
AcDbEntity
  8
Layer 1
 62
     7
370
    25
100
AcDbVertex
100
AcDb2dVertex
 10
176.141703243725
 20
484.4581121293195
 30
0.0
  0
SEQEND
  5
2B6
330
2B3
100
AcDbEntity
  8
Layer 1
370
    25
  0
POLYLINE
  5
2B7
330
3C
100
AcDbEntity
  8
Layer 1
 62
     7
370
    25
100
AcDb2dPolyline
 66
     1
 10
0.0
 20
0.0
 30
0.0
  0
VERTEX
  5
2B8
330
2B7
100
AcDbEntity
  8
Layer 1
 62
     7
370
    25
100
AcDbVertex
100
AcDb2dVertex
 10
176.141703243725
 20
484.4581121293195
 30
0.0
  0
VERTEX
  5
2B9
330
2B7
100
AcDbEntity
  8
Layer 1
 62
     7
370
    25
100
AcDbVertex
100
AcDb2dVertex
 10
170.8500365783812
 20
484.4581121293195
 30
0.0
  0
SEQEND
  5
2BA
330
2B7
100
AcDbEntity
  8
Layer 1
370
    25
  0
POLYLINE
  5
2BB
330
3C
100
AcDbEntity
  8
Layer 1
 62
     7
370
    25
100
AcDb2dPolyline
 66
     1
 10
0.0
 20
0.0
 30
0.0
  0
VERTEX
  5
2BC
330
2BB
100
AcDbEntity
  8
Layer 1
 62
     7
370
    25
100
AcDbVertex
100
AcDb2dVertex
 10
192.016530984982
 20
491.5133231735626
 30
0.0
  0
VERTEX
  5
2BD
330
2BB
100
AcDbEntity
  8
Layer 1
 62
     7
370
    25
100
AcDbVertex
100
AcDb2dVertex
 10
197.3081976503257
 20
484.4581121293195
 30
0.0
  0
SEQEND
  5
2BE
330
2BB
100
AcDbEntity
  8
Layer 1
370
    25
  0
POLYLINE
  5
2BF
330
3C
100
AcDbEntity
  8
Layer 1
 62
     7
370
    25
100
AcDb2dPolyline
 66
     1
 10
0.0
 20
0.0
 30
0.0
  0
VERTEX
  5
2C0
330
2BF
100
AcDbEntity
  8
Layer 1
 62
     7
370
    25
100
AcDbVertex
100
AcDb2dVertex
 10
197.3081976503257
 20
484.4581121293195
 30
0.0
  0
VERTEX
  5
2C1
330
2BF
100
AcDbEntity
  8
Layer 1
 62
     7
370
    25
100
AcDbVertex
100
AcDb2dVertex
 10
207.8917032357875
 20
484.4581121293195
 30
0.0
  0
SEQEND
  5
2C2
330
2BF
100
AcDbEntity
  8
Layer 1
370
    25
  0
POLYLINE
  5
2C3
330
3C
100
AcDbEntity
  8
Layer 1
 62
     7
370
    25
100
AcDb2dPolyline
 66
     1
 10
0.0
 20
0.0
 30
0.0
  0
VERTEX
  5
2C4
330
2C3
100
AcDbEntity
  8
Layer 1
 62
     7
370
    25
100
AcDbVertex
100
AcDb2dVertex
 10
207.8917032357875
 20
484.4581121293195
 30
0.0
  0
VERTEX
  5
2C5
330
2C3
100
AcDbEntity
  8
Layer 1
 62
     7
370
    25
100
AcDbVertex
100
AcDb2dVertex
 10
213.1833699011312
 20
491.5133231735626
 30
0.0
  0
SEQEND
  5
2C6
330
2C3
100
AcDbEntity
  8
Layer 1
370
    25
  0
POLYLINE
  5
2C7
330
3C
100
AcDbEntity
  8
Layer 1
 62
     7
370
    25
100
AcDb2dPolyline
 66
     1
 10
0.0
 20
0.0
 30
0.0
  0
VERTEX
  5
2C8
330
2C7
100
AcDbEntity
  8
Layer 1
 62
     7
370
    25
100
AcDbVertex
100
AcDb2dVertex
 10
213.1833699011312
 20
491.5133231735626
 30
0.0
  0
VERTEX
  5
2C9
330
2C7
100
AcDbEntity
  8
Layer 1
 62
     7
370
    25
100
AcDbVertex
100
AcDb2dVertex
 10
213.1833699011312
 20
505.6240897715975
 30
0.0
  0
SEQEND
  5
2CA
330
2C7
100
AcDbEntity
  8
Layer 1
370
    25
  0
POLYLINE
  5
2CB
330
3C
100
AcDbEntity
  8
Layer 1
 62
     7
370
    25
100
AcDb2dPolyline
 66
     1
 10
0.0
 20
0.0
 30
0.0
  0
VERTEX
  5
2CC
330
2CB
100
AcDbEntity
  8
Layer 1
 62
     7
370
    25
100
AcDbVertex
100
AcDb2dVertex
 10
213.1833699011312
 20
505.6240897715975
 30
0.0
  0
VERTEX
  5
2CD
330
2CB
100
AcDbEntity
  8
Layer 1
 62
     7
370
    25
100
AcDbVertex
100
AcDb2dVertex
 10
207.8917032357875
 20
512.6793008158406
 30
0.0
  0
SEQEND
  5
2CE
330
2CB
100
AcDbEntity
  8
Layer 1
370
    25
  0
POLYLINE
  5
2CF
330
3C
100
AcDbEntity
  8
Layer 1
 62
     7
370
    25
100
AcDb2dPolyline
 66
     1
 10
0.0
 20
0.0
 30
0.0
  0
VERTEX
  5
2D0
330
2CF
100
AcDbEntity
  8
Layer 1
 62
     7
370
    25
100
AcDbVertex
100
AcDb2dVertex
 10
207.8917032357875
 20
512.6793008158406
 30
0.0
  0
VERTEX
  5
2D1
330
2CF
100
AcDbEntity
  8
Layer 1
 62
     7
370
    25
100
AcDbVertex
100
AcDb2dVertex
 10
192.016530984982
 20
512.6793008158406
 30
0.0
  0
SEQEND
  5
2D2
330
2CF
100
AcDbEntity
  8
Layer 1
370
    25
  0
POLYLINE
  5
2D3
330
3C
100
AcDbEntity
  8
Layer 1
 62
     7
370
    25
100
AcDb2dPolyline
 66
     1
 10
0.0
 20
0.0
 30
0.0
  0
VERTEX
  5
2D4
330
2D3
100
AcDbEntity
  8
Layer 1
 62
     7
370
    25
100
AcDbVertex
100
AcDb2dVertex
 10
192.016530984982
 20
512.6793008158406
 30
0.0
  0
VERTEX
  5
2D5
330
2D3
100
AcDbEntity
  8
Layer 1
 62
     7
370
    25
100
AcDbVertex
100
AcDb2dVertex
 10
192.016530984982
 20
526.791100942521
 30
0.0
  0
SEQEND
  5
2D6
330
2D3
100
AcDbEntity
  8
Layer 1
370
    25
  0
POLYLINE
  5
2D7
330
3C
100
AcDbEntity
  8
Layer 1
 62
     7
370
    25
100
AcDb2dPolyline
 66
     1
 10
0.0
 20
0.0
 30
0.0
  0
VERTEX
  5
2D8
330
2D7
100
AcDbEntity
  8
Layer 1
 62
     7
370
    25
100
AcDbVertex
100
AcDb2dVertex
 10
192.016530984982
 20
526.791100942521
 30
0.0
  0
VERTEX
  5
2D9
330
2D7
100
AcDbEntity
  8
Layer 1
 62
     7
370
    25
100
AcDbVertex
100
AcDb2dVertex
 10
213.1833699011312
 20
526.791100942521
 30
0.0
  0
SEQEND
  5
2DA
330
2D7
100
AcDbEntity
  8
Layer 1
370
    25
  0
POLYLINE
  5
2DB
330
3C
100
AcDbEntity
  8
Layer 1
370
     0
100
AcDb2dPolyline
 66
     1
 10
0.0
 20
0.0
 30
0.0
  0
VERTEX
  5
2DC
330
2DB
100
AcDbEntity
  8
Layer 1
370
     0
100
AcDbVertex
100
AcDb2dVertex
 10
975.3954153377484
 20
588.781804594558
 30
0.0
  0
VERTEX
  5
2DD
330
2DB
100
AcDbEntity
  8
Layer 1
370
     0
100
AcDbVertex
100
AcDb2dVertex
 10
970.3955482600053
 20
618.7816960801136
 30
0.0
  0
VERTEX
  5
2DE
330
2DB
100
AcDbEntity
  8
Layer 1
370
     0
100
AcDbVertex
100
AcDb2dVertex
 10
980.3949379059429
 20
618.7816960801136
 30
0.0
  0
SEQEND
  5
2DF
330
2DB
100
AcDbEntity
  8
Layer 1
370
     0
  0
HATCH
  5
2E0
330
3C
100
AcDbEntity
  8
Layer 1
 62
     7
100
AcDbHatch
 10
0.0
 20
0.0
 30
0.0
210
0.0
220
0.0
230
1.0
  2
SOLID
 70
     1
 71
     0
 91
        1
 92
        1
 93
        3
 72
     1
 10
975.3954153377484
 20
588.781804594558
 11
970.3955482600053
 21
618.7816960801136
 72
     1
 10
970.3955482600053
 20
618.7816960801136
 11
980.3949379059429
 21
618.7816960801136
 72
     1
 10
980.3949379059429
 20
618.7816960801136
 11
975.3954153377484
 21
588.781804594558
 97
        0
 75
     2
 76
     1
 98
        0
  0
POLYLINE
  5
2E1
330
3C
100
AcDbEntity
  8
Layer 1
370
     0
100
AcDb2dPolyline
 66
     1
 10
0.0
 20
0.0
 30
0.0
  0
VERTEX
  5
2E2
330
2E1
100
AcDbEntity
  8
Layer 1
370
     0
100
AcDbVertex
100
AcDb2dVertex
 10
975.3954153377484
 20
1093.781470809454
 30
0.0
  0
VERTEX
  5
2E3
330
2E1
100
AcDbEntity
  8
Layer 1
370
     0
100
AcDbVertex
100
AcDb2dVertex
 10
980.3949379059429
 20
1063.781407069124
 30
0.0
  0
VERTEX
  5
2E4
330
2E1
100
AcDbEntity
  8
Layer 1
370
     0
100
AcDbVertex
100
AcDb2dVertex
 10
970.3955482600053
 20
1063.781407069124
 30
0.0
  0
SEQEND
  5
2E5
330
2E1
100
AcDbEntity
  8
Layer 1
370
     0
  0
HATCH
  5
2E6
330
3C
100
AcDbEntity
  8
Layer 1
 62
     7
100
AcDbHatch
 10
0.0
 20
0.0
 30
0.0
210
0.0
220
0.0
230
1.0
  2
SOLID
 70
     1
 71
     0
 91
        1
 92
        1
 93
        3
 72
     1
 10
975.3954153377484
 20
1093.781470809454
 11
980.3949379059429
 21
1063.781407069124
 72
     1
 10
980.3949379059429
 20
1063.781407069124
 11
970.3955482600053
 21
1063.781407069124
 72
     1
 10
970.3955482600053
 20
1063.781407069124
 11
975.3954153377484
 21
1093.781470809454
 97
        0
 75
     2
 76
     1
 98
        0
  0
POLYLINE
  5
2E7
330
3C
100
AcDbEntity
  8
Layer 1
 62
     7
370
    25
100
AcDb2dPolyline
 66
     1
 10
0.0
 20
0.0
 30
0.0
  0
VERTEX
  5
2E8
330
2E7
100
AcDbEntity
  8
Layer 1
 62
     7
370
    25
100
AcDbVertex
100
AcDb2dVertex
 10
846.0944360949001
 20
588.781804594558
 30
0.0
  0
VERTEX
  5
2E9
330
2E7
100
AcDbEntity
  8
Layer 1
 62
     7
370
    25
100
AcDbVertex
100
AcDb2dVertex
 10
985.3954940027832
 20
588.781804594558
 30
0.0
  0
SEQEND
  5
2EA
330
2E7
100
AcDbEntity
  8
Layer 1
370
    25
  0
POLYLINE
  5
2EB
330
3C
100
AcDbEntity
  8
Layer 1
 62
     7
370
    25
100
AcDb2dPolyline
 66
     1
 10
0.0
 20
0.0
 30
0.0
  0
VERTEX
  5
2EC
330
2EB
100
AcDbEntity
  8
Layer 1
 62
     7
370
    25
100
AcDbVertex
100
AcDb2dVertex
 10
845.8315753093755
 20
1093.781470809454
 30
0.0
  0
VERTEX
  5
2ED
330
2EB
100
AcDbEntity
  8
Layer 1
 62
     7
370
    25
100
AcDbVertex
100
AcDb2dVertex
 10
985.3954940027832
 20
1093.781470809454
 30
0.0
  0
SEQEND
  5
2EE
330
2EB
100
AcDbEntity
  8
Layer 1
370
    25
  0
POLYLINE
  5
2EF
330
3C
100
AcDbEntity
  8
Layer 1
 62
     7
370
    25
100
AcDb2dPolyline
 66
     1
 10
0.0
 20
0.0
 30
0.0
  0
VERTEX
  5
2F0
330
2EF
100
AcDbEntity
  8
Layer 1
 62
     7
370
    25
100
AcDbVertex
100
AcDb2dVertex
 10
975.3954153377484
 20
588.781804594558
 30
0.0
  0
VERTEX
  5
2F1
330
2EF
100
AcDbEntity
  8
Layer 1
 62
     7
370
    25
100
AcDbVertex
100
AcDb2dVertex
 10
975.3954153377484
 20
1093.781470809454
 30
0.0
  0
SEQEND
  5
2F2
330
2EF
100
AcDbEntity
  8
Layer 1
370
    25
  0
POLYLINE
  5
2F3
330
3C
100
AcDbEntity
  8
Layer 1
 62
     7
370
    25
100
AcDb2dPolyline
 66
     1
 10
0.0
 20
0.0
 30
0.0
  0
VERTEX
  5
2F4
330
2F3
100
AcDbEntity
  8
Layer 1
 62
     7
370
    25
100
AcDbVertex
100
AcDb2dVertex
 10
956.1025361108008
 20
777.1935599185489
 30
0.0
  0
VERTEX
  5
2F5
330
2F3
100
AcDbEntity
  8
Layer 1
 62
     7
370
    25
100
AcDbVertex
100
AcDb2dVertex
 10
963.1580916645925
 20
782.4853988386669
 30
0.0
  0
SEQEND
  5
2F6
330
2F3
100
AcDbEntity
  8
Layer 1
370
    25
  0
POLYLINE
  5
2F7
330
3C
100
AcDbEntity
  8
Layer 1
 62
     7
370
    25
100
AcDb2dPolyline
 66
     1
 10
0.0
 20
0.0
 30
0.0
  0
VERTEX
  5
2F8
330
2F7
100
AcDbEntity
  8
Layer 1
 62
     7
370
    25
100
AcDbVertex
100
AcDb2dVertex
 10
963.1580916645925
 20
782.4853988386669
 30
0.0
  0
VERTEX
  5
2F9
330
2F7
100
AcDbEntity
  8
Layer 1
 62
     7
370
    25
100
AcDbVertex
100
AcDb2dVertex
 10
963.1580916645925
 20
793.0687321693543
 30
0.0
  0
SEQEND
  5
2FA
330
2F7
100
AcDbEntity
  8
Layer 1
370
    25
  0
POLYLINE
  5
2FB
330
3C
100
AcDbEntity
  8
Layer 1
 62
     7
370
    25
100
AcDb2dPolyline
 66
     1
 10
0.0
 20
0.0
 30
0.0
  0
VERTEX
  5
2FC
330
2FB
100
AcDbEntity
  8
Layer 1
 62
     7
370
    25
100
AcDbVertex
100
AcDb2dVertex
 10
963.1580916645925
 20
793.0687321693543
 30
0.0
  0
VERTEX
  5
2FD
330
2FB
100
AcDbEntity
  8
Layer 1
 62
     7
370
    25
100
AcDbVertex
100
AcDb2dVertex
 10
956.1025361108008
 20
798.3605710894724
 30
0.0
  0
SEQEND
  5
2FE
330
2FB
100
AcDbEntity
  8
Layer 1
370
    25
  0
POLYLINE
  5
2FF
330
3C
100
AcDbEntity
  8
Layer 1
 62
     7
370
    25
100
AcDb2dPolyline
 66
     1
 10
0.0
 20
0.0
 30
0.0
  0
VERTEX
  5
300
330
2FF
100
AcDbEntity
  8
Layer 1
 62
     7
370
    25
100
AcDbVertex
100
AcDb2dVertex
 10
956.1025361108008
 20
798.3605710894724
 30
0.0
  0
VERTEX
  5
301
330
2FF
100
AcDbEntity
  8
Layer 1
 62
     7
370
    25
100
AcDbVertex
100
AcDb2dVertex
 10
941.991080493669
 20
798.3605710894724
 30
0.0
  0
SEQEND
  5
302
330
2FF
100
AcDbEntity
  8
Layer 1
370
    25
  0
POLYLINE
  5
303
330
3C
100
AcDbEntity
  8
Layer 1
 62
     7
370
    25
100
AcDb2dPolyline
 66
     1
 10
0.0
 20
0.0
 30
0.0
  0
VERTEX
  5
304
330
303
100
AcDbEntity
  8
Layer 1
 62
     7
370
    25
100
AcDbVertex
100
AcDb2dVertex
 10
941.991080493669
 20
798.3605710894724
 30
0.0
  0
VERTEX
  5
305
330
303
100
AcDbEntity
  8
Layer 1
 62
     7
370
    25
100
AcDbVertex
100
AcDb2dVertex
 10
934.9358694494258
 20
793.0687321693543
 30
0.0
  0
SEQEND
  5
306
330
303
100
AcDbEntity
  8
Layer 1
370
    25
  0
POLYLINE
  5
307
330
3C
100
AcDbEntity
  8
Layer 1
 62
     7
370
    25
100
AcDb2dPolyline
 66
     1
 10
0.0
 20
0.0
 30
0.0
  0
VERTEX
  5
308
330
307
100
AcDbEntity
  8
Layer 1
 62
     7
370
    25
100
AcDbVertex
100
AcDb2dVertex
 10
934.9358694494258
 20
793.0687321693543
 30
0.0
  0
VERTEX
  5
309
330
307
100
AcDbEntity
  8
Layer 1
 62
     7
370
    25
100
AcDbVertex
100
AcDb2dVertex
 10
934.9358694494258
 20
777.1935599185489
 30
0.0
  0
SEQEND
  5
30A
330
307
100
AcDbEntity
  8
Layer 1
370
    25
  0
POLYLINE
  5
30B
330
3C
100
AcDbEntity
  8
Layer 1
 62
     7
370
    25
100
AcDb2dPolyline
 66
     1
 10
0.0
 20
0.0
 30
0.0
  0
VERTEX
  5
30C
330
30B
100
AcDbEntity
  8
Layer 1
 62
     7
370
    25
100
AcDbVertex
100
AcDb2dVertex
 10
934.9358694494258
 20
777.1935599185489
 30
0.0
  0
VERTEX
  5
30D
330
30B
100
AcDbEntity
  8
Layer 1
 62
     7
370
    25
100
AcDbVertex
100
AcDb2dVertex
 10
920.825102851391
 20
777.1935599185489
 30
0.0
  0
SEQEND
  5
30E
330
30B
100
AcDbEntity
  8
Layer 1
370
    25
  0
POLYLINE
  5
30F
330
3C
100
AcDbEntity
  8
Layer 1
 62
     7
370
    25
100
AcDb2dPolyline
 66
     1
 10
0.0
 20
0.0
 30
0.0
  0
VERTEX
  5
310
330
30F
100
AcDbEntity
  8
Layer 1
 62
     7
370
    25
100
AcDbVertex
100
AcDb2dVertex
 10
920.825102851391
 20
777.1935599185489
 30
0.0
  0
VERTEX
  5
311
330
30F
100
AcDbEntity
  8
Layer 1
 62
     7
370
    25
100
AcDbVertex
100
AcDb2dVertex
 10
920.825102851391
 20
798.3605710894724
 30
0.0
  0
SEQEND
  5
312
330
30F
100
AcDbEntity
  8
Layer 1
370
    25
  0
POLYLINE
  5
313
330
3C
100
AcDbEntity
  8
Layer 1
 62
     7
370
    25
100
AcDb2dPolyline
 66
     1
 10
0.0
 20
0.0
 30
0.0
  0
VERTEX
  5
314
330
313
100
AcDbEntity
  8
Layer 1
 62
     7
370
    25
100
AcDbVertex
100
AcDb2dVertex
 10
963.1580916645925
 20
814.2352265759552
 30
0.0
  0
VERTEX
  5
315
330
313
100
AcDbEntity
  8
Layer 1
 62
     7
370
    25
100
AcDbVertex
100
AcDb2dVertex
 10
956.1025361108008
 20
808.9435599106114
 30
0.0
  0
SEQEND
  5
316
330
313
100
AcDbEntity
  8
Layer 1
370
    25
  0
POLYLINE
  5
317
330
3C
100
AcDbEntity
  8
Layer 1
 62
     7
370
    25
100
AcDb2dPolyline
 66
     1
 10
0.0
 20
0.0
 30
0.0
  0
VERTEX
  5
318
330
317
100
AcDbEntity
  8
Layer 1
 62
     7
370
    25
100
AcDbVertex
100
AcDb2dVertex
 10
956.1025361108008
 20
808.9435599106114
 30
0.0
  0
VERTEX
  5
319
330
317
100
AcDbEntity
  8
Layer 1
 62
     7
370
    25
100
AcDbVertex
100
AcDb2dVertex
 10
927.8803138956341
 20
808.9435599106114
 30
0.0
  0
SEQEND
  5
31A
330
317
100
AcDbEntity
  8
Layer 1
370
    25
  0
POLYLINE
  5
31B
330
3C
100
AcDbEntity
  8
Layer 1
 62
     7
370
    25
100
AcDb2dPolyline
 66
     1
 10
0.0
 20
0.0
 30
0.0
  0
VERTEX
  5
31C
330
31B
100
AcDbEntity
  8
Layer 1
 62
     7
370
    25
100
AcDbVertex
100
AcDb2dVertex
 10
927.8803138956341
 20
808.9435599106114
 30
0.0
  0
VERTEX
  5
31D
330
31B
100
AcDbEntity
  8
Layer 1
 62
     7
370
    25
100
AcDbVertex
100
AcDb2dVertex
 10
920.825102851391
 20
814.2352265759552
 30
0.0
  0
SEQEND
  5
31E
330
31B
100
AcDbEntity
  8
Layer 1
370
    25
  0
POLYLINE
  5
31F
330
3C
100
AcDbEntity
  8
Layer 1
 62
     7
370
    25
100
AcDb2dPolyline
 66
     1
 10
0.0
 20
0.0
 30
0.0
  0
VERTEX
  5
320
330
31F
100
AcDbEntity
  8
Layer 1
 62
     7
370
    25
100
AcDbVertex
100
AcDb2dVertex
 10
920.825102851391
 20
814.2352265759552
 30
0.0
  0
VERTEX
  5
321
330
31F
100
AcDbEntity
  8
Layer 1
 62
     7
370
    25
100
AcDbVertex
100
AcDb2dVertex
 10
920.825102851391
 20
819.5268932412989
 30
0.0
  0
SEQEND
  5
322
330
31F
100
AcDbEntity
  8
Layer 1
370
    25
  0
POLYLINE
  5
323
330
3C
100
AcDbEntity
  8
Layer 1
 62
     7
370
    25
100
AcDb2dPolyline
 66
     1
 10
0.0
 20
0.0
 30
0.0
  0
VERTEX
  5
324
330
323
100
AcDbEntity
  8
Layer 1
 62
     7
370
    25
100
AcDbVertex
100
AcDb2dVertex
 10
920.825102851391
 20
819.5268932412989
 30
0.0
  0
VERTEX
  5
325
330
323
100
AcDbEntity
  8
Layer 1
 62
     7
370
    25
100
AcDbVertex
100
AcDb2dVertex
 10
927.8803138956341
 20
824.8187321614168
 30
0.0
  0
SEQEND
  5
326
330
323
100
AcDbEntity
  8
Layer 1
370
    25
  0
POLYLINE
  5
327
330
3C
100
AcDbEntity
  8
Layer 1
 62
     7
370
    25
100
AcDb2dPolyline
 66
     1
 10
0.0
 20
0.0
 30
0.0
  0
VERTEX
  5
328
330
327
100
AcDbEntity
  8
Layer 1
 62
     7
370
    25
100
AcDbVertex
100
AcDb2dVertex
 10
927.8803138956341
 20
824.8187321614168
 30
0.0
  0
VERTEX
  5
329
330
327
100
AcDbEntity
  8
Layer 1
 62
     7
370
    25
100
AcDbVertex
100
AcDb2dVertex
 10
956.1025361108008
 20
824.8187321614168
 30
0.0
  0
SEQEND
  5
32A
330
327
100
AcDbEntity
  8
Layer 1
370
    25
  0
POLYLINE
  5
32B
330
3C
100
AcDbEntity
  8
Layer 1
 62
     7
370
    25
100
AcDb2dPolyline
 66
     1
 10
0.0
 20
0.0
 30
0.0
  0
VERTEX
  5
32C
330
32B
100
AcDbEntity
  8
Layer 1
 62
     7
370
    25
100
AcDbVertex
100
AcDb2dVertex
 10
956.1025361108008
 20
824.8187321614168
 30
0.0
  0
VERTEX
  5
32D
330
32B
100
AcDbEntity
  8
Layer 1
 62
     7
370
    25
100
AcDbVertex
100
AcDb2dVertex
 10
963.1580916645925
 20
819.5268932412989
 30
0.0
  0
SEQEND
  5
32E
330
32B
100
AcDbEntity
  8
Layer 1
370
    25
  0
POLYLINE
  5
32F
330
3C
100
AcDbEntity
  8
Layer 1
 62
     7
370
    25
100
AcDb2dPolyline
 66
     1
 10
0.0
 20
0.0
 30
0.0
  0
VERTEX
  5
330
330
32F
100
AcDbEntity
  8
Layer 1
 62
     7
370
    25
100
AcDbVertex
100
AcDb2dVertex
 10
963.1580916645925
 20
819.5268932412989
 30
0.0
  0
VERTEX
  5
331
330
32F
100
AcDbEntity
  8
Layer 1
 62
     7
370
    25
100
AcDbVertex
100
AcDb2dVertex
 10
963.1580916645925
 20
814.2352265759552
 30
0.0
  0
SEQEND
  5
332
330
32F
100
AcDbEntity
  8
Layer 1
370
    25
  0
POLYLINE
  5
333
330
3C
100
AcDbEntity
  8
Layer 1
 62
     7
370
    25
100
AcDb2dPolyline
 66
     1
 10
0.0
 20
0.0
 30
0.0
  0
VERTEX
  5
334
330
333
100
AcDbEntity
  8
Layer 1
 62
     7
370
    25
100
AcDbVertex
100
AcDb2dVertex
 10
956.1025361108008
 20
835.4020654921044
 30
0.0
  0
VERTEX
  5
335
330
333
100
AcDbEntity
  8
Layer 1
 62
     7
370
    25
100
AcDbVertex
100
AcDb2dVertex
 10
963.1580916645925
 20
840.6939044122224
 30
0.0
  0
SEQEND
  5
336
330
333
100
AcDbEntity
  8
Layer 1
370
    25
  0
POLYLINE
  5
337
330
3C
100
AcDbEntity
  8
Layer 1
 62
     7
370
    25
100
AcDb2dPolyline
 66
     1
 10
0.0
 20
0.0
 30
0.0
  0
VERTEX
  5
338
330
337
100
AcDbEntity
  8
Layer 1
 62
     7
370
    25
100
AcDbVertex
100
AcDb2dVertex
 10
963.1580916645925
 20
840.6939044122224
 30
0.0
  0
VERTEX
  5
339
330
337
100
AcDbEntity
  8
Layer 1
 62
     7
370
    25
100
AcDbVertex
100
AcDb2dVertex
 10
963.1580916645925
 20
851.2768932333614
 30
0.0
  0
SEQEND
  5
33A
330
337
100
AcDbEntity
  8
Layer 1
370
    25
  0
POLYLINE
  5
33B
330
3C
100
AcDbEntity
  8
Layer 1
 62
     7
370
    25
100
AcDb2dPolyline
 66
     1
 10
0.0
 20
0.0
 30
0.0
  0
VERTEX
  5
33C
330
33B
100
AcDbEntity
  8
Layer 1
 62
     7
370
    25
100
AcDbVertex
100
AcDb2dVertex
 10
963.1580916645925
 20
851.2768932333614
 30
0.0
  0
VERTEX
  5
33D
330
33B
100
AcDbEntity
  8
Layer 1
 62
     7
370
    25
100
AcDbVertex
100
AcDb2dVertex
 10
956.1025361108008
 20
856.5685598987051
 30
0.0
  0
SEQEND
  5
33E
330
33B
100
AcDbEntity
  8
Layer 1
370
    25
  0
POLYLINE
  5
33F
330
3C
100
AcDbEntity
  8
Layer 1
 62
     7
370
    25
100
AcDb2dPolyline
 66
     1
 10
0.0
 20
0.0
 30
0.0
  0
VERTEX
  5
340
330
33F
100
AcDbEntity
  8
Layer 1
 62
     7
370
    25
100
AcDbVertex
100
AcDb2dVertex
 10
956.1025361108008
 20
856.5685598987051
 30
0.0
  0
VERTEX
  5
341
330
33F
100
AcDbEntity
  8
Layer 1
 62
     7
370
    25
100
AcDbVertex
100
AcDb2dVertex
 10
941.991080493669
 20
856.5685598987051
 30
0.0
  0
SEQEND
  5
342
330
33F
100
AcDbEntity
  8
Layer 1
370
    25
  0
POLYLINE
  5
343
330
3C
100
AcDbEntity
  8
Layer 1
 62
     7
370
    25
100
AcDb2dPolyline
 66
     1
 10
0.0
 20
0.0
 30
0.0
  0
VERTEX
  5
344
330
343
100
AcDbEntity
  8
Layer 1
 62
     7
370
    25
100
AcDbVertex
100
AcDb2dVertex
 10
941.991080493669
 20
856.5685598987051
 30
0.0
  0
VERTEX
  5
345
330
343
100
AcDbEntity
  8
Layer 1
 62
     7
370
    25
100
AcDbVertex
100
AcDb2dVertex
 10
934.9358694494258
 20
851.2768932333614
 30
0.0
  0
SEQEND
  5
346
330
343
100
AcDbEntity
  8
Layer 1
370
    25
  0
POLYLINE
  5
347
330
3C
100
AcDbEntity
  8
Layer 1
 62
     7
370
    25
100
AcDb2dPolyline
 66
     1
 10
0.0
 20
0.0
 30
0.0
  0
VERTEX
  5
348
330
347
100
AcDbEntity
  8
Layer 1
 62
     7
370
    25
100
AcDbVertex
100
AcDb2dVertex
 10
934.9358694494258
 20
851.2768932333614
 30
0.0
  0
VERTEX
  5
349
330
347
100
AcDbEntity
  8
Layer 1
 62
     7
370
    25
100
AcDbVertex
100
AcDb2dVertex
 10
934.9358694494258
 20
835.4020654921044
 30
0.0
  0
SEQEND
  5
34A
330
347
100
AcDbEntity
  8
Layer 1
370
    25
  0
POLYLINE
  5
34B
330
3C
100
AcDbEntity
  8
Layer 1
 62
     7
370
    25
100
AcDb2dPolyline
 66
     1
 10
0.0
 20
0.0
 30
0.0
  0
VERTEX
  5
34C
330
34B
100
AcDbEntity
  8
Layer 1
 62
     7
370
    25
100
AcDbVertex
100
AcDb2dVertex
 10
934.9358694494258
 20
835.4020654921044
 30
0.0
  0
VERTEX
  5
34D
330
34B
100
AcDbEntity
  8
Layer 1
 62
     7
370
    25
100
AcDbVertex
100
AcDb2dVertex
 10
920.825102851391
 20
835.4020654921044
 30
0.0
  0
SEQEND
  5
34E
330
34B
100
AcDbEntity
  8
Layer 1
370
    25
  0
POLYLINE
  5
34F
330
3C
100
AcDbEntity
  8
Layer 1
 62
     7
370
    25
100
AcDb2dPolyline
 66
     1
 10
0.0
 20
0.0
 30
0.0
  0
VERTEX
  5
350
330
34F
100
AcDbEntity
  8
Layer 1
 62
     7
370
    25
100
AcDbVertex
100
AcDb2dVertex
 10
920.825102851391
 20
835.4020654921044
 30
0.0
  0
VERTEX
  5
351
330
34F
100
AcDbEntity
  8
Layer 1
 62
     7
370
    25
100
AcDbVertex
100
AcDb2dVertex
 10
920.825102851391
 20
856.5685598987051
 30
0.0
  0
SEQEND
  5
352
330
34F
100
AcDbEntity
  8
Layer 1
370
    25
  0
POLYLINE
  5
353
330
3C
100
AcDbEntity
  8
Layer 1
370
     0
100
AcDb2dPolyline
 66
     1
 10
0.0
 20
0.0
 30
0.0
  0
VERTEX
  5
354
330
353
100
AcDbEntity
  8
Layer 1
370
     0
100
AcDbVertex
100
AcDb2dVertex
 10
-4.603336587390833
 20
1263.781257822076
 30
0.0
  0
VERTEX
  5
355
330
353
100
AcDbEntity
  8
Layer 1
370
     0
100
AcDbVertex
100
AcDb2dVertex
 10
25.39672715293901
 20
1268.780952645044
 30
0.0
  0
VERTEX
  5
356
330
353
100
AcDbEntity
  8
Layer 1
370
     0
100
AcDbVertex
100
AcDb2dVertex
 10
25.39672715293901
 20
1258.781046234784
 30
0.0
  0
SEQEND
  5
357
330
353
100
AcDbEntity
  8
Layer 1
370
     0
  0
HATCH
  5
358
330
3C
100
AcDbEntity
  8
Layer 1
 62
     7
100
AcDbHatch
 10
0.0
 20
0.0
 30
0.0
210
0.0
220
0.0
230
1.0
  2
SOLID
 70
     1
 71
     0
 91
        1
 92
        1
 93
        3
 72
     1
 10
-4.603336587390833
 20
1263.781257822076
 11
25.39672715293901
 21
1268.780952645044
 72
     1
 10
25.39672715293901
 20
1268.780952645044
 11
25.39672715293901
 21
1258.781046234784
 72
     1
 10
25.39672715293901
 20
1258.781046234784
 11
-4.603336587390833
 21
1263.781257822076
 97
        0
 75
     2
 76
     1
 98
        0
  0
POLYLINE
  5
359
330
3C
100
AcDbEntity
  8
Layer 1
370
     0
100
AcDb2dPolyline
 66
     1
 10
0.0
 20
0.0
 30
0.0
  0
VERTEX
  5
35A
330
359
100
AcDbEntity
  8
Layer 1
370
     0
100
AcDbVertex
100
AcDb2dVertex
 10
805.3954560703526
 20
1263.781257822076
 30
0.0
  0
VERTEX
  5
35B
330
359
100
AcDbEntity
  8
Layer 1
370
     0
100
AcDbVertex
100
AcDb2dVertex
 10
775.395564584797
 20
1258.781046234784
 30
0.0
  0
VERTEX
  5
35C
330
359
100
AcDbEntity
  8
Layer 1
370
     0
100
AcDbVertex
100
AcDb2dVertex
 10
775.395564584797
 20
1268.780952645044
 30
0.0
  0
SEQEND
  5
35D
330
359
100
AcDbEntity
  8
Layer 1
370
     0
  0
HATCH
  5
35E
330
3C
100
AcDbEntity
  8
Layer 1
 62
     7
100
AcDbHatch
 10
0.0
 20
0.0
 30
0.0
210
0.0
220
0.0
230
1.0
  2
SOLID
 70
     1
 71
     0
 91
        1
 92
        1
 93
        3
 72
     1
 10
805.3954560703526
 20
1263.781257822076
 11
775.395564584797
 21
1258.781046234784
 72
     1
 10
775.395564584797
 20
1258.781046234784
 11
775.395564584797
 21
1268.780952645044
 72
     1
 10
775.395564584797
 20
1268.780952645044
 11
805.3954560703526
 21
1263.781257822076
 97
        0
 75
     2
 76
     1
 98
        0
  0
POLYLINE
  5
35F
330
3C
100
AcDbEntity
  8
Layer 1
 62
     7
370
    25
100
AcDb2dPolyline
 66
     1
 10
0.0
 20
0.0
 30
0.0
  0
VERTEX
  5
360
330
35F
100
AcDbEntity
  8
Layer 1
 62
     7
370
    25
100
AcDbVertex
100
AcDb2dVertex
 10
-4.603336587390833
 20
1134.130256877926
 30
0.0
  0
VERTEX
  5
361
330
35F
100
AcDbEntity
  8
Layer 1
 62
     7
370
    25
100
AcDbVertex
100
AcDb2dVertex
 10
-4.603336587390833
 20
1273.781164232336
 30
0.0
  0
SEQEND
  5
362
330
35F
100
AcDbEntity
  8
Layer 1
370
    25
  0
POLYLINE
  5
363
330
3C
100
AcDbEntity
  8
Layer 1
 62
     7
370
    25
100
AcDb2dPolyline
 66
     1
 10
0.0
 20
0.0
 30
0.0
  0
VERTEX
  5
364
330
363
100
AcDbEntity
  8
Layer 1
 62
     7
370
    25
100
AcDbVertex
100
AcDb2dVertex
 10
805.3954560703526
 20
1134.130256877926
 30
0.0
  0
VERTEX
  5
365
330
363
100
AcDbEntity
  8
Layer 1
 62
     7
370
    25
100
AcDbVertex
100
AcDb2dVertex
 10
805.3954560703526
 20
1273.781164232336
 30
0.0
  0
SEQEND
  5
366
330
363
100
AcDbEntity
  8
Layer 1
370
    25
  0
POLYLINE
  5
367
330
3C
100
AcDbEntity
  8
Layer 1
 62
     7
370
    25
100
AcDb2dPolyline
 66
     1
 10
0.0
 20
0.0
 30
0.0
  0
VERTEX
  5
368
330
367
100
AcDbEntity
  8
Layer 1
 62
     7
370
    25
100
AcDbVertex
100
AcDb2dVertex
 10
-4.603336587390833
 20
1263.781257822076
 30
0.0
  0
VERTEX
  5
369
330
367
100
AcDbEntity
  8
Layer 1
 62
     7
370
    25
100
AcDbVertex
100
AcDb2dVertex
 10
805.3954560703526
 20
1263.781257822076
 30
0.0
  0
SEQEND
  5
36A
330
367
100
AcDbEntity
  8
Layer 1
370
    25
  0
POLYLINE
  5
36B
330
3C
100
AcDbEntity
  8
Layer 1
 62
     7
370
    25
100
AcDb2dPolyline
 66
     1
 10
0.0
 20
0.0
 30
0.0
  0
VERTEX
  5
36C
330
36B
100
AcDbEntity
  8
Layer 1
 62
     7
370
    25
100
AcDbVertex
100
AcDb2dVertex
 10
341.5998208781417
 20
1276.018581495232
 30
0.0
  0
VERTEX
  5
36D
330
36B
100
AcDbEntity
  8
Layer 1
 62
     7
370
    25
100
AcDbVertex
100
AcDb2dVertex
 10
352.1833264636035
 20
1276.018581495232
 30
0.0
  0
SEQEND
  5
36E
330
36B
100
AcDbEntity
  8
Layer 1
370
    25
  0
POLYLINE
  5
36F
330
3C
100
AcDbEntity
  8
Layer 1
 62
     7
370
    25
100
AcDb2dPolyline
 66
     1
 10
0.0
 20
0.0
 30
0.0
  0
VERTEX
  5
370
330
36F
100
AcDbEntity
  8
Layer 1
 62
     7
370
    25
100
AcDbVertex
100
AcDb2dVertex
 10
352.1833264636035
 20
1276.018581495232
 30
0.0
  0
VERTEX
  5
371
330
36F
100
AcDbEntity
  8
Layer 1
 62
     7
370
    25
100
AcDbVertex
100
AcDb2dVertex
 10
357.4749931289472
 20
1283.073792539475
 30
0.0
  0
SEQEND
  5
372
330
36F
100
AcDbEntity
  8
Layer 1
370
    25
  0
POLYLINE
  5
373
330
3C
100
AcDbEntity
  8
Layer 1
 62
     7
370
    25
100
AcDb2dPolyline
 66
     1
 10
0.0
 20
0.0
 30
0.0
  0
VERTEX
  5
374
330
373
100
AcDbEntity
  8
Layer 1
 62
     7
370
    25
100
AcDbVertex
100
AcDb2dVertex
 10
357.4749931289472
 20
1283.073792539475
 30
0.0
  0
VERTEX
  5
375
330
373
100
AcDbEntity
  8
Layer 1
 62
     7
370
    25
100
AcDbVertex
100
AcDb2dVertex
 10
357.4749931289472
 20
1290.129175838492
 30
0.0
  0
SEQEND
  5
376
330
373
100
AcDbEntity
  8
Layer 1
370
    25
  0
POLYLINE
  5
377
330
3C
100
AcDbEntity
  8
Layer 1
 62
     7
370
    25
100
AcDb2dPolyline
 66
     1
 10
0.0
 20
0.0
 30
0.0
  0
VERTEX
  5
378
330
377
100
AcDbEntity
  8
Layer 1
 62
     7
370
    25
100
AcDbVertex
100
AcDb2dVertex
 10
357.4749931289472
 20
1290.129175838492
 30
0.0
  0
VERTEX
  5
379
330
377
100
AcDbEntity
  8
Layer 1
 62
     7
370
    25
100
AcDbVertex
100
AcDb2dVertex
 10
352.1833264636035
 20
1297.184903647058
 30
0.0
  0
SEQEND
  5
37A
330
377
100
AcDbEntity
  8
Layer 1
370
    25
  0
POLYLINE
  5
37B
330
3C
100
AcDbEntity
  8
Layer 1
 62
     7
370
    25
100
AcDb2dPolyline
 66
     1
 10
0.0
 20
0.0
 30
0.0
  0
VERTEX
  5
37C
330
37B
100
AcDbEntity
  8
Layer 1
 62
     7
370
    25
100
AcDbVertex
100
AcDb2dVertex
 10
352.1833264636035
 20
1297.184903647058
 30
0.0
  0
VERTEX
  5
37D
330
37B
100
AcDbEntity
  8
Layer 1
 62
     7
370
    25
100
AcDbVertex
100
AcDb2dVertex
 10
341.5998208781417
 20
1297.184903647058
 30
0.0
  0
SEQEND
  5
37E
330
37B
100
AcDbEntity
  8
Layer 1
370
    25
  0
POLYLINE
  5
37F
330
3C
100
AcDbEntity
  8
Layer 1
 62
     7
370
    25
100
AcDb2dPolyline
 66
     1
 10
0.0
 20
0.0
 30
0.0
  0
VERTEX
  5
380
330
37F
100
AcDbEntity
  8
Layer 1
 62
     7
370
    25
100
AcDbVertex
100
AcDb2dVertex
 10
341.5998208781417
 20
1297.184903647058
 30
0.0
  0
VERTEX
  5
381
330
37F
100
AcDbEntity
  8
Layer 1
 62
     7
370
    25
100
AcDbVertex
100
AcDb2dVertex
 10
336.308154212798
 20
1304.240803710398
 30
0.0
  0
SEQEND
  5
382
330
37F
100
AcDbEntity
  8
Layer 1
370
    25
  0
POLYLINE
  5
383
330
3C
100
AcDbEntity
  8
Layer 1
 62
     7
370
    25
100
AcDb2dPolyline
 66
     1
 10
0.0
 20
0.0
 30
0.0
  0
VERTEX
  5
384
330
383
100
AcDbEntity
  8
Layer 1
 62
     7
370
    25
100
AcDbVertex
100
AcDb2dVertex
 10
336.308154212798
 20
1304.240803710398
 30
0.0
  0
VERTEX
  5
385
330
383
100
AcDbEntity
  8
Layer 1
 62
     7
370
    25
100
AcDbVertex
100
AcDb2dVertex
 10
336.308154212798
 20
1311.296187009416
 30
0.0
  0
SEQEND
  5
386
330
383
100
AcDbEntity
  8
Layer 1
370
    25
  0
POLYLINE
  5
387
330
3C
100
AcDbEntity
  8
Layer 1
 62
     7
370
    25
100
AcDb2dPolyline
 66
     1
 10
0.0
 20
0.0
 30
0.0
  0
VERTEX
  5
388
330
387
100
AcDbEntity
  8
Layer 1
 62
     7
370
    25
100
AcDbVertex
100
AcDb2dVertex
 10
336.308154212798
 20
1311.296187009416
 30
0.0
  0
VERTEX
  5
389
330
387
100
AcDbEntity
  8
Layer 1
 62
     7
370
    25
100
AcDbVertex
100
AcDb2dVertex
 10
341.5998208781417
 20
1318.351398053659
 30
0.0
  0
SEQEND
  5
38A
330
387
100
AcDbEntity
  8
Layer 1
370
    25
  0
POLYLINE
  5
38B
330
3C
100
AcDbEntity
  8
Layer 1
 62
     7
370
    25
100
AcDb2dPolyline
 66
     1
 10
0.0
 20
0.0
 30
0.0
  0
VERTEX
  5
38C
330
38B
100
AcDbEntity
  8
Layer 1
 62
     7
370
    25
100
AcDbVertex
100
AcDb2dVertex
 10
341.5998208781417
 20
1318.351398053659
 30
0.0
  0
VERTEX
  5
38D
330
38B
100
AcDbEntity
  8
Layer 1
 62
     7
370
    25
100
AcDbVertex
100
AcDb2dVertex
 10
352.1833264636035
 20
1318.351398053659
 30
0.0
  0
SEQEND
  5
38E
330
38B
100
AcDbEntity
  8
Layer 1
370
    25
  0
POLYLINE
  5
38F
330
3C
100
AcDbEntity
  8
Layer 1
 62
     7
370
    25
100
AcDb2dPolyline
 66
     1
 10
0.0
 20
0.0
 30
0.0
  0
VERTEX
  5
390
330
38F
100
AcDbEntity
  8
Layer 1
 62
     7
370
    25
100
AcDbVertex
100
AcDb2dVertex
 10
352.1833264636035
 20
1318.351398053659
 30
0.0
  0
VERTEX
  5
391
330
38F
100
AcDbEntity
  8
Layer 1
 62
     7
370
    25
100
AcDbVertex
100
AcDb2dVertex
 10
357.4749931289472
 20
1311.296187009416
 30
0.0
  0
SEQEND
  5
392
330
38F
100
AcDbEntity
  8
Layer 1
370
    25
  0
POLYLINE
  5
393
330
3C
100
AcDbEntity
  8
Layer 1
 62
     7
370
    25
100
AcDb2dPolyline
 66
     1
 10
0.0
 20
0.0
 30
0.0
  0
VERTEX
  5
394
330
393
100
AcDbEntity
  8
Layer 1
 62
     7
370
    25
100
AcDbVertex
100
AcDb2dVertex
 10
357.4749931289472
 20
1311.296187009416
 30
0.0
  0
VERTEX
  5
395
330
393
100
AcDbEntity
  8
Layer 1
 62
     7
370
    25
100
AcDbVertex
100
AcDb2dVertex
 10
357.4749931289472
 20
1304.240803710398
 30
0.0
  0
SEQEND
  5
396
330
393
100
AcDbEntity
  8
Layer 1
370
    25
  0
POLYLINE
  5
397
330
3C
100
AcDbEntity
  8
Layer 1
 62
     7
370
    25
100
AcDb2dPolyline
 66
     1
 10
0.0
 20
0.0
 30
0.0
  0
VERTEX
  5
398
330
397
100
AcDbEntity
  8
Layer 1
 62
     7
370
    25
100
AcDbVertex
100
AcDb2dVertex
 10
357.4749931289472
 20
1304.240803710398
 30
0.0
  0
VERTEX
  5
399
330
397
100
AcDbEntity
  8
Layer 1
 62
     7
370
    25
100
AcDbVertex
100
AcDb2dVertex
 10
352.1833264636035
 20
1297.184903647058
 30
0.0
  0
SEQEND
  5
39A
330
397
100
AcDbEntity
  8
Layer 1
370
    25
  0
POLYLINE
  5
39B
330
3C
100
AcDbEntity
  8
Layer 1
 62
     7
370
    25
100
AcDb2dPolyline
 66
     1
 10
0.0
 20
0.0
 30
0.0
  0
VERTEX
  5
39C
330
39B
100
AcDbEntity
  8
Layer 1
 62
     7
370
    25
100
AcDbVertex
100
AcDb2dVertex
 10
341.5998208781417
 20
1297.184903647058
 30
0.0
  0
VERTEX
  5
39D
330
39B
100
AcDbEntity
  8
Layer 1
 62
     7
370
    25
100
AcDbVertex
100
AcDb2dVertex
 10
336.308154212798
 20
1290.129175838492
 30
0.0
  0
SEQEND
  5
39E
330
39B
100
AcDbEntity
  8
Layer 1
370
    25
  0
POLYLINE
  5
39F
330
3C
100
AcDbEntity
  8
Layer 1
 62
     7
370
    25
100
AcDb2dPolyline
 66
     1
 10
0.0
 20
0.0
 30
0.0
  0
VERTEX
  5
3A0
330
39F
100
AcDbEntity
  8
Layer 1
 62
     7
370
    25
100
AcDbVertex
100
AcDb2dVertex
 10
336.308154212798
 20
1290.129175838492
 30
0.0
  0
VERTEX
  5
3A1
330
39F
100
AcDbEntity
  8
Layer 1
 62
     7
370
    25
100
AcDbVertex
100
AcDb2dVertex
 10
336.308154212798
 20
1283.073792539475
 30
0.0
  0
SEQEND
  5
3A2
330
39F
100
AcDbEntity
  8
Layer 1
370
    25
  0
POLYLINE
  5
3A3
330
3C
100
AcDbEntity
  8
Layer 1
 62
     7
370
    25
100
AcDb2dPolyline
 66
     1
 10
0.0
 20
0.0
 30
0.0
  0
VERTEX
  5
3A4
330
3A3
100
AcDbEntity
  8
Layer 1
 62
     7
370
    25
100
AcDbVertex
100
AcDb2dVertex
 10
336.308154212798
 20
1283.073792539475
 30
0.0
  0
VERTEX
  5
3A5
330
3A3
100
AcDbEntity
  8
Layer 1
 62
     7
370
    25
100
AcDbVertex
100
AcDb2dVertex
 10
341.5998208781417
 20
1276.018581495232
 30
0.0
  0
SEQEND
  5
3A6
330
3A3
100
AcDbEntity
  8
Layer 1
370
    25
  0
POLYLINE
  5
3A7
330
3C
100
AcDbEntity
  8
Layer 1
 62
     7
370
    25
100
AcDb2dPolyline
 66
     1
 10
0.0
 20
0.0
 30
0.0
  0
VERTEX
  5
3A8
330
3A7
100
AcDbEntity
  8
Layer 1
 62
     7
370
    25
100
AcDbVertex
100
AcDb2dVertex
 10
368.058498714409
 20
1276.018581495232
 30
0.0
  0
VERTEX
  5
3A9
330
3A7
100
AcDbEntity
  8
Layer 1
 62
     7
370
    25
100
AcDbVertex
100
AcDb2dVertex
 10
378.6409707712252
 20
1276.018581495232
 30
0.0
  0
SEQEND
  5
3AA
330
3A7
100
AcDbEntity
  8
Layer 1
370
    25
  0
POLYLINE
  5
3AB
330
3C
100
AcDbEntity
  8
Layer 1
 62
     7
370
    25
100
AcDb2dPolyline
 66
     1
 10
0.0
 20
0.0
 30
0.0
  0
VERTEX
  5
3AC
330
3AB
100
AcDbEntity
  8
Layer 1
 62
     7
370
    25
100
AcDbVertex
100
AcDb2dVertex
 10
373.3501653797528
 20
1276.018581495232
 30
0.0
  0
VERTEX
  5
3AD
330
3AB
100
AcDbEntity
  8
Layer 1
 62
     7
370
    25
100
AcDbVertex
100
AcDb2dVertex
 10
373.3501653797528
 20
1318.351398053659
 30
0.0
  0
SEQEND
  5
3AE
330
3AB
100
AcDbEntity
  8
Layer 1
370
    25
  0
POLYLINE
  5
3AF
330
3C
100
AcDbEntity
  8
Layer 1
 62
     7
370
    25
100
AcDb2dPolyline
 66
     1
 10
0.0
 20
0.0
 30
0.0
  0
VERTEX
  5
3B0
330
3AF
100
AcDbEntity
  8
Layer 1
 62
     7
370
    25
100
AcDbVertex
100
AcDb2dVertex
 10
373.3501653797528
 20
1318.351398053659
 30
0.0
  0
VERTEX
  5
3B1
330
3AF
100
AcDbEntity
  8
Layer 1
 62
     7
370
    25
100
AcDbVertex
100
AcDb2dVertex
 10
368.058498714409
 20
1311.296187009416
 30
0.0
  0
SEQEND
  5
3B2
330
3AF
100
AcDbEntity
  8
Layer 1
370
    25
  0
POLYLINE
  5
3B3
330
3C
100
AcDbEntity
  8
Layer 1
 62
     7
370
    25
100
AcDb2dPolyline
 66
     1
 10
0.0
 20
0.0
 30
0.0
  0
VERTEX
  5
3B4
330
3B3
100
AcDbEntity
  8
Layer 1
 62
     7
370
    25
100
AcDbVertex
100
AcDb2dVertex
 10
394.5161430220307
 20
1276.018581495232
 30
0.0
  0
VERTEX
  5
3B5
330
3B3
100
AcDbEntity
  8
Layer 1
 62
     7
370
    25
100
AcDbVertex
100
AcDb2dVertex
 10
389.224476356687
 20
1283.073792539475
 30
0.0
  0
SEQEND
  5
3B6
330
3B3
100
AcDbEntity
  8
Layer 1
370
    25
  0
POLYLINE
  5
3B7
330
3C
100
AcDbEntity
  8
Layer 1
 62
     7
370
    25
100
AcDb2dPolyline
 66
     1
 10
0.0
 20
0.0
 30
0.0
  0
VERTEX
  5
3B8
330
3B7
100
AcDbEntity
  8
Layer 1
 62
     7
370
    25
100
AcDbVertex
100
AcDb2dVertex
 10
389.224476356687
 20
1283.073792539475
 30
0.0
  0
VERTEX
  5
3B9
330
3B7
100
AcDbEntity
  8
Layer 1
 62
     7
370
    25
100
AcDbVertex
100
AcDb2dVertex
 10
389.224476356687
 20
1311.296187009416
 30
0.0
  0
SEQEND
  5
3BA
330
3B7
100
AcDbEntity
  8
Layer 1
370
    25
  0
POLYLINE
  5
3BB
330
3C
100
AcDbEntity
  8
Layer 1
 62
     7
370
    25
100
AcDb2dPolyline
 66
     1
 10
0.0
 20
0.0
 30
0.0
  0
VERTEX
  5
3BC
330
3BB
100
AcDbEntity
  8
Layer 1
 62
     7
370
    25
100
AcDbVertex
100
AcDb2dVertex
 10
389.224476356687
 20
1311.296187009416
 30
0.0
  0
VERTEX
  5
3BD
330
3BB
100
AcDbEntity
  8
Layer 1
 62
     7
370
    25
100
AcDbVertex
100
AcDb2dVertex
 10
394.5161430220307
 20
1318.351398053659
 30
0.0
  0
SEQEND
  5
3BE
330
3BB
100
AcDbEntity
  8
Layer 1
370
    25
  0
POLYLINE
  5
3BF
330
3C
100
AcDbEntity
  8
Layer 1
 62
     7
370
    25
100
AcDb2dPolyline
 66
     1
 10
0.0
 20
0.0
 30
0.0
  0
VERTEX
  5
3C0
330
3BF
100
AcDbEntity
  8
Layer 1
 62
     7
370
    25
100
AcDbVertex
100
AcDb2dVertex
 10
394.5161430220307
 20
1318.351398053659
 30
0.0
  0
VERTEX
  5
3C1
330
3BF
100
AcDbEntity
  8
Layer 1
 62
     7
370
    25
100
AcDbVertex
100
AcDb2dVertex
 10
399.8078096873745
 20
1318.351398053659
 30
0.0
  0
SEQEND
  5
3C2
330
3BF
100
AcDbEntity
  8
Layer 1
370
    25
  0
POLYLINE
  5
3C3
330
3C
100
AcDbEntity
  8
Layer 1
 62
     7
370
    25
100
AcDb2dPolyline
 66
     1
 10
0.0
 20
0.0
 30
0.0
  0
VERTEX
  5
3C4
330
3C3
100
AcDbEntity
  8
Layer 1
 62
     7
370
    25
100
AcDbVertex
100
AcDb2dVertex
 10
399.8078096873745
 20
1318.351398053659
 30
0.0
  0
VERTEX
  5
3C5
330
3C3
100
AcDbEntity
  8
Layer 1
 62
     7
370
    25
100
AcDbVertex
100
AcDb2dVertex
 10
405.0998208622667
 20
1311.296187009416
 30
0.0
  0
SEQEND
  5
3C6
330
3C3
100
AcDbEntity
  8
Layer 1
370
    25
  0
POLYLINE
  5
3C7
330
3C
100
AcDbEntity
  8
Layer 1
 62
     7
370
    25
100
AcDb2dPolyline
 66
     1
 10
0.0
 20
0.0
 30
0.0
  0
VERTEX
  5
3C8
330
3C7
100
AcDbEntity
  8
Layer 1
 62
     7
370
    25
100
AcDbVertex
100
AcDb2dVertex
 10
405.0998208622667
 20
1311.296187009416
 30
0.0
  0
VERTEX
  5
3C9
330
3C7
100
AcDbEntity
  8
Layer 1
 62
     7
370
    25
100
AcDbVertex
100
AcDb2dVertex
 10
405.0998208622667
 20
1283.073792539475
 30
0.0
  0
SEQEND
  5
3CA
330
3C7
100
AcDbEntity
  8
Layer 1
370
    25
  0
POLYLINE
  5
3CB
330
3C
100
AcDbEntity
  8
Layer 1
 62
     7
370
    25
100
AcDb2dPolyline
 66
     1
 10
0.0
 20
0.0
 30
0.0
  0
VERTEX
  5
3CC
330
3CB
100
AcDbEntity
  8
Layer 1
 62
     7
370
    25
100
AcDbVertex
100
AcDb2dVertex
 10
405.0998208622667
 20
1283.073792539475
 30
0.0
  0
VERTEX
  5
3CD
330
3CB
100
AcDbEntity
  8
Layer 1
 62
     7
370
    25
100
AcDbVertex
100
AcDb2dVertex
 10
399.8078096873745
 20
1276.018581495232
 30
0.0
  0
SEQEND
  5
3CE
330
3CB
100
AcDbEntity
  8
Layer 1
370
    25
  0
POLYLINE
  5
3CF
330
3C
100
AcDbEntity
  8
Layer 1
 62
     7
370
    25
100
AcDb2dPolyline
 66
     1
 10
0.0
 20
0.0
 30
0.0
  0
VERTEX
  5
3D0
330
3CF
100
AcDbEntity
  8
Layer 1
 62
     7
370
    25
100
AcDbVertex
100
AcDb2dVertex
 10
399.8078096873745
 20
1276.018581495232
 30
0.0
  0
VERTEX
  5
3D1
330
3CF
100
AcDbEntity
  8
Layer 1
 62
     7
370
    25
100
AcDbVertex
100
AcDb2dVertex
 10
394.5161430220307
 20
1276.018581495232
 30
0.0
  0
SEQEND
  5
3D2
330
3CF
100
AcDbEntity
  8
Layer 1
370
    25
  0
POLYLINE
  5
3D3
330
3C
100
AcDbEntity
  8
Layer 1
370
     0
100
AcDb2dPolyline
 66
     1
 10
0.0
 20
0.0
 30
0.0
  0
VERTEX
  5
3D4
330
3D3
100
AcDbEntity
  8
Layer 1
370
     0
100
AcDbVertex
100
AcDb2dVertex
 10
905.3958982111511
 20
1068.781101892093
 30
0.0
  0
VERTEX
  5
3D5
330
3D3
100
AcDbEntity
  8
Layer 1
370
     0
100
AcDbVertex
100
AcDb2dVertex
 10
910.3954207793456
 20
1038.781554916086
 30
0.0
  0
VERTEX
  5
3D6
330
3D3
100
AcDbEntity
  8
Layer 1
370
     0
100
AcDbVertex
100
AcDb2dVertex
 10
900.3953421143109
 20
1038.781554916086
 30
0.0
  0
SEQEND
  5
3D7
330
3D3
100
AcDbEntity
  8
Layer 1
370
     0
  0
HATCH
  5
3D8
330
3C
100
AcDbEntity
  8
Layer 1
 62
     7
100
AcDbHatch
 10
0.0
 20
0.0
 30
0.0
210
0.0
220
0.0
230
1.0
  2
SOLID
 70
     1
 71
     0
 91
        1
 92
        1
 93
        3
 72
     1
 10
905.3958982111511
 20
1068.781101892093
 11
910.3954207793456
 21
1038.781554916086
 72
     1
 10
910.3954207793456
 20
1038.781554916086
 11
900.3953421143109
 21
1038.781554916086
 72
     1
 10
900.3953421143109
 20
1038.781554916086
 11
905.3958982111511
 21
1068.781101892093
 97
        0
 75
     2
 76
     1
 98
        0
  0
POLYLINE
  5
3D9
330
3C
100
AcDbEntity
  8
Layer 1
370
     0
100
AcDb2dPolyline
 66
     1
 10
0.0
 20
0.0
 30
0.0
  0
VERTEX
  5
3DA
330
3D9
100
AcDbEntity
  8
Layer 1
370
     0
100
AcDbVertex
100
AcDb2dVertex
 10
905.3958982111511
 20
613.782173511919
 30
0.0
  0
VERTEX
  5
3DB
330
3D9
100
AcDbEntity
  8
Layer 1
370
     0
100
AcDbVertex
100
AcDb2dVertex
 10
900.3953421143109
 20
643.7820649974747
 30
0.0
  0
VERTEX
  5
3DC
330
3D9
100
AcDbEntity
  8
Layer 1
370
     0
100
AcDbVertex
100
AcDb2dVertex
 10
910.3954207793456
 20
643.7820649974747
 30
0.0
  0
SEQEND
  5
3DD
330
3D9
100
AcDbEntity
  8
Layer 1
370
     0
  0
HATCH
  5
3DE
330
3C
100
AcDbEntity
  8
Layer 1
 62
     7
100
AcDbHatch
 10
0.0
 20
0.0
 30
0.0
210
0.0
220
0.0
230
1.0
  2
SOLID
 70
     1
 71
     0
 91
        1
 92
        1
 93
        3
 72
     1
 10
905.3958982111511
 20
613.782173511919
 11
900.3953421143109
 21
643.7820649974747
 72
     1
 10
900.3953421143109
 20
643.7820649974747
 11
910.3954207793456
 21
643.7820649974747
 72
     1
 10
910.3954207793456
 20
643.7820649974747
 11
905.3958982111511
 21
613.782173511919
 97
        0
 75
     2
 76
     1
 98
        0
  0
POLYLINE
  5
3DF
330
3C
100
AcDbEntity
  8
Layer 1
 62
     7
370
    25
100
AcDb2dPolyline
 66
     1
 10
0.0
 20
0.0
 30
0.0
  0
VERTEX
  5
3E0
330
3DF
100
AcDbEntity
  8
Layer 1
 62
     7
370
    25
100
AcDbVertex
100
AcDb2dVertex
 10
845.382334858099
 20
1068.781101892093
 30
0.0
  0
VERTEX
  5
3E1
330
3DF
100
AcDbEntity
  8
Layer 1
 62
     7
370
    25
100
AcDbVertex
100
AcDb2dVertex
 10
915.3952878570888
 20
1068.781101892093
 30
0.0
  0
SEQEND
  5
3E2
330
3DF
100
AcDbEntity
  8
Layer 1
370
    25
  0
POLYLINE
  5
3E3
330
3C
100
AcDbEntity
  8
Layer 1
 62
     7
370
    25
100
AcDb2dPolyline
 66
     1
 10
0.0
 20
0.0
 30
0.0
  0
VERTEX
  5
3E4
330
3E3
100
AcDbEntity
  8
Layer 1
 62
     7
370
    25
100
AcDbVertex
100
AcDb2dVertex
 10
845.7261553875269
 20
613.782173511919
 30
0.0
  0
VERTEX
  5
3E5
330
3E3
100
AcDbEntity
  8
Layer 1
 62
     7
370
    25
100
AcDbVertex
100
AcDb2dVertex
 10
915.3952878570888
 20
613.782173511919
 30
0.0
  0
SEQEND
  5
3E6
330
3E3
100
AcDbEntity
  8
Layer 1
370
    25
  0
POLYLINE
  5
3E7
330
3C
100
AcDbEntity
  8
Layer 1
 62
     7
370
    25
100
AcDb2dPolyline
 66
     1
 10
0.0
 20
0.0
 30
0.0
  0
VERTEX
  5
3E8
330
3E7
100
AcDbEntity
  8
Layer 1
 62
     7
370
    25
100
AcDbVertex
100
AcDb2dVertex
 10
905.3958982111511
 20
1068.781101892093
 30
0.0
  0
VERTEX
  5
3E9
330
3E7
100
AcDbEntity
  8
Layer 1
 62
     7
370
    25
100
AcDbVertex
100
AcDb2dVertex
 10
905.3958982111511
 20
613.782173511919
 30
0.0
  0
SEQEND
  5
3EA
330
3E7
100
AcDbEntity
  8
Layer 1
370
    25
  0
POLYLINE
  5
3EB
330
3C
100
AcDbEntity
  8
Layer 1
 62
     7
370
    25
100
AcDb2dPolyline
 66
     1
 10
0.0
 20
0.0
 30
0.0
  0
VERTEX
  5
3EC
330
3EB
100
AcDbEntity
  8
Layer 1
 62
     7
370
    25
100
AcDbVertex
100
AcDb2dVertex
 10
893.1585745379952
 20
793.0687321693543
 30
0.0
  0
VERTEX
  5
3ED
330
3EB
100
AcDbEntity
  8
Layer 1
 62
     7
370
    25
100
AcDbVertex
100
AcDb2dVertex
 10
850.8248967056966
 20
793.0687321693543
 30
0.0
  0
SEQEND
  5
3EE
330
3EB
100
AcDbEntity
  8
Layer 1
370
    25
  0
POLYLINE
  5
3EF
330
3C
100
AcDbEntity
  8
Layer 1
 62
     7
370
    25
100
AcDb2dPolyline
 66
     1
 10
0.0
 20
0.0
 30
0.0
  0
VERTEX
  5
3F0
330
3EF
100
AcDbEntity
  8
Layer 1
 62
     7
370
    25
100
AcDbVertex
100
AcDb2dVertex
 10
850.8248967056966
 20
793.0687321693543
 30
0.0
  0
VERTEX
  5
3F1
330
3EF
100
AcDbEntity
  8
Layer 1
 62
     7
370
    25
100
AcDbVertex
100
AcDb2dVertex
 10
879.0471189208632
 20
777.1935599185489
 30
0.0
  0
SEQEND
  5
3F2
330
3EF
100
AcDbEntity
  8
Layer 1
370
    25
  0
POLYLINE
  5
3F3
330
3C
100
AcDbEntity
  8
Layer 1
 62
     7
370
    25
100
AcDb2dPolyline
 66
     1
 10
0.0
 20
0.0
 30
0.0
  0
VERTEX
  5
3F4
330
3F3
100
AcDbEntity
  8
Layer 1
 62
     7
370
    25
100
AcDbVertex
100
AcDb2dVertex
 10
879.0471189208632
 20
777.1935599185489
 30
0.0
  0
VERTEX
  5
3F5
330
3F3
100
AcDbEntity
  8
Layer 1
 62
     7
370
    25
100
AcDbVertex
100
AcDb2dVertex
 10
879.0471189208632
 20
798.3605710894724
 30
0.0
  0
SEQEND
  5
3F6
330
3F3
100
AcDbEntity
  8
Layer 1
370
    25
  0
POLYLINE
  5
3F7
330
3C
100
AcDbEntity
  8
Layer 1
 62
     7
370
    25
100
AcDb2dPolyline
 66
     1
 10
0.0
 20
0.0
 30
0.0
  0
VERTEX
  5
3F8
330
3F7
100
AcDbEntity
  8
Layer 1
 62
     7
370
    25
100
AcDbVertex
100
AcDb2dVertex
 10
886.1023299651064
 20
808.9435599106114
 30
0.0
  0
VERTEX
  5
3F9
330
3F7
100
AcDbEntity
  8
Layer 1
 62
     7
370
    25
100
AcDbVertex
100
AcDb2dVertex
 10
893.1585745379952
 20
814.2352265759552
 30
0.0
  0
SEQEND
  5
3FA
330
3F7
100
AcDbEntity
  8
Layer 1
370
    25
  0
POLYLINE
  5
3FB
330
3C
100
AcDbEntity
  8
Layer 1
 62
     7
370
    25
100
AcDb2dPolyline
 66
     1
 10
0.0
 20
0.0
 30
0.0
  0
VERTEX
  5
3FC
330
3FB
100
AcDbEntity
  8
Layer 1
 62
     7
370
    25
100
AcDbVertex
100
AcDb2dVertex
 10
893.1585745379952
 20
814.2352265759552
 30
0.0
  0
VERTEX
  5
3FD
330
3FB
100
AcDbEntity
  8
Layer 1
 62
     7
370
    25
100
AcDbVertex
100
AcDb2dVertex
 10
893.1585745379952
 20
824.8187321614168
 30
0.0
  0
SEQEND
  5
3FE
330
3FB
100
AcDbEntity
  8
Layer 1
370
    25
  0
POLYLINE
  5
3FF
330
3C
100
AcDbEntity
  8
Layer 1
 62
     7
370
    25
100
AcDb2dPolyline
 66
     1
 10
0.0
 20
0.0
 30
0.0
  0
VERTEX
  5
400
330
3FF
100
AcDbEntity
  8
Layer 1
 62
     7
370
    25
100
AcDbVertex
100
AcDb2dVertex
 10
893.1585745379952
 20
824.8187321614168
 30
0.0
  0
VERTEX
  5
401
330
3FF
100
AcDbEntity
  8
Layer 1
 62
     7
370
    25
100
AcDbVertex
100
AcDb2dVertex
 10
886.1023299651064
 20
830.1103988267606
 30
0.0
  0
SEQEND
  5
402
330
3FF
100
AcDbEntity
  8
Layer 1
370
    25
  0
POLYLINE
  5
403
330
3C
100
AcDbEntity
  8
Layer 1
 62
     7
370
    25
100
AcDb2dPolyline
 66
     1
 10
0.0
 20
0.0
 30
0.0
  0
VERTEX
  5
404
330
403
100
AcDbEntity
  8
Layer 1
 62
     7
370
    25
100
AcDbVertex
100
AcDb2dVertex
 10
886.1023299651064
 20
830.1103988267606
 30
0.0
  0
VERTEX
  5
405
330
403
100
AcDbEntity
  8
Layer 1
 62
     7
370
    25
100
AcDbVertex
100
AcDb2dVertex
 10
871.9915633670716
 20
830.1103988267606
 30
0.0
  0
SEQEND
  5
406
330
403
100
AcDbEntity
  8
Layer 1
370
    25
  0
POLYLINE
  5
407
330
3C
100
AcDbEntity
  8
Layer 1
 62
     7
370
    25
100
AcDb2dPolyline
 66
     1
 10
0.0
 20
0.0
 30
0.0
  0
VERTEX
  5
408
330
407
100
AcDbEntity
  8
Layer 1
 62
     7
370
    25
100
AcDbVertex
100
AcDb2dVertex
 10
871.9915633670716
 20
830.1103988267606
 30
0.0
  0
VERTEX
  5
409
330
407
100
AcDbEntity
  8
Layer 1
 62
     7
370
    25
100
AcDbVertex
100
AcDb2dVertex
 10
864.9363523228285
 20
824.8187321614168
 30
0.0
  0
SEQEND
  5
40A
330
407
100
AcDbEntity
  8
Layer 1
370
    25
  0
POLYLINE
  5
40B
330
3C
100
AcDbEntity
  8
Layer 1
 62
     7
370
    25
100
AcDb2dPolyline
 66
     1
 10
0.0
 20
0.0
 30
0.0
  0
VERTEX
  5
40C
330
40B
100
AcDbEntity
  8
Layer 1
 62
     7
370
    25
100
AcDbVertex
100
AcDb2dVertex
 10
864.9363523228285
 20
824.8187321614168
 30
0.0
  0
VERTEX
  5
40D
330
40B
100
AcDbEntity
  8
Layer 1
 62
     7
370
    25
100
AcDbVertex
100
AcDb2dVertex
 10
864.9363523228285
 20
808.9435599106114
 30
0.0
  0
SEQEND
  5
40E
330
40B
100
AcDbEntity
  8
Layer 1
370
    25
  0
POLYLINE
  5
40F
330
3C
100
AcDbEntity
  8
Layer 1
 62
     7
370
    25
100
AcDb2dPolyline
 66
     1
 10
0.0
 20
0.0
 30
0.0
  0
VERTEX
  5
410
330
40F
100
AcDbEntity
  8
Layer 1
 62
     7
370
    25
100
AcDbVertex
100
AcDb2dVertex
 10
864.9363523228285
 20
808.9435599106114
 30
0.0
  0
VERTEX
  5
411
330
40F
100
AcDbEntity
  8
Layer 1
 62
     7
370
    25
100
AcDbVertex
100
AcDb2dVertex
 10
850.8248967056966
 20
808.9435599106114
 30
0.0
  0
SEQEND
  5
412
330
40F
100
AcDbEntity
  8
Layer 1
370
    25
  0
POLYLINE
  5
413
330
3C
100
AcDbEntity
  8
Layer 1
 62
     7
370
    25
100
AcDb2dPolyline
 66
     1
 10
0.0
 20
0.0
 30
0.0
  0
VERTEX
  5
414
330
413
100
AcDbEntity
  8
Layer 1
 62
     7
370
    25
100
AcDbVertex
100
AcDb2dVertex
 10
850.8248967056966
 20
808.9435599106114
 30
0.0
  0
VERTEX
  5
415
330
413
100
AcDbEntity
  8
Layer 1
 62
     7
370
    25
100
AcDbVertex
100
AcDb2dVertex
 10
850.8248967056966
 20
830.1103988267606
 30
0.0
  0
SEQEND
  5
416
330
413
100
AcDbEntity
  8
Layer 1
370
    25
  0
POLYLINE
  5
417
330
3C
100
AcDbEntity
  8
Layer 1
 62
     7
370
    25
100
AcDb2dPolyline
 66
     1
 10
0.0
 20
0.0
 30
0.0
  0
VERTEX
  5
418
330
417
100
AcDbEntity
  8
Layer 1
 62
     7
370
    25
100
AcDbVertex
100
AcDb2dVertex
 10
886.1023299651064
 20
840.6939044122224
 30
0.0
  0
VERTEX
  5
419
330
417
100
AcDbEntity
  8
Layer 1
 62
     7
370
    25
100
AcDbVertex
100
AcDb2dVertex
 10
893.1585745379952
 20
845.9855710775662
 30
0.0
  0
SEQEND
  5
41A
330
417
100
AcDbEntity
  8
Layer 1
370
    25
  0
POLYLINE
  5
41B
330
3C
100
AcDbEntity
  8
Layer 1
 62
     7
370
    25
100
AcDb2dPolyline
 66
     1
 10
0.0
 20
0.0
 30
0.0
  0
VERTEX
  5
41C
330
41B
100
AcDbEntity
  8
Layer 1
 62
     7
370
    25
100
AcDbVertex
100
AcDb2dVertex
 10
893.1585745379952
 20
845.9855710775662
 30
0.0
  0
VERTEX
  5
41D
330
41B
100
AcDbEntity
  8
Layer 1
 62
     7
370
    25
100
AcDbVertex
100
AcDb2dVertex
 10
893.1585745379952
 20
856.5685598987051
 30
0.0
  0
SEQEND
  5
41E
330
41B
100
AcDbEntity
  8
Layer 1
370
    25
  0
POLYLINE
  5
41F
330
3C
100
AcDbEntity
  8
Layer 1
 62
     7
370
    25
100
AcDb2dPolyline
 66
     1
 10
0.0
 20
0.0
 30
0.0
  0
VERTEX
  5
420
330
41F
100
AcDbEntity
  8
Layer 1
 62
     7
370
    25
100
AcDbVertex
100
AcDb2dVertex
 10
893.1585745379952
 20
856.5685598987051
 30
0.0
  0
VERTEX
  5
421
330
41F
100
AcDbEntity
  8
Layer 1
 62
     7
370
    25
100
AcDbVertex
100
AcDb2dVertex
 10
886.1023299651064
 20
861.8603988188231
 30
0.0
  0
SEQEND
  5
422
330
41F
100
AcDbEntity
  8
Layer 1
370
    25
  0
POLYLINE
  5
423
330
3C
100
AcDbEntity
  8
Layer 1
 62
     7
370
    25
100
AcDb2dPolyline
 66
     1
 10
0.0
 20
0.0
 30
0.0
  0
VERTEX
  5
424
330
423
100
AcDbEntity
  8
Layer 1
 62
     7
370
    25
100
AcDbVertex
100
AcDb2dVertex
 10
886.1023299651064
 20
861.8603988188231
 30
0.0
  0
VERTEX
  5
425
330
423
100
AcDbEntity
  8
Layer 1
 62
     7
370
    25
100
AcDbVertex
100
AcDb2dVertex
 10
871.9915633670716
 20
861.8603988188231
 30
0.0
  0
SEQEND
  5
426
330
423
100
AcDbEntity
  8
Layer 1
370
    25
  0
POLYLINE
  5
427
330
3C
100
AcDbEntity
  8
Layer 1
 62
     7
370
    25
100
AcDb2dPolyline
 66
     1
 10
0.0
 20
0.0
 30
0.0
  0
VERTEX
  5
428
330
427
100
AcDbEntity
  8
Layer 1
 62
     7
370
    25
100
AcDbVertex
100
AcDb2dVertex
 10
871.9915633670716
 20
861.8603988188231
 30
0.0
  0
VERTEX
  5
429
330
427
100
AcDbEntity
  8
Layer 1
 62
     7
370
    25
100
AcDbVertex
100
AcDb2dVertex
 10
864.9363523228285
 20
856.5685598987051
 30
0.0
  0
SEQEND
  5
42A
330
427
100
AcDbEntity
  8
Layer 1
370
    25
  0
POLYLINE
  5
42B
330
3C
100
AcDbEntity
  8
Layer 1
 62
     7
370
    25
100
AcDb2dPolyline
 66
     1
 10
0.0
 20
0.0
 30
0.0
  0
VERTEX
  5
42C
330
42B
100
AcDbEntity
  8
Layer 1
 62
     7
370
    25
100
AcDbVertex
100
AcDb2dVertex
 10
864.9363523228285
 20
856.5685598987051
 30
0.0
  0
VERTEX
  5
42D
330
42B
100
AcDbEntity
  8
Layer 1
 62
     7
370
    25
100
AcDbVertex
100
AcDb2dVertex
 10
864.9363523228285
 20
840.6939044122224
 30
0.0
  0
SEQEND
  5
42E
330
42B
100
AcDbEntity
  8
Layer 1
370
    25
  0
POLYLINE
  5
42F
330
3C
100
AcDbEntity
  8
Layer 1
 62
     7
370
    25
100
AcDb2dPolyline
 66
     1
 10
0.0
 20
0.0
 30
0.0
  0
VERTEX
  5
430
330
42F
100
AcDbEntity
  8
Layer 1
 62
     7
370
    25
100
AcDbVertex
100
AcDb2dVertex
 10
864.9363523228285
 20
840.6939044122224
 30
0.0
  0
VERTEX
  5
431
330
42F
100
AcDbEntity
  8
Layer 1
 62
     7
370
    25
100
AcDbVertex
100
AcDb2dVertex
 10
850.8248967056966
 20
840.6939044122224
 30
0.0
  0
SEQEND
  5
432
330
42F
100
AcDbEntity
  8
Layer 1
370
    25
  0
POLYLINE
  5
433
330
3C
100
AcDbEntity
  8
Layer 1
 62
     7
370
    25
100
AcDb2dPolyline
 66
     1
 10
0.0
 20
0.0
 30
0.0
  0
VERTEX
  5
434
330
433
100
AcDbEntity
  8
Layer 1
 62
     7
370
    25
100
AcDbVertex
100
AcDb2dVertex
 10
850.8248967056966
 20
840.6939044122224
 30
0.0
  0
VERTEX
  5
435
330
433
100
AcDbEntity
  8
Layer 1
 62
     7
370
    25
100
AcDbVertex
100
AcDb2dVertex
 10
850.8248967056966
 20
861.8603988188231
 30
0.0
  0
SEQEND
  5
436
330
433
100
AcDbEntity
  8
Layer 1
370
    25
  0
POLYLINE
  5
437
330
3C
100
AcDbEntity
  8
Layer 1
370
     0
100
AcDb2dPolyline
 66
     1
 10
0.0
 20
0.0
 30
0.0
  0
VERTEX
  5
438
330
437
100
AcDbEntity
  8
Layer 1
370
     0
100
AcDbVertex
100
AcDb2dVertex
 10
780.3961206816372
 20
1193.78139618593
 30
0.0
  0
VERTEX
  5
439
330
437
100
AcDbEntity
  8
Layer 1
370
     0
100
AcDbVertex
100
AcDb2dVertex
 10
750.395884686533
 20
1188.781184598638
 30
0.0
  0
VERTEX
  5
43A
330
437
100
AcDbEntity
  8
Layer 1
370
     0
100
AcDbVertex
100
AcDb2dVertex
 10
750.395884686533
 20
1198.781091008899
 30
0.0
  0
SEQEND
  5
43B
330
437
100
AcDbEntity
  8
Layer 1
370
     0
  0
HATCH
  5
43C
330
3C
100
AcDbEntity
  8
Layer 1
 62
     7
100
AcDbHatch
 10
0.0
 20
0.0
 30
0.0
210
0.0
220
0.0
230
1.0
  2
SOLID
 70
     1
 71
     0
 91
        1
 92
        1
 93
        3
 72
     1
 10
780.3961206816372
 20
1193.78139618593
 11
750.395884686533
 21
1188.781184598638
 72
     1
 10
750.395884686533
 20
1188.781184598638
 11
750.395884686533
 21
1198.781091008899
 72
     1
 10
750.395884686533
 20
1198.781091008899
 11
780.3961206816372
 21
1193.78139618593
 97
        0
 75
     2
 76
     1
 98
        0
  0
POLYLINE
  5
43D
330
3C
100
AcDbEntity
  8
Layer 1
370
     0
100
AcDb2dPolyline
 66
     1
 10
0.0
 20
0.0
 30
0.0
  0
VERTEX
  5
43E
330
43D
100
AcDbEntity
  8
Layer 1
370
     0
100
AcDbVertex
100
AcDb2dVertex
 10
20.3965155656474
 20
1193.78139618593
 30
0.0
  0
VERTEX
  5
43F
330
43D
100
AcDbEntity
  8
Layer 1
370
     0
100
AcDbVertex
100
AcDb2dVertex
 10
50.39657930597725
 20
1198.781091008899
 30
0.0
  0
VERTEX
  5
440
330
43D
100
AcDbEntity
  8
Layer 1
370
     0
100
AcDbVertex
100
AcDb2dVertex
 10
50.39657930597725
 20
1188.781184598638
 30
0.0
  0
SEQEND
  5
441
330
43D
100
AcDbEntity
  8
Layer 1
370
     0
  0
HATCH
  5
442
330
3C
100
AcDbEntity
  8
Layer 1
 62
     7
100
AcDbHatch
 10
0.0
 20
0.0
 30
0.0
210
0.0
220
0.0
230
1.0
  2
SOLID
 70
     1
 71
     0
 91
        1
 92
        1
 93
        3
 72
     1
 10
20.3965155656474
 20
1193.78139618593
 11
50.39657930597725
 21
1198.781091008899
 72
     1
 10
50.39657930597725
 20
1198.781091008899
 11
50.39657930597725
 21
1188.781184598638
 72
     1
 10
50.39657930597725
 20
1188.781184598638
 11
20.3965155656474
 21
1193.78139618593
 97
        0
 75
     2
 76
     1
 98
        0
  0
POLYLINE
  5
443
330
3C
100
AcDbEntity
  8
Layer 1
 62
     7
370
    25
100
AcDb2dPolyline
 66
     1
 10
0.0
 20
0.0
 30
0.0
  0
VERTEX
  5
444
330
443
100
AcDbEntity
  8
Layer 1
 62
     7
370
    25
100
AcDbVertex
100
AcDb2dVertex
 10
780.3961206816372
 20
1134.578636055331
 30
0.0
  0
VERTEX
  5
445
330
443
100
AcDbEntity
  8
Layer 1
 62
     7
370
    25
100
AcDbVertex
100
AcDb2dVertex
 10
780.3961206816372
 20
1203.781130341416
 30
0.0
  0
SEQEND
  5
446
330
443
100
AcDbEntity
  8
Layer 1
370
    25
  0
POLYLINE
  5
447
330
3C
100
AcDbEntity
  8
Layer 1
 62
     7
370
    25
100
AcDb2dPolyline
 66
     1
 10
0.0
 20
0.0
 30
0.0
  0
VERTEX
  5
448
330
447
100
AcDbEntity
  8
Layer 1
 62
     7
370
    25
100
AcDbVertex
100
AcDb2dVertex
 10
20.3965155656474
 20
1134.578636055331
 30
0.0
  0
VERTEX
  5
449
330
447
100
AcDbEntity
  8
Layer 1
 62
     7
370
    25
100
AcDbVertex
100
AcDb2dVertex
 10
20.3965155656474
 20
1203.781130341416
 30
0.0
  0
SEQEND
  5
44A
330
447
100
AcDbEntity
  8
Layer 1
370
    25
  0
POLYLINE
  5
44B
330
3C
100
AcDbEntity
  8
Layer 1
 62
     7
370
    25
100
AcDb2dPolyline
 66
     1
 10
0.0
 20
0.0
 30
0.0
  0
VERTEX
  5
44C
330
44B
100
AcDbEntity
  8
Layer 1
 62
     7
370
    25
100
AcDbVertex
100
AcDb2dVertex
 10
780.3961206816372
 20
1193.78139618593
 30
0.0
  0
VERTEX
  5
44D
330
44B
100
AcDbEntity
  8
Layer 1
 62
     7
370
    25
100
AcDbVertex
100
AcDb2dVertex
 10
20.3965155656474
 20
1193.78139618593
 30
0.0
  0
SEQEND
  5
44E
330
44B
100
AcDbEntity
  8
Layer 1
370
    25
  0
POLYLINE
  5
44F
330
3C
100
AcDbEntity
  8
Layer 1
 62
     7
370
    25
100
AcDb2dPolyline
 66
     1
 10
0.0
 20
0.0
 30
0.0
  0
VERTEX
  5
450
330
44F
100
AcDbEntity
  8
Layer 1
 62
     7
370
    25
100
AcDbVertex
100
AcDb2dVertex
 10
336.308154212798
 20
1248.351536417513
 30
0.0
  0
VERTEX
  5
451
330
44F
100
AcDbEntity
  8
Layer 1
 62
     7
370
    25
100
AcDbVertex
100
AcDb2dVertex
 10
357.4749931289472
 20
1248.351536417513
 30
0.0
  0
SEQEND
  5
452
330
44F
100
AcDbEntity
  8
Layer 1
370
    25
  0
POLYLINE
  5
453
330
3C
100
AcDbEntity
  8
Layer 1
 62
     7
370
    25
100
AcDb2dPolyline
 66
     1
 10
0.0
 20
0.0
 30
0.0
  0
VERTEX
  5
454
330
453
100
AcDbEntity
  8
Layer 1
 62
     7
370
    25
100
AcDbVertex
100
AcDb2dVertex
 10
357.4749931289472
 20
1248.351536417513
 30
0.0
  0
VERTEX
  5
455
330
453
100
AcDbEntity
  8
Layer 1
 62
     7
370
    25
100
AcDbVertex
100
AcDb2dVertex
 10
341.5998208781417
 20
1206.018203094763
 30
0.0
  0
SEQEND
  5
456
330
453
100
AcDbEntity
  8
Layer 1
370
    25
  0
POLYLINE
  5
457
330
3C
100
AcDbEntity
  8
Layer 1
 62
     7
370
    25
100
AcDb2dPolyline
 66
     1
 10
0.0
 20
0.0
 30
0.0
  0
VERTEX
  5
458
330
457
100
AcDbEntity
  8
Layer 1
 62
     7
370
    25
100
AcDbVertex
100
AcDb2dVertex
 10
368.058498714409
 20
1227.185042010912
 30
0.0
  0
VERTEX
  5
459
330
457
100
AcDbEntity
  8
Layer 1
 62
     7
370
    25
100
AcDbVertex
100
AcDb2dVertex
 10
383.9328096913432
 20
1227.185042010912
 30
0.0
  0
SEQEND
  5
45A
330
457
100
AcDbEntity
  8
Layer 1
370
    25
  0
POLYLINE
  5
45B
330
3C
100
AcDbEntity
  8
Layer 1
 62
     7
370
    25
100
AcDb2dPolyline
 66
     1
 10
0.0
 20
0.0
 30
0.0
  0
VERTEX
  5
45C
330
45B
100
AcDbEntity
  8
Layer 1
 62
     7
370
    25
100
AcDbVertex
100
AcDb2dVertex
 10
383.9328096913432
 20
1227.185042010912
 30
0.0
  0
VERTEX
  5
45D
330
45B
100
AcDbEntity
  8
Layer 1
 62
     7
370
    25
100
AcDbVertex
100
AcDb2dVertex
 10
389.224476356687
 20
1220.129658711895
 30
0.0
  0
SEQEND
  5
45E
330
45B
100
AcDbEntity
  8
Layer 1
370
    25
  0
POLYLINE
  5
45F
330
3C
100
AcDbEntity
  8
Layer 1
 62
     7
370
    25
100
AcDb2dPolyline
 66
     1
 10
0.0
 20
0.0
 30
0.0
  0
VERTEX
  5
460
330
45F
100
AcDbEntity
  8
Layer 1
 62
     7
370
    25
100
AcDbVertex
100
AcDb2dVertex
 10
389.224476356687
 20
1220.129658711895
 30
0.0
  0
VERTEX
  5
461
330
45F
100
AcDbEntity
  8
Layer 1
 62
     7
370
    25
100
AcDbVertex
100
AcDb2dVertex
 10
389.224476356687
 20
1213.073930903329
 30
0.0
  0
SEQEND
  5
462
330
45F
100
AcDbEntity
  8
Layer 1
370
    25
  0
POLYLINE
  5
463
330
3C
100
AcDbEntity
  8
Layer 1
 62
     7
370
    25
100
AcDb2dPolyline
 66
     1
 10
0.0
 20
0.0
 30
0.0
  0
VERTEX
  5
464
330
463
100
AcDbEntity
  8
Layer 1
 62
     7
370
    25
100
AcDbVertex
100
AcDb2dVertex
 10
389.224476356687
 20
1213.073930903329
 30
0.0
  0
VERTEX
  5
465
330
463
100
AcDbEntity
  8
Layer 1
 62
     7
370
    25
100
AcDbVertex
100
AcDb2dVertex
 10
383.9328096913432
 20
1206.018203094763
 30
0.0
  0
SEQEND
  5
466
330
463
100
AcDbEntity
  8
Layer 1
370
    25
  0
POLYLINE
  5
467
330
3C
100
AcDbEntity
  8
Layer 1
 62
     7
370
    25
100
AcDb2dPolyline
 66
     1
 10
0.0
 20
0.0
 30
0.0
  0
VERTEX
  5
468
330
467
100
AcDbEntity
  8
Layer 1
 62
     7
370
    25
100
AcDbVertex
100
AcDb2dVertex
 10
383.9328096913432
 20
1206.018203094763
 30
0.0
  0
VERTEX
  5
469
330
467
100
AcDbEntity
  8
Layer 1
 62
     7
370
    25
100
AcDbVertex
100
AcDb2dVertex
 10
373.3501653797528
 20
1206.018203094763
 30
0.0
  0
SEQEND
  5
46A
330
467
100
AcDbEntity
  8
Layer 1
370
    25
  0
POLYLINE
  5
46B
330
3C
100
AcDbEntity
  8
Layer 1
 62
     7
370
    25
100
AcDb2dPolyline
 66
     1
 10
0.0
 20
0.0
 30
0.0
  0
VERTEX
  5
46C
330
46B
100
AcDbEntity
  8
Layer 1
 62
     7
370
    25
100
AcDbVertex
100
AcDb2dVertex
 10
373.3501653797528
 20
1206.018203094763
 30
0.0
  0
VERTEX
  5
46D
330
46B
100
AcDbEntity
  8
Layer 1
 62
     7
370
    25
100
AcDbVertex
100
AcDb2dVertex
 10
368.058498714409
 20
1213.073930903329
 30
0.0
  0
SEQEND
  5
46E
330
46B
100
AcDbEntity
  8
Layer 1
370
    25
  0
POLYLINE
  5
46F
330
3C
100
AcDbEntity
  8
Layer 1
 62
     7
370
    25
100
AcDb2dPolyline
 66
     1
 10
0.0
 20
0.0
 30
0.0
  0
VERTEX
  5
470
330
46F
100
AcDbEntity
  8
Layer 1
 62
     7
370
    25
100
AcDbVertex
100
AcDb2dVertex
 10
368.058498714409
 20
1213.073930903329
 30
0.0
  0
VERTEX
  5
471
330
46F
100
AcDbEntity
  8
Layer 1
 62
     7
370
    25
100
AcDbVertex
100
AcDb2dVertex
 10
368.058498714409
 20
1234.24042530993
 30
0.0
  0
SEQEND
  5
472
330
46F
100
AcDbEntity
  8
Layer 1
370
    25
  0
POLYLINE
  5
473
330
3C
100
AcDbEntity
  8
Layer 1
 62
     7
370
    25
100
AcDb2dPolyline
 66
     1
 10
0.0
 20
0.0
 30
0.0
  0
VERTEX
  5
474
330
473
100
AcDbEntity
  8
Layer 1
 62
     7
370
    25
100
AcDbVertex
100
AcDb2dVertex
 10
368.058498714409
 20
1234.24042530993
 30
0.0
  0
VERTEX
  5
475
330
473
100
AcDbEntity
  8
Layer 1
 62
     7
370
    25
100
AcDbVertex
100
AcDb2dVertex
 10
378.6409707712252
 20
1248.351536417513
 30
0.0
  0
SEQEND
  5
476
330
473
100
AcDbEntity
  8
Layer 1
370
    25
  0
POLYLINE
  5
477
330
3C
100
AcDbEntity
  8
Layer 1
 62
     7
370
    25
100
AcDb2dPolyline
 66
     1
 10
0.0
 20
0.0
 30
0.0
  0
VERTEX
  5
478
330
477
100
AcDbEntity
  8
Layer 1
 62
     7
370
    25
100
AcDbVertex
100
AcDb2dVertex
 10
378.6409707712252
 20
1248.351536417513
 30
0.0
  0
VERTEX
  5
479
330
477
100
AcDbEntity
  8
Layer 1
 62
     7
370
    25
100
AcDbVertex
100
AcDb2dVertex
 10
383.9328096913432
 20
1248.351536417513
 30
0.0
  0
SEQEND
  5
47A
330
477
100
AcDbEntity
  8
Layer 1
370
    25
  0
POLYLINE
  5
47B
330
3C
100
AcDbEntity
  8
Layer 1
 62
     7
370
    25
100
AcDb2dPolyline
 66
     1
 10
0.0
 20
0.0
 30
0.0
  0
VERTEX
  5
47C
330
47B
100
AcDbEntity
  8
Layer 1
 62
     7
370
    25
100
AcDbVertex
100
AcDb2dVertex
 10
405.0998208622667
 20
1206.018203094763
 30
0.0
  0
VERTEX
  5
47D
330
47B
100
AcDbEntity
  8
Layer 1
 62
     7
370
    25
100
AcDbVertex
100
AcDb2dVertex
 10
399.8078096873745
 20
1213.073930903329
 30
0.0
  0
SEQEND
  5
47E
330
47B
100
AcDbEntity
  8
Layer 1
370
    25
  0
POLYLINE
  5
47F
330
3C
100
AcDbEntity
  8
Layer 1
 62
     7
370
    25
100
AcDb2dPolyline
 66
     1
 10
0.0
 20
0.0
 30
0.0
  0
VERTEX
  5
480
330
47F
100
AcDbEntity
  8
Layer 1
 62
     7
370
    25
100
AcDbVertex
100
AcDb2dVertex
 10
399.8078096873745
 20
1213.073930903329
 30
0.0
  0
VERTEX
  5
481
330
47F
100
AcDbEntity
  8
Layer 1
 62
     7
370
    25
100
AcDbVertex
100
AcDb2dVertex
 10
399.8078096873745
 20
1241.296153118496
 30
0.0
  0
SEQEND
  5
482
330
47F
100
AcDbEntity
  8
Layer 1
370
    25
  0
POLYLINE
  5
483
330
3C
100
AcDbEntity
  8
Layer 1
 62
     7
370
    25
100
AcDb2dPolyline
 66
     1
 10
0.0
 20
0.0
 30
0.0
  0
VERTEX
  5
484
330
483
100
AcDbEntity
  8
Layer 1
 62
     7
370
    25
100
AcDbVertex
100
AcDb2dVertex
 10
399.8078096873745
 20
1241.296153118496
 30
0.0
  0
VERTEX
  5
485
330
483
100
AcDbEntity
  8
Layer 1
 62
     7
370
    25
100
AcDbVertex
100
AcDb2dVertex
 10
405.0998208622667
 20
1248.351536417513
 30
0.0
  0
SEQEND
  5
486
330
483
100
AcDbEntity
  8
Layer 1
370
    25
  0
POLYLINE
  5
487
330
3C
100
AcDbEntity
  8
Layer 1
 62
     7
370
    25
100
AcDb2dPolyline
 66
     1
 10
0.0
 20
0.0
 30
0.0
  0
VERTEX
  5
488
330
487
100
AcDbEntity
  8
Layer 1
 62
     7
370
    25
100
AcDbVertex
100
AcDb2dVertex
 10
405.0998208622667
 20
1248.351536417513
 30
0.0
  0
VERTEX
  5
489
330
487
100
AcDbEntity
  8
Layer 1
 62
     7
370
    25
100
AcDbVertex
100
AcDb2dVertex
 10
410.3914875276105
 20
1248.351536417513
 30
0.0
  0
SEQEND
  5
48A
330
487
100
AcDbEntity
  8
Layer 1
370
    25
  0
POLYLINE
  5
48B
330
3C
100
AcDbEntity
  8
Layer 1
 62
     7
370
    25
100
AcDb2dPolyline
 66
     1
 10
0.0
 20
0.0
 30
0.0
  0
VERTEX
  5
48C
330
48B
100
AcDbEntity
  8
Layer 1
 62
     7
370
    25
100
AcDbVertex
100
AcDb2dVertex
 10
410.3914875276105
 20
1248.351536417513
 30
0.0
  0
VERTEX
  5
48D
330
48B
100
AcDbEntity
  8
Layer 1
 62
     7
370
    25
100
AcDbVertex
100
AcDb2dVertex
 10
415.6831541929542
 20
1241.296153118496
 30
0.0
  0
SEQEND
  5
48E
330
48B
100
AcDbEntity
  8
Layer 1
370
    25
  0
POLYLINE
  5
48F
330
3C
100
AcDbEntity
  8
Layer 1
 62
     7
370
    25
100
AcDb2dPolyline
 66
     1
 10
0.0
 20
0.0
 30
0.0
  0
VERTEX
  5
490
330
48F
100
AcDbEntity
  8
Layer 1
 62
     7
370
    25
100
AcDbVertex
100
AcDb2dVertex
 10
415.6831541929542
 20
1241.296153118496
 30
0.0
  0
VERTEX
  5
491
330
48F
100
AcDbEntity
  8
Layer 1
 62
     7
370
    25
100
AcDbVertex
100
AcDb2dVertex
 10
415.6831541929542
 20
1213.073930903329
 30
0.0
  0
SEQEND
  5
492
330
48F
100
AcDbEntity
  8
Layer 1
370
    25
  0
POLYLINE
  5
493
330
3C
100
AcDbEntity
  8
Layer 1
 62
     7
370
    25
100
AcDb2dPolyline
 66
     1
 10
0.0
 20
0.0
 30
0.0
  0
VERTEX
  5
494
330
493
100
AcDbEntity
  8
Layer 1
 62
     7
370
    25
100
AcDbVertex
100
AcDb2dVertex
 10
415.6831541929542
 20
1213.073930903329
 30
0.0
  0
VERTEX
  5
495
330
493
100
AcDbEntity
  8
Layer 1
 62
     7
370
    25
100
AcDbVertex
100
AcDb2dVertex
 10
410.3914875276105
 20
1206.018203094763
 30
0.0
  0
SEQEND
  5
496
330
493
100
AcDbEntity
  8
Layer 1
370
    25
  0
POLYLINE
  5
497
330
3C
100
AcDbEntity
  8
Layer 1
 62
     7
370
    25
100
AcDb2dPolyline
 66
     1
 10
0.0
 20
0.0
 30
0.0
  0
VERTEX
  5
498
330
497
100
AcDbEntity
  8
Layer 1
 62
     7
370
    25
100
AcDbVertex
100
AcDb2dVertex
 10
410.3914875276105
 20
1206.018203094763
 30
0.0
  0
VERTEX
  5
499
330
497
100
AcDbEntity
  8
Layer 1
 62
     7
370
    25
100
AcDbVertex
100
AcDb2dVertex
 10
405.0998208622667
 20
1206.018203094763
 30
0.0
  0
SEQEND
  5
49A
330
497
100
AcDbEntity
  8
Layer 1
370
    25
  0
POLYLINE
  5
49B
330
3C
100
AcDbEntity
  8
Layer 1
370
     0
100
AcDb2dPolyline
 66
     1
 10
0.0
 20
0.0
 30
0.0
  0
VERTEX
  5
49C
330
49B
100
AcDbEntity
  8
Layer 1
370
     0
100
AcDbVertex
100
AcDb2dVertex
 10
805.3954560703526
 20
1193.78139618593
 30
0.0
  0
VERTEX
  5
49D
330
49B
100
AcDbEntity
  8
Layer 1
370
     0
100
AcDbVertex
100
AcDb2dVertex
 10
835.3953475559082
 20
1198.781091008899
 30
0.0
  0
VERTEX
  5
49E
330
49B
100
AcDbEntity
  8
Layer 1
370
     0
100
AcDbVertex
100
AcDb2dVertex
 10
835.3953475559082
 20
1188.781184598638
 30
0.0
  0
SEQEND
  5
49F
330
49B
100
AcDbEntity
  8
Layer 1
370
     0
  0
HATCH
  5
4A0
330
3C
100
AcDbEntity
  8
Layer 1
 62
     7
100
AcDbHatch
 10
0.0
 20
0.0
 30
0.0
210
0.0
220
0.0
230
1.0
  2
SOLID
 70
     1
 71
     0
 91
        1
 92
        1
 93
        3
 72
     1
 10
805.3954560703526
 20
1193.78139618593
 11
835.3953475559082
 21
1198.781091008899
 72
     1
 10
835.3953475559082
 20
1198.781091008899
 11
835.3953475559082
 21
1188.781184598638
 72
     1
 10
835.3953475559082
 20
1188.781184598638
 11
805.3954560703526
 21
1193.78139618593
 97
        0
 75
     2
 76
     1
 98
        0
  0
POLYLINE
  5
4A1
330
3C
100
AcDbEntity
  8
Layer 1
370
     0
100
AcDb2dPolyline
 66
     1
 10
0.0
 20
0.0
 30
0.0
  0
VERTEX
  5
4A2
330
4A1
100
AcDbEntity
  8
Layer 1
370
     0
100
AcDbVertex
100
AcDb2dVertex
 10
780.3961206816372
 20
1193.78139618593
 30
0.0
  0
VERTEX
  5
4A3
330
4A1
100
AcDbEntity
  8
Layer 1
370
     0
100
AcDbVertex
100
AcDb2dVertex
 10
750.395884686533
 20
1188.781184598638
 30
0.0
  0
VERTEX
  5
4A4
330
4A1
100
AcDbEntity
  8
Layer 1
370
     0
100
AcDbVertex
100
AcDb2dVertex
 10
750.395884686533
 20
1198.781091008899
 30
0.0
  0
SEQEND
  5
4A5
330
4A1
100
AcDbEntity
  8
Layer 1
370
     0
  0
HATCH
  5
4A6
330
3C
100
AcDbEntity
  8
Layer 1
 62
     7
100
AcDbHatch
 10
0.0
 20
0.0
 30
0.0
210
0.0
220
0.0
230
1.0
  2
SOLID
 70
     1
 71
     0
 91
        1
 92
        1
 93
        3
 72
     1
 10
780.3961206816372
 20
1193.78139618593
 11
750.395884686533
 21
1188.781184598638
 72
     1
 10
750.395884686533
 20
1188.781184598638
 11
750.395884686533
 21
1198.781091008899
 72
     1
 10
750.395884686533
 20
1198.781091008899
 11
780.3961206816372
 21
1193.78139618593
 97
        0
 75
     2
 76
     1
 98
        0
  0
POLYLINE
  5
4A7
330
3C
100
AcDbEntity
  8
Layer 1
 62
     7
370
    25
100
AcDb2dPolyline
 66
     1
 10
0.0
 20
0.0
 30
0.0
  0
VERTEX
  5
4A8
330
4A7
100
AcDbEntity
  8
Layer 1
 62
     7
370
    25
100
AcDbVertex
100
AcDb2dVertex
 10
805.3954560703526
 20
1141.728414970644
 30
0.0
  0
VERTEX
  5
4A9
330
4A7
100
AcDbEntity
  8
Layer 1
 62
     7
370
    25
100
AcDbVertex
100
AcDb2dVertex
 10
805.3954560703526
 20
1203.781130341416
 30
0.0
  0
SEQEND
  5
4AA
330
4A7
100
AcDbEntity
  8
Layer 1
370
    25
  0
POLYLINE
  5
4AB
330
3C
100
AcDbEntity
  8
Layer 1
 62
     7
370
    25
100
AcDb2dPolyline
 66
     1
 10
0.0
 20
0.0
 30
0.0
  0
VERTEX
  5
4AC
330
4AB
100
AcDbEntity
  8
Layer 1
 62
     7
370
    25
100
AcDbVertex
100
AcDb2dVertex
 10
780.3961206816372
 20
1144.287431897088
 30
0.0
  0
VERTEX
  5
4AD
330
4AB
100
AcDbEntity
  8
Layer 1
 62
     7
370
    25
100
AcDbVertex
100
AcDb2dVertex
 10
780.3961206816372
 20
1203.781130341416
 30
0.0
  0
SEQEND
  5
4AE
330
4AB
100
AcDbEntity
  8
Layer 1
370
    25
  0
POLYLINE
  5
4AF
330
3C
100
AcDbEntity
  8
Layer 1
 62
     7
370
    25
100
AcDb2dPolyline
 66
     1
 10
0.0
 20
0.0
 30
0.0
  0
VERTEX
  5
4B0
330
4AF
100
AcDbEntity
  8
Layer 1
 62
     7
370
    25
100
AcDbVertex
100
AcDb2dVertex
 10
805.3954560703526
 20
1193.78139618593
 30
0.0
  0
VERTEX
  5
4B1
330
4AF
100
AcDbEntity
  8
Layer 1
 62
     7
370
    25
100
AcDbVertex
100
AcDb2dVertex
 10
960.723787194715
 20
1193.78139618593
 30
0.0
  0
SEQEND
  5
4B2
330
4AF
100
AcDbEntity
  8
Layer 1
370
    25
  0
POLYLINE
  5
4B3
330
3C
100
AcDbEntity
  8
Layer 1
 62
     7
370
    25
100
AcDb2dPolyline
 66
     1
 10
0.0
 20
0.0
 30
0.0
  0
VERTEX
  5
4B4
330
4B3
100
AcDbEntity
  8
Layer 1
 62
     7
370
    25
100
AcDbVertex
100
AcDb2dVertex
 10
805.3954560703526
 20
1193.78139618593
 30
0.0
  0
VERTEX
  5
4B5
330
4B3
100
AcDbEntity
  8
Layer 1
 62
     7
370
    25
100
AcDbVertex
100
AcDb2dVertex
 10
780.3961206816372
 20
1193.78139618593
 30
0.0
  0
SEQEND
  5
4B6
330
4B3
100
AcDbEntity
  8
Layer 1
370
    25
  0
POLYLINE
  5
4B7
330
3C
100
AcDbEntity
  8
Layer 1
 62
     7
370
    25
100
AcDb2dPolyline
 66
     1
 10
0.0
 20
0.0
 30
0.0
  0
VERTEX
  5
4B8
330
4B7
100
AcDbEntity
  8
Layer 1
 62
     7
370
    25
100
AcDbVertex
100
AcDb2dVertex
 10
780.3961206816372
 20
1193.78139618593
 30
0.0
  0
VERTEX
  5
4B9
330
4B7
100
AcDbEntity
  8
Layer 1
 62
     7
370
    25
100
AcDbVertex
100
AcDb2dVertex
 10
720.3959932009774
 20
1193.78139618593
 30
0.0
  0
SEQEND
  5
4BA
330
4B7
100
AcDbEntity
  8
Layer 1
370
    25
  0
POLYLINE
  5
4BB
330
3C
100
AcDbEntity
  8
Layer 1
 62
     7
370
    25
100
AcDb2dPolyline
 66
     1
 10
0.0
 20
0.0
 30
0.0
  0
VERTEX
  5
4BC
330
4BB
100
AcDbEntity
  8
Layer 1
 62
     7
370
    25
100
AcDbVertex
100
AcDb2dVertex
 10
863.8273760861265
 20
1241.296153118496
 30
0.0
  0
VERTEX
  5
4BD
330
4BB
100
AcDbEntity
  8
Layer 1
 62
     7
370
    25
100
AcDbVertex
100
AcDb2dVertex
 10
869.1190427514703
 20
1248.351536417513
 30
0.0
  0
SEQEND
  5
4BE
330
4BB
100
AcDbEntity
  8
Layer 1
370
    25
  0
POLYLINE
  5
4BF
330
3C
100
AcDbEntity
  8
Layer 1
 62
     7
370
    25
100
AcDb2dPolyline
 66
     1
 10
0.0
 20
0.0
 30
0.0
  0
VERTEX
  5
4C0
330
4BF
100
AcDbEntity
  8
Layer 1
 62
     7
370
    25
100
AcDbVertex
100
AcDb2dVertex
 10
869.1190427514703
 20
1248.351536417513
 30
0.0
  0
VERTEX
  5
4C1
330
4BF
100
AcDbEntity
  8
Layer 1
 62
     7
370
    25
100
AcDbVertex
100
AcDb2dVertex
 10
879.7023760821578
 20
1248.351536417513
 30
0.0
  0
SEQEND
  5
4C2
330
4BF
100
AcDbEntity
  8
Layer 1
370
    25
  0
POLYLINE
  5
4C3
330
3C
100
AcDbEntity
  8
Layer 1
 62
     7
370
    25
100
AcDb2dPolyline
 66
     1
 10
0.0
 20
0.0
 30
0.0
  0
VERTEX
  5
4C4
330
4C3
100
AcDbEntity
  8
Layer 1
 62
     7
370
    25
100
AcDbVertex
100
AcDb2dVertex
 10
879.7023760821578
 20
1248.351536417513
 30
0.0
  0
VERTEX
  5
4C5
330
4C3
100
AcDbEntity
  8
Layer 1
 62
     7
370
    25
100
AcDbVertex
100
AcDb2dVertex
 10
884.9943872570501
 20
1241.296153118496
 30
0.0
  0
SEQEND
  5
4C6
330
4C3
100
AcDbEntity
  8
Layer 1
370
    25
  0
POLYLINE
  5
4C7
330
3C
100
AcDbEntity
  8
Layer 1
 62
     7
370
    25
100
AcDb2dPolyline
 66
     1
 10
0.0
 20
0.0
 30
0.0
  0
VERTEX
  5
4C8
330
4C7
100
AcDbEntity
  8
Layer 1
 62
     7
370
    25
100
AcDbVertex
100
AcDb2dVertex
 10
884.9943872570501
 20
1241.296153118496
 30
0.0
  0
VERTEX
  5
4C9
330
4C7
100
AcDbEntity
  8
Layer 1
 62
     7
370
    25
100
AcDbVertex
100
AcDb2dVertex
 10
884.9943872570501
 20
1234.24042530993
 30
0.0
  0
SEQEND
  5
4CA
330
4C7
100
AcDbEntity
  8
Layer 1
370
    25
  0
POLYLINE
  5
4CB
330
3C
100
AcDbEntity
  8
Layer 1
 62
     7
370
    25
100
AcDb2dPolyline
 66
     1
 10
0.0
 20
0.0
 30
0.0
  0
VERTEX
  5
4CC
330
4CB
100
AcDbEntity
  8
Layer 1
 62
     7
370
    25
100
AcDbVertex
100
AcDb2dVertex
 10
884.9943872570501
 20
1234.24042530993
 30
0.0
  0
VERTEX
  5
4CD
330
4CB
100
AcDbEntity
  8
Layer 1
 62
     7
370
    25
100
AcDbVertex
100
AcDb2dVertex
 10
879.7023760821578
 20
1227.185042010912
 30
0.0
  0
SEQEND
  5
4CE
330
4CB
100
AcDbEntity
  8
Layer 1
370
    25
  0
POLYLINE
  5
4CF
330
3C
100
AcDbEntity
  8
Layer 1
 62
     7
370
    25
100
AcDb2dPolyline
 66
     1
 10
0.0
 20
0.0
 30
0.0
  0
VERTEX
  5
4D0
330
4CF
100
AcDbEntity
  8
Layer 1
 62
     7
370
    25
100
AcDbVertex
100
AcDb2dVertex
 10
879.7023760821578
 20
1227.185042010912
 30
0.0
  0
VERTEX
  5
4D1
330
4CF
100
AcDbEntity
  8
Layer 1
 62
     7
370
    25
100
AcDbVertex
100
AcDb2dVertex
 10
869.1190427514703
 20
1227.185042010912
 30
0.0
  0
SEQEND
  5
4D2
330
4CF
100
AcDbEntity
  8
Layer 1
370
    25
  0
POLYLINE
  5
4D3
330
3C
100
AcDbEntity
  8
Layer 1
 62
     7
370
    25
100
AcDb2dPolyline
 66
     1
 10
0.0
 20
0.0
 30
0.0
  0
VERTEX
  5
4D4
330
4D3
100
AcDbEntity
  8
Layer 1
 62
     7
370
    25
100
AcDbVertex
100
AcDb2dVertex
 10
869.1190427514703
 20
1227.185042010912
 30
0.0
  0
VERTEX
  5
4D5
330
4D3
100
AcDbEntity
  8
Layer 1
 62
     7
370
    25
100
AcDbVertex
100
AcDb2dVertex
 10
863.8273760861265
 20
1220.129658711895
 30
0.0
  0
SEQEND
  5
4D6
330
4D3
100
AcDbEntity
  8
Layer 1
370
    25
  0
POLYLINE
  5
4D7
330
3C
100
AcDbEntity
  8
Layer 1
 62
     7
370
    25
100
AcDb2dPolyline
 66
     1
 10
0.0
 20
0.0
 30
0.0
  0
VERTEX
  5
4D8
330
4D7
100
AcDbEntity
  8
Layer 1
 62
     7
370
    25
100
AcDbVertex
100
AcDb2dVertex
 10
863.8273760861265
 20
1220.129658711895
 30
0.0
  0
VERTEX
  5
4D9
330
4D7
100
AcDbEntity
  8
Layer 1
 62
     7
370
    25
100
AcDbVertex
100
AcDb2dVertex
 10
863.8273760861265
 20
1206.018203094763
 30
0.0
  0
SEQEND
  5
4DA
330
4D7
100
AcDbEntity
  8
Layer 1
370
    25
  0
POLYLINE
  5
4DB
330
3C
100
AcDbEntity
  8
Layer 1
 62
     7
370
    25
100
AcDb2dPolyline
 66
     1
 10
0.0
 20
0.0
 30
0.0
  0
VERTEX
  5
4DC
330
4DB
100
AcDbEntity
  8
Layer 1
 62
     7
370
    25
100
AcDbVertex
100
AcDb2dVertex
 10
863.8273760861265
 20
1206.018203094763
 30
0.0
  0
VERTEX
  5
4DD
330
4DB
100
AcDbEntity
  8
Layer 1
 62
     7
370
    25
100
AcDbVertex
100
AcDb2dVertex
 10
884.9943872570501
 20
1206.018203094763
 30
0.0
  0
SEQEND
  5
4DE
330
4DB
100
AcDbEntity
  8
Layer 1
370
    25
  0
POLYLINE
  5
4DF
330
3C
100
AcDbEntity
  8
Layer 1
 62
     7
370
    25
100
AcDb2dPolyline
 66
     1
 10
0.0
 20
0.0
 30
0.0
  0
VERTEX
  5
4E0
330
4DF
100
AcDbEntity
  8
Layer 1
 62
     7
370
    25
100
AcDbVertex
100
AcDb2dVertex
 10
895.5777205877375
 20
1213.073930903329
 30
0.0
  0
VERTEX
  5
4E1
330
4DF
100
AcDbEntity
  8
Layer 1
 62
     7
370
    25
100
AcDbVertex
100
AcDb2dVertex
 10
900.8693872530813
 20
1206.018203094763
 30
0.0
  0
SEQEND
  5
4E2
330
4DF
100
AcDbEntity
  8
Layer 1
370
    25
  0
POLYLINE
  5
4E3
330
3C
100
AcDbEntity
  8
Layer 1
 62
     7
370
    25
100
AcDb2dPolyline
 66
     1
 10
0.0
 20
0.0
 30
0.0
  0
VERTEX
  5
4E4
330
4E3
100
AcDbEntity
  8
Layer 1
 62
     7
370
    25
100
AcDbVertex
100
AcDb2dVertex
 10
900.8693872530813
 20
1206.018203094763
 30
0.0
  0
VERTEX
  5
4E5
330
4E3
100
AcDbEntity
  8
Layer 1
 62
     7
370
    25
100
AcDbVertex
100
AcDb2dVertex
 10
911.4527205837688
 20
1206.018203094763
 30
0.0
  0
SEQEND
  5
4E6
330
4E3
100
AcDbEntity
  8
Layer 1
370
    25
  0
POLYLINE
  5
4E7
330
3C
100
AcDbEntity
  8
Layer 1
 62
     7
370
    25
100
AcDb2dPolyline
 66
     1
 10
0.0
 20
0.0
 30
0.0
  0
VERTEX
  5
4E8
330
4E7
100
AcDbEntity
  8
Layer 1
 62
     7
370
    25
100
AcDbVertex
100
AcDb2dVertex
 10
911.4527205837688
 20
1206.018203094763
 30
0.0
  0
VERTEX
  5
4E9
330
4E7
100
AcDbEntity
  8
Layer 1
 62
     7
370
    25
100
AcDbVertex
100
AcDb2dVertex
 10
916.744731758661
 20
1213.073930903329
 30
0.0
  0
SEQEND
  5
4EA
330
4E7
100
AcDbEntity
  8
Layer 1
370
    25
  0
POLYLINE
  5
4EB
330
3C
100
AcDbEntity
  8
Layer 1
 62
     7
370
    25
100
AcDb2dPolyline
 66
     1
 10
0.0
 20
0.0
 30
0.0
  0
VERTEX
  5
4EC
330
4EB
100
AcDbEntity
  8
Layer 1
 62
     7
370
    25
100
AcDbVertex
100
AcDb2dVertex
 10
916.744731758661
 20
1213.073930903329
 30
0.0
  0
VERTEX
  5
4ED
330
4EB
100
AcDbEntity
  8
Layer 1
 62
     7
370
    25
100
AcDbVertex
100
AcDb2dVertex
 10
916.744731758661
 20
1227.185042010912
 30
0.0
  0
SEQEND
  5
4EE
330
4EB
100
AcDbEntity
  8
Layer 1
370
    25
  0
POLYLINE
  5
4EF
330
3C
100
AcDbEntity
  8
Layer 1
 62
     7
370
    25
100
AcDb2dPolyline
 66
     1
 10
0.0
 20
0.0
 30
0.0
  0
VERTEX
  5
4F0
330
4EF
100
AcDbEntity
  8
Layer 1
 62
     7
370
    25
100
AcDbVertex
100
AcDb2dVertex
 10
916.744731758661
 20
1227.185042010912
 30
0.0
  0
VERTEX
  5
4F1
330
4EF
100
AcDbEntity
  8
Layer 1
 62
     7
370
    25
100
AcDbVertex
100
AcDb2dVertex
 10
911.4527205837688
 20
1234.24042530993
 30
0.0
  0
SEQEND
  5
4F2
330
4EF
100
AcDbEntity
  8
Layer 1
370
    25
  0
POLYLINE
  5
4F3
330
3C
100
AcDbEntity
  8
Layer 1
 62
     7
370
    25
100
AcDb2dPolyline
 66
     1
 10
0.0
 20
0.0
 30
0.0
  0
VERTEX
  5
4F4
330
4F3
100
AcDbEntity
  8
Layer 1
 62
     7
370
    25
100
AcDbVertex
100
AcDb2dVertex
 10
911.4527205837688
 20
1234.24042530993
 30
0.0
  0
VERTEX
  5
4F5
330
4F3
100
AcDbEntity
  8
Layer 1
 62
     7
370
    25
100
AcDbVertex
100
AcDb2dVertex
 10
895.5777205877375
 20
1234.24042530993
 30
0.0
  0
SEQEND
  5
4F6
330
4F3
100
AcDbEntity
  8
Layer 1
370
    25
  0
POLYLINE
  5
4F7
330
3C
100
AcDbEntity
  8
Layer 1
 62
     7
370
    25
100
AcDb2dPolyline
 66
     1
 10
0.0
 20
0.0
 30
0.0
  0
VERTEX
  5
4F8
330
4F7
100
AcDbEntity
  8
Layer 1
 62
     7
370
    25
100
AcDbVertex
100
AcDb2dVertex
 10
895.5777205877375
 20
1234.24042530993
 30
0.0
  0
VERTEX
  5
4F9
330
4F7
100
AcDbEntity
  8
Layer 1
 62
     7
370
    25
100
AcDbVertex
100
AcDb2dVertex
 10
895.5777205877375
 20
1248.351536417513
 30
0.0
  0
SEQEND
  5
4FA
330
4F7
100
AcDbEntity
  8
Layer 1
370
    25
  0
POLYLINE
  5
4FB
330
3C
100
AcDbEntity
  8
Layer 1
 62
     7
370
    25
100
AcDb2dPolyline
 66
     1
 10
0.0
 20
0.0
 30
0.0
  0
VERTEX
  5
4FC
330
4FB
100
AcDbEntity
  8
Layer 1
 62
     7
370
    25
100
AcDbVertex
100
AcDb2dVertex
 10
895.5777205877375
 20
1248.351536417513
 30
0.0
  0
VERTEX
  5
4FD
330
4FB
100
AcDbEntity
  8
Layer 1
 62
     7
370
    25
100
AcDbVertex
100
AcDb2dVertex
 10
916.744731758661
 20
1248.351536417513
 30
0.0
  0
SEQEND
  5
4FE
330
4FB
100
AcDbEntity
  8
Layer 1
370
    25
  0
POLYLINE
  5
4FF
330
3C
100
AcDbEntity
  8
Layer 1
370
     0
100
AcDb2dPolyline
 66
     1
 10
0.0
 20
0.0
 30
0.0
  0
VERTEX
  5
500
330
4FF
100
AcDbEntity
  8
Layer 1
370
     0
100
AcDbVertex
100
AcDb2dVertex
 10
20.3965155656474
 20
1193.78139618593
 30
0.0
  0
VERTEX
  5
501
330
4FF
100
AcDbEntity
  8
Layer 1
370
     0
100
AcDbVertex
100
AcDb2dVertex
 10
50.39657930597725
 20
1198.781091008899
 30
0.0
  0
VERTEX
  5
502
330
4FF
100
AcDbEntity
  8
Layer 1
370
     0
100
AcDbVertex
100
AcDb2dVertex
 10
50.39657930597725
 20
1188.781184598638
 30
0.0
  0
SEQEND
  5
503
330
4FF
100
AcDbEntity
  8
Layer 1
370
     0
  0
HATCH
  5
504
330
3C
100
AcDbEntity
  8
Layer 1
 62
     7
100
AcDbHatch
 10
0.0
 20
0.0
 30
0.0
210
0.0
220
0.0
230
1.0
  2
SOLID
 70
     1
 71
     0
 91
        1
 92
        1
 93
        3
 72
     1
 10
20.3965155656474
 20
1193.78139618593
 11
50.39657930597725
 21
1198.781091008899
 72
     1
 10
50.39657930597725
 20
1198.781091008899
 11
50.39657930597725
 21
1188.781184598638
 72
     1
 10
50.39657930597725
 20
1188.781184598638
 11
20.3965155656474
 21
1193.78139618593
 97
        0
 75
     2
 76
     1
 98
        0
  0
POLYLINE
  5
505
330
3C
100
AcDbEntity
  8
Layer 1
370
     0
100
AcDb2dPolyline
 66
     1
 10
0.0
 20
0.0
 30
0.0
  0
VERTEX
  5
506
330
505
100
AcDbEntity
  8
Layer 1
370
     0
100
AcDbVertex
100
AcDb2dVertex
 10
-4.603336587390833
 20
1193.78139618593
 30
0.0
  0
VERTEX
  5
507
330
505
100
AcDbEntity
  8
Layer 1
370
     0
100
AcDbVertex
100
AcDb2dVertex
 10
-34.60322807294641
 20
1188.781184598638
 30
0.0
  0
VERTEX
  5
508
330
505
100
AcDbEntity
  8
Layer 1
370
     0
100
AcDbVertex
100
AcDb2dVertex
 10
-34.60322807294641
 20
1198.781091008899
 30
0.0
  0
SEQEND
  5
509
330
505
100
AcDbEntity
  8
Layer 1
370
     0
  0
HATCH
  5
50A
330
3C
100
AcDbEntity
  8
Layer 1
 62
     7
100
AcDbHatch
 10
0.0
 20
0.0
 30
0.0
210
0.0
220
0.0
230
1.0
  2
SOLID
 70
     1
 71
     0
 91
        1
 92
        1
 93
        3
 72
     1
 10
-4.603336587390833
 20
1193.78139618593
 11
-34.60322807294641
 21
1188.781184598638
 72
     1
 10
-34.60322807294641
 20
1188.781184598638
 11
-34.60322807294641
 21
1198.781091008899
 72
     1
 10
-34.60322807294641
 20
1198.781091008899
 11
-4.603336587390833
 21
1193.78139618593
 97
        0
 75
     2
 76
     1
 98
        0
  0
POLYLINE
  5
50B
330
3C
100
AcDbEntity
  8
Layer 1
 62
     7
370
    25
100
AcDb2dPolyline
 66
     1
 10
0.0
 20
0.0
 30
0.0
  0
VERTEX
  5
50C
330
50B
100
AcDbEntity
  8
Layer 1
 62
     7
370
    25
100
AcDbVertex
100
AcDb2dVertex
 10
20.3965155656474
 20
1142.992937268505
 30
0.0
  0
VERTEX
  5
50D
330
50B
100
AcDbEntity
  8
Layer 1
 62
     7
370
    25
100
AcDbVertex
100
AcDb2dVertex
 10
20.3965155656474
 20
1203.781130341416
 30
0.0
  0
SEQEND
  5
50E
330
50B
100
AcDbEntity
  8
Layer 1
370
    25
  0
POLYLINE
  5
50F
330
3C
100
AcDbEntity
  8
Layer 1
 62
     7
370
    25
100
AcDb2dPolyline
 66
     1
 10
0.0
 20
0.0
 30
0.0
  0
VERTEX
  5
510
330
50F
100
AcDbEntity
  8
Layer 1
 62
     7
370
    25
100
AcDbVertex
100
AcDb2dVertex
 10
-4.603336587390833
 20
1142.123222913254
 30
0.0
  0
VERTEX
  5
511
330
50F
100
AcDbEntity
  8
Layer 1
 62
     7
370
    25
100
AcDbVertex
100
AcDb2dVertex
 10
-4.603336587390833
 20
1203.781130341416
 30
0.0
  0
SEQEND
  5
512
330
50F
100
AcDbEntity
  8
Layer 1
370
    25
  0
POLYLINE
  5
513
330
3C
100
AcDbEntity
  8
Layer 1
 62
     7
370
    25
100
AcDb2dPolyline
 66
     1
 10
0.0
 20
0.0
 30
0.0
  0
VERTEX
  5
514
330
513
100
AcDbEntity
  8
Layer 1
 62
     7
370
    25
100
AcDbVertex
100
AcDb2dVertex
 10
20.3965155656474
 20
1193.78139618593
 30
0.0
  0
VERTEX
  5
515
330
513
100
AcDbEntity
  8
Layer 1
 62
     7
370
    25
100
AcDbVertex
100
AcDb2dVertex
 10
80.39612628198431
 20
1193.78139618593
 30
0.0
  0
SEQEND
  5
516
330
513
100
AcDbEntity
  8
Layer 1
370
    25
  0
POLYLINE
  5
517
330
3C
100
AcDbEntity
  8
Layer 1
 62
     7
370
    25
100
AcDb2dPolyline
 66
     1
 10
0.0
 20
0.0
 30
0.0
  0
VERTEX
  5
518
330
517
100
AcDbEntity
  8
Layer 1
 62
     7
370
    25
100
AcDbVertex
100
AcDb2dVertex
 10
20.3965155656474
 20
1193.78139618593
 30
0.0
  0
VERTEX
  5
519
330
517
100
AcDbEntity
  8
Layer 1
 62
     7
370
    25
100
AcDbVertex
100
AcDb2dVertex
 10
-4.603336587390833
 20
1193.78139618593
 30
0.0
  0
SEQEND
  5
51A
330
517
100
AcDbEntity
  8
Layer 1
370
    25
  0
POLYLINE
  5
51B
330
3C
100
AcDbEntity
  8
Layer 1
 62
     7
370
    25
100
AcDb2dPolyline
 66
     1
 10
0.0
 20
0.0
 30
0.0
  0
VERTEX
  5
51C
330
51B
100
AcDbEntity
  8
Layer 1
 62
     7
370
    25
100
AcDbVertex
100
AcDb2dVertex
 10
-4.603336587390833
 20
1193.78139618593
 30
0.0
  0
VERTEX
  5
51D
330
51B
100
AcDbEntity
  8
Layer 1
 62
     7
370
    25
100
AcDbVertex
100
AcDb2dVertex
 10
-159.9316677117532
 20
1193.78139618593
 30
0.0
  0
SEQEND
  5
51E
330
51B
100
AcDbEntity
  8
Layer 1
370
    25
  0
POLYLINE
  5
51F
330
3C
100
AcDbEntity
  8
Layer 1
 62
     7
370
    25
100
AcDb2dPolyline
 66
     1
 10
0.0
 20
0.0
 30
0.0
  0
VERTEX
  5
520
330
51F
100
AcDbEntity
  8
Layer 1
 62
     7
370
    25
100
AcDbVertex
100
AcDb2dVertex
 10
-159.9316677117532
 20
1241.296153118496
 30
0.0
  0
VERTEX
  5
521
330
51F
100
AcDbEntity
  8
Layer 1
 62
     7
370
    25
100
AcDbVertex
100
AcDb2dVertex
 10
-154.6400010464095
 20
1248.351536417513
 30
0.0
  0
SEQEND
  5
522
330
51F
100
AcDbEntity
  8
Layer 1
370
    25
  0
POLYLINE
  5
523
330
3C
100
AcDbEntity
  8
Layer 1
 62
     7
370
    25
100
AcDb2dPolyline
 66
     1
 10
0.0
 20
0.0
 30
0.0
  0
VERTEX
  5
524
330
523
100
AcDbEntity
  8
Layer 1
 62
     7
370
    25
100
AcDbVertex
100
AcDb2dVertex
 10
-154.6400010464095
 20
1248.351536417513
 30
0.0
  0
VERTEX
  5
525
330
523
100
AcDbEntity
  8
Layer 1
 62
     7
370
    25
100
AcDbVertex
100
AcDb2dVertex
 10
-144.0564954609477
 20
1248.351536417513
 30
0.0
  0
SEQEND
  5
526
330
523
100
AcDbEntity
  8
Layer 1
370
    25
  0
POLYLINE
  5
527
330
3C
100
AcDbEntity
  8
Layer 1
 62
     7
370
    25
100
AcDb2dPolyline
 66
     1
 10
0.0
 20
0.0
 30
0.0
  0
VERTEX
  5
528
330
527
100
AcDbEntity
  8
Layer 1
 62
     7
370
    25
100
AcDbVertex
100
AcDb2dVertex
 10
-144.0564954609477
 20
1248.351536417513
 30
0.0
  0
VERTEX
  5
529
330
527
100
AcDbEntity
  8
Layer 1
 62
     7
370
    25
100
AcDbVertex
100
AcDb2dVertex
 10
-138.7648287956039
 20
1241.296153118496
 30
0.0
  0
SEQEND
  5
52A
330
527
100
AcDbEntity
  8
Layer 1
370
    25
  0
POLYLINE
  5
52B
330
3C
100
AcDbEntity
  8
Layer 1
 62
     7
370
    25
100
AcDb2dPolyline
 66
     1
 10
0.0
 20
0.0
 30
0.0
  0
VERTEX
  5
52C
330
52B
100
AcDbEntity
  8
Layer 1
 62
     7
370
    25
100
AcDbVertex
100
AcDb2dVertex
 10
-138.7648287956039
 20
1241.296153118496
 30
0.0
  0
VERTEX
  5
52D
330
52B
100
AcDbEntity
  8
Layer 1
 62
     7
370
    25
100
AcDbVertex
100
AcDb2dVertex
 10
-138.7648287956039
 20
1234.24042530993
 30
0.0
  0
SEQEND
  5
52E
330
52B
100
AcDbEntity
  8
Layer 1
370
    25
  0
POLYLINE
  5
52F
330
3C
100
AcDbEntity
  8
Layer 1
 62
     7
370
    25
100
AcDb2dPolyline
 66
     1
 10
0.0
 20
0.0
 30
0.0
  0
VERTEX
  5
530
330
52F
100
AcDbEntity
  8
Layer 1
 62
     7
370
    25
100
AcDbVertex
100
AcDb2dVertex
 10
-138.7648287956039
 20
1234.24042530993
 30
0.0
  0
VERTEX
  5
531
330
52F
100
AcDbEntity
  8
Layer 1
 62
     7
370
    25
100
AcDbVertex
100
AcDb2dVertex
 10
-144.0564954609477
 20
1227.185042010912
 30
0.0
  0
SEQEND
  5
532
330
52F
100
AcDbEntity
  8
Layer 1
370
    25
  0
POLYLINE
  5
533
330
3C
100
AcDbEntity
  8
Layer 1
 62
     7
370
    25
100
AcDb2dPolyline
 66
     1
 10
0.0
 20
0.0
 30
0.0
  0
VERTEX
  5
534
330
533
100
AcDbEntity
  8
Layer 1
 62
     7
370
    25
100
AcDbVertex
100
AcDb2dVertex
 10
-144.0564954609477
 20
1227.185042010912
 30
0.0
  0
VERTEX
  5
535
330
533
100
AcDbEntity
  8
Layer 1
 62
     7
370
    25
100
AcDbVertex
100
AcDb2dVertex
 10
-154.6400010464095
 20
1227.185042010912
 30
0.0
  0
SEQEND
  5
536
330
533
100
AcDbEntity
  8
Layer 1
370
    25
  0
POLYLINE
  5
537
330
3C
100
AcDbEntity
  8
Layer 1
 62
     7
370
    25
100
AcDb2dPolyline
 66
     1
 10
0.0
 20
0.0
 30
0.0
  0
VERTEX
  5
538
330
537
100
AcDbEntity
  8
Layer 1
 62
     7
370
    25
100
AcDbVertex
100
AcDb2dVertex
 10
-154.6400010464095
 20
1227.185042010912
 30
0.0
  0
VERTEX
  5
539
330
537
100
AcDbEntity
  8
Layer 1
 62
     7
370
    25
100
AcDbVertex
100
AcDb2dVertex
 10
-159.9316677117532
 20
1220.129658711895
 30
0.0
  0
SEQEND
  5
53A
330
537
100
AcDbEntity
  8
Layer 1
370
    25
  0
POLYLINE
  5
53B
330
3C
100
AcDbEntity
  8
Layer 1
 62
     7
370
    25
100
AcDb2dPolyline
 66
     1
 10
0.0
 20
0.0
 30
0.0
  0
VERTEX
  5
53C
330
53B
100
AcDbEntity
  8
Layer 1
 62
     7
370
    25
100
AcDbVertex
100
AcDb2dVertex
 10
-159.9316677117532
 20
1220.129658711895
 30
0.0
  0
VERTEX
  5
53D
330
53B
100
AcDbEntity
  8
Layer 1
 62
     7
370
    25
100
AcDbVertex
100
AcDb2dVertex
 10
-159.9316677117532
 20
1206.018203094763
 30
0.0
  0
SEQEND
  5
53E
330
53B
100
AcDbEntity
  8
Layer 1
370
    25
  0
POLYLINE
  5
53F
330
3C
100
AcDbEntity
  8
Layer 1
 62
     7
370
    25
100
AcDb2dPolyline
 66
     1
 10
0.0
 20
0.0
 30
0.0
  0
VERTEX
  5
540
330
53F
100
AcDbEntity
  8
Layer 1
 62
     7
370
    25
100
AcDbVertex
100
AcDb2dVertex
 10
-159.9316677117532
 20
1206.018203094763
 30
0.0
  0
VERTEX
  5
541
330
53F
100
AcDbEntity
  8
Layer 1
 62
     7
370
    25
100
AcDbVertex
100
AcDb2dVertex
 10
-138.7648287956039
 20
1206.018203094763
 30
0.0
  0
SEQEND
  5
542
330
53F
100
AcDbEntity
  8
Layer 1
370
    25
  0
POLYLINE
  5
543
330
3C
100
AcDbEntity
  8
Layer 1
 62
     7
370
    25
100
AcDb2dPolyline
 66
     1
 10
0.0
 20
0.0
 30
0.0
  0
VERTEX
  5
544
330
543
100
AcDbEntity
  8
Layer 1
 62
     7
370
    25
100
AcDbVertex
100
AcDb2dVertex
 10
-128.181839974465
 20
1213.073930903329
 30
0.0
  0
VERTEX
  5
545
330
543
100
AcDbEntity
  8
Layer 1
 62
     7
370
    25
100
AcDbVertex
100
AcDb2dVertex
 10
-122.890001054347
 20
1206.018203094763
 30
0.0
  0
SEQEND
  5
546
330
543
100
AcDbEntity
  8
Layer 1
370
    25
  0
POLYLINE
  5
547
330
3C
100
AcDbEntity
  8
Layer 1
 62
     7
370
    25
100
AcDb2dPolyline
 66
     1
 10
0.0
 20
0.0
 30
0.0
  0
VERTEX
  5
548
330
547
100
AcDbEntity
  8
Layer 1
 62
     7
370
    25
100
AcDbVertex
100
AcDb2dVertex
 10
-122.890001054347
 20
1206.018203094763
 30
0.0
  0
VERTEX
  5
549
330
547
100
AcDbEntity
  8
Layer 1
 62
     7
370
    25
100
AcDbVertex
100
AcDb2dVertex
 10
-112.3066677236594
 20
1206.018203094763
 30
0.0
  0
SEQEND
  5
54A
330
547
100
AcDbEntity
  8
Layer 1
370
    25
  0
POLYLINE
  5
54B
330
3C
100
AcDbEntity
  8
Layer 1
 62
     7
370
    25
100
AcDb2dPolyline
 66
     1
 10
0.0
 20
0.0
 30
0.0
  0
VERTEX
  5
54C
330
54B
100
AcDbEntity
  8
Layer 1
 62
     7
370
    25
100
AcDbVertex
100
AcDb2dVertex
 10
-112.3066677236594
 20
1206.018203094763
 30
0.0
  0
VERTEX
  5
54D
330
54B
100
AcDbEntity
  8
Layer 1
 62
     7
370
    25
100
AcDbVertex
100
AcDb2dVertex
 10
-107.0153455678642
 20
1213.073930903329
 30
0.0
  0
SEQEND
  5
54E
330
54B
100
AcDbEntity
  8
Layer 1
370
    25
  0
POLYLINE
  5
54F
330
3C
100
AcDbEntity
  8
Layer 1
 62
     7
370
    25
100
AcDb2dPolyline
 66
     1
 10
0.0
 20
0.0
 30
0.0
  0
VERTEX
  5
550
330
54F
100
AcDbEntity
  8
Layer 1
 62
     7
370
    25
100
AcDbVertex
100
AcDb2dVertex
 10
-107.0153455678642
 20
1213.073930903329
 30
0.0
  0
VERTEX
  5
551
330
54F
100
AcDbEntity
  8
Layer 1
 62
     7
370
    25
100
AcDbVertex
100
AcDb2dVertex
 10
-107.0153455678642
 20
1227.185042010912
 30
0.0
  0
SEQEND
  5
552
330
54F
100
AcDbEntity
  8
Layer 1
370
    25
  0
POLYLINE
  5
553
330
3C
100
AcDbEntity
  8
Layer 1
 62
     7
370
    25
100
AcDb2dPolyline
 66
     1
 10
0.0
 20
0.0
 30
0.0
  0
VERTEX
  5
554
330
553
100
AcDbEntity
  8
Layer 1
 62
     7
370
    25
100
AcDbVertex
100
AcDb2dVertex
 10
-107.0153455678642
 20
1227.185042010912
 30
0.0
  0
VERTEX
  5
555
330
553
100
AcDbEntity
  8
Layer 1
 62
     7
370
    25
100
AcDbVertex
100
AcDb2dVertex
 10
-112.3066677236594
 20
1234.24042530993
 30
0.0
  0
SEQEND
  5
556
330
553
100
AcDbEntity
  8
Layer 1
370
    25
  0
POLYLINE
  5
557
330
3C
100
AcDbEntity
  8
Layer 1
 62
     7
370
    25
100
AcDb2dPolyline
 66
     1
 10
0.0
 20
0.0
 30
0.0
  0
VERTEX
  5
558
330
557
100
AcDbEntity
  8
Layer 1
 62
     7
370
    25
100
AcDbVertex
100
AcDb2dVertex
 10
-112.3066677236594
 20
1234.24042530993
 30
0.0
  0
VERTEX
  5
559
330
557
100
AcDbEntity
  8
Layer 1
 62
     7
370
    25
100
AcDbVertex
100
AcDb2dVertex
 10
-128.181839974465
 20
1234.24042530993
 30
0.0
  0
SEQEND
  5
55A
330
557
100
AcDbEntity
  8
Layer 1
370
    25
  0
POLYLINE
  5
55B
330
3C
100
AcDbEntity
  8
Layer 1
 62
     7
370
    25
100
AcDb2dPolyline
 66
     1
 10
0.0
 20
0.0
 30
0.0
  0
VERTEX
  5
55C
330
55B
100
AcDbEntity
  8
Layer 1
 62
     7
370
    25
100
AcDbVertex
100
AcDb2dVertex
 10
-128.181839974465
 20
1234.24042530993
 30
0.0
  0
VERTEX
  5
55D
330
55B
100
AcDbEntity
  8
Layer 1
 62
     7
370
    25
100
AcDbVertex
100
AcDb2dVertex
 10
-128.181839974465
 20
1248.351536417513
 30
0.0
  0
SEQEND
  5
55E
330
55B
100
AcDbEntity
  8
Layer 1
370
    25
  0
POLYLINE
  5
55F
330
3C
100
AcDbEntity
  8
Layer 1
 62
     7
370
    25
100
AcDb2dPolyline
 66
     1
 10
0.0
 20
0.0
 30
0.0
  0
VERTEX
  5
560
330
55F
100
AcDbEntity
  8
Layer 1
 62
     7
370
    25
100
AcDbVertex
100
AcDb2dVertex
 10
-128.181839974465
 20
1248.351536417513
 30
0.0
  0
VERTEX
  5
561
330
55F
100
AcDbEntity
  8
Layer 1
 62
     7
370
    25
100
AcDbVertex
100
AcDb2dVertex
 10
-107.0153455678642
 20
1248.351536417513
 30
0.0
  0
SEQEND
  5
562
330
55F
100
AcDbEntity
  8
Layer 1
370
    25
  0
MTEXT
  5
563
330
3C
100
AcDbEntity
  8
Layer 1
 62
     7
100
AcDbMText
 10
996.3684676328523
 20
39.67303058904007
 30
0.0
 40
9.595555553156668
 41
0.0
 71
     7
 72
     1
  1
\fFrutiger LT Std 55 Roman|b0|i0|c0|p34;\W1;CAD Drawing: PR1190U
 73
     1
 44
1.0
  0
INSERT
  5
565
330
3C
100
AcDbEntity
  8
Layer 1
100
AcDbBlockReference
  2
block 3
 10
0.0
 20
0.0
 30
0.0
  0
ENDBLK
  5
3F
330
3C
100
AcDbEntity
  8
0
100
AcDbBlockEnd
  0
BLOCK
  5
566
330
564
100
AcDbEntity
  8
0
100
AcDbBlockBegin
  2
block 3
 70
     0
 71
     0
 10
0.0
 20
0.0
 30
0.0
  3
block 3
  1

  0
SPLINE
  5
568
330
564
100
AcDbEntity
  8
Layer 1
370
     0
100
AcDbSpline
210
0.0
220
0.0
230
1.0
 70
    11
 71
     3
 72
    38
 73
    34
 74
     0
 42
0.0000000001
 43
0.0000000001
 40
0.0
 40
0.0
 40
0.0
 40
0.0
 40
1.0
 40
1.0
 40
1.0
 40
2.0
 40
2.0
 40
2.0
 40
3.0
 40
3.0
 40
3.0
 40
4.0
 40
4.0
 40
4.0
 40
5.0
 40
5.0
 40
5.0
 40
6.0
 40
6.0
 40
6.0
 40
7.0
 40
7.0
 40
7.0
 40
8.0
 40
8.0
 40
8.0
 40
9.0
 40
9.0
 40
9.0
 40
10.0
 40
10.0
 40
10.0
 40
11.0
 40
11.0
 40
11.0
 40
11.0
 10
1101.496934403445
 20
71.58701712620046
 30
0.0
 10
1101.496934403445
 20
71.58701712620046
 30
0.0
 10
1101.465928544078
 20
71.72172035967374
 30
0.0
 10
1101.465928544078
 20
71.72172035967374
 30
0.0
 10
1101.859358448494
 20
72.46069334125983
 30
0.0
 10
1102.495323075071
 20
72.80072426565398
 30
0.0
 10
1103.301475418619
 20
72.33839245153347
 30
0.0
 10
1104.008409012192
 20
71.9790689924219
 30
0.0
 10
1105.18387559176
 20
72.76696232989855
 30
0.0
 10
1105.923882101991
 20
72.94404023784038
 30
0.0
 10
1108.610367561389
 20
73.95483125321269
 30
0.0
 10
1111.437412916585
 20
74.65177406987873
 30
0.0
 10
1114.156282273544
 20
75.61743433439426
 30
0.0
 10
1114.156282273544
 20
75.61743433439426
 30
0.0
 10
1114.320957837739
 20
75.66394312344512
 30
0.0
 10
1114.515950242204
 20
75.66463214254217
 30
0.0
 10
1115.260090867018
 20
75.67014429531858
 30
0.0
 10
1115.791324590844
 20
74.99318303246699
 30
0.0
 10
1115.142268601423
 20
74.36548663505447
 30
0.0
 10
1114.451182447082
 20
73.69782713001305
 30
0.0
 10
1112.519172898954
 20
73.02947860587457
 30
0.0
 10
1111.626893168274
 20
72.5995306893154
 30
0.0
 10
1111.626893168274
 20
72.5995306893154
 30
0.0
 10
1105.264490826115
 20
70.15592446162769
 30
0.0
 10
1104.715342605766
 20
69.90891111533527
 30
0.0
 10
1104.608544645723
 20
69.86171330718736
 30
0.0
 10
1104.518972163106
 20
69.80521374122925
 30
0.0
 10
1104.432844775975
 20
69.74182398430065
 30
0.0
 10
1104.432844775975
 20
69.74182398430065
 30
0.0
 10
1104.164127328126
 20
69.53821884112239
 30
0.0
 10
1104.164127328126
 20
69.53821884112239
 30
0.0
 10
1102.905289437815
 20
68.6325032380502
 30
0.0
 10
1101.713975419016
 20
70.60826549884099
 30
0.0
 10
1101.496934403445
 20
71.58701712620046
 30
0.0
  0
HATCH
  5
569
330
564
100
AcDbEntity
  8
Layer 1
 62
   254
100
AcDbHatch
 10
0.0
 20
0.0
 30
0.0
210
0.0
220
0.0
230
1.0
  2
SOLID
 70
     1
 71
     0
 91
        1
 92
        1
 93
        2
 72
     4
 94
        3
 73
     0
 74
     0
 95
       38
 96
       34
 40
0.0
 40
0.0
 40
0.0
 40
0.0
 40
0.3527777776895833
 40
0.3527777776895833
 40
0.3527777776895833
 40
0.7055555553791667
 40
0.7055555553791667
 40
0.7055555553791667
 40
1.05833333306875
 40
1.05833333306875
 40
1.05833333306875
 40
1.411111110758333
 40
1.411111110758333
 40
1.411111110758333
 40
1.763888888447917
 40
1.763888888447917
 40
1.763888888447917
 40
2.1166666661375
 40
2.1166666661375
 40
2.1166666661375
 40
2.469444443827083
 40
2.469444443827083
 40
2.469444443827083
 40
2.822222221516667
 40
2.822222221516667
 40
2.822222221516667
 40
3.17499999920625
 40
3.17499999920625
 40
3.17499999920625
 40
3.527777776895833
 40
3.527777776895833
 40
3.527777776895833
 40
3.880555554585417
 40
3.880555554585417
 40
3.880555554585417
 40
3.880555554585417
 10
1101.496934403445
 20
71.58701712620046
 10
1101.496934403445
 20
71.58701712620046
 10
1101.465928544078
 20
71.72172035967374
 10
1101.465928544078
 20
71.72172035967374
 10
1101.859358448494
 20
72.46069334125983
 10
1102.495323075071
 20
72.80072426565398
 10
1103.301475418619
 20
72.33839245153347
 10
1104.008409012192
 20
71.9790689924219
 10
1105.18387559176
 20
72.76696232989855
 10
1105.923882101991
 20
72.94404023784038
 10
1108.610367561389
 20
73.95483125321269
 10
1111.437412916585
 20
74.65177406987873
 10
1114.156282273544
 20
75.61743433439426
 10
1114.156282273544
 20
75.61743433439426
 10
1114.320957837739
 20
75.66394312344512
 10
1114.515950242204
 20
75.66463214254217
 10
1115.260090867018
 20
75.67014429531858
 10
1115.791324590844
 20
74.99318303246699
 10
1115.142268601423
 20
74.36548663505447
 10
1114.451182447082
 20
73.69782713001305
 10
1112.519172898954
 20
73.02947860587457
 10
1111.626893168274
 20
72.5995306893154
 10
1111.626893168274
 20
72.5995306893154
 10
1105.264490826115
 20
70.15592446162769
 10
1104.715342605766
 20
69.90891111533527
 10
1104.608544645723
 20
69.86171330718736
 10
1104.518972163106
 20
69.80521374122925
 10
1104.432844775975
 20
69.74182398430065
 10
1104.432844775975
 20
69.74182398430065
 10
1104.164127328126
 20
69.53821884112239
 10
1104.164127328126
 20
69.53821884112239
 10
1102.905289437815
 20
68.6325032380502
 10
1101.713975419016
 20
70.60826549884099
 10
1101.496934403445
 20
71.58701712620046
 72
     1
 10
1101.496934403445
 20
71.58701712620046
 11
1101.496934403445
 21
71.58701712620046
 97
        0
 75
     2
 76
     1
 98
        0
  0
SPLINE
  5
56A
330
564
100
AcDbEntity
  8
Layer 1
370
     0
100
AcDbSpline
210
0.0
220
0.0
230
1.0
 70
    11
 71
     3
 72
    14
 73
    10
 74
     0
 42
0.0000000001
 43
0.0000000001
 40
0.0
 40
0.0
 40
0.0
 40
0.0
 40
1.0
 40
1.0
 40
1.0
 40
2.0
 40
2.0
 40
2.0
 40
3.0
 40
3.0
 40
3.0
 40
3.0
 10
1074.981412491671
 20
77.10709362221628
 30
0.0
 10
1074.765749514295
 20
74.17462834517163
 30
0.0
 10
1073.562033151748
 20
72.2340060583304
 30
0.0
 10
1072.126806372593
 20
69.81210393219976
 30
0.0
 10
1072.144720869117
 20
72.85377873612684
 30
0.0
 10
1072.558132327347
 20
75.57540416947421
 30
0.0
 10
1074.426752118546
 20
77.54841035387679
 30
0.0
 10
1074.66653076432
 20
77.875349915427
 30
0.0
 10
1075.042046172212
 20
77.81850583992038
 30
0.0
 10
1074.981412491671
 20
77.10709362221628
 30
0.0
  0
SPLINE
  5
56B
330
564
100
AcDbEntity
  8
Layer 1
370
     0
100
AcDbSpline
210
0.0
220
0.0
230
1.0
 70
    11
 71
     3
 72
    14
 73
    10
 74
     0
 42
0.0000000001
 43
0.0000000001
 40
0.0
 40
0.0
 40
0.0
 40
0.0
 40
1.0
 40
1.0
 40
1.0
 40
2.0
 40
2.0
 40
2.0
 40
3.0
 40
3.0
 40
3.0
 40
3.0
 10
1104.213736703113
 20
64.85357800027967
 30
0.0
 10
1104.204090435755
 20
64.6072536730843
 30
0.0
 10
1103.617046165068
 20
63.95854219321176
 30
0.0
 10
1102.56077988929
 20
63.77560762294499
 30
0.0
 10
1102.367854542116
 20
65.01722003582903
 30
0.0
 10
1102.96730115655
 20
65.74241263547412
 30
0.0
 10
1103.554345427237
 20
65.74241263547412
 30
0.0
 10
1104.040103890657
 20
65.74241263547412
 30
0.0
 10
1104.240608447898
 20
65.56016708430441
 30
0.0
 10
1104.213736703113
 20
64.85357800027967
 30
0.0
  0
SPLINE
  5
56C
330
564
100
AcDbEntity
  8
Layer 1
370
     0
100
AcDbSpline
210
0.0
220
0.0
230
1.0
 70
    11
 71
     3
 72
   200
 73
   196
 74
     0
 42
0.0000000001
 43
0.0000000001
 40
0.0
 40
0.0
 40
0.0
 40
0.0
 40
1.0
 40
1.0
 40
1.0
 40
2.0
 40
2.0
 40
2.0
 40
3.0
 40
3.0
 40
3.0
 40
4.0
 40
4.0
 40
4.0
 40
5.0
 40
5.0
 40
5.0
 40
6.0
 40
6.0
 40
6.0
 40
7.0
 40
7.0
 40
7.0
 40
8.0
 40
8.0
 40
8.0
 40
9.0
 40
9.0
 40
9.0
 40
10.0
 40
10.0
 40
10.0
 40
11.0
 40
11.0
 40
11.0
 40
12.0
 40
12.0
 40
12.0
 40
13.0
 40
13.0
 40
13.0
 40
14.0
 40
14.0
 40
14.0
 40
15.0
 40
15.0
 40
15.0
 40
16.0
 40
16.0
 40
16.0
 40
17.0
 40
17.0
 40
17.0
 40
18.0
 40
18.0
 40
18.0
 40
19.0
 40
19.0
 40
19.0
 40
20.0
 40
20.0
 40
20.0
 40
21.0
 40
21.0
 40
21.0
 40
22.0
 40
22.0
 40
22.0
 40
23.0
 40
23.0
 40
23.0
 40
24.0
 40
24.0
 40
24.0
 40
25.0
 40
25.0
 40
25.0
 40
26.0
 40
26.0
 40
26.0
 40
27.0
 40
27.0
 40
27.0
 40
28.0
 40
28.0
 40
28.0
 40
29.0
 40
29.0
 40
29.0
 40
30.0
 40
30.0
 40
30.0
 40
31.0
 40
31.0
 40
31.0
 40
32.0
 40
32.0
 40
32.0
 40
33.0
 40
33.0
 40
33.0
 40
34.0
 40
34.0
 40
34.0
 40
35.0
 40
35.0
 40
35.0
 40
36.0
 40
36.0
 40
36.0
 40
37.0
 40
37.0
 40
37.0
 40
38.0
 40
38.0
 40
38.0
 40
39.0
 40
39.0
 40
39.0
 40
40.0
 40
40.0
 40
40.0
 40
41.0
 40
41.0
 40
41.0
 40
42.0
 40
42.0
 40
42.0
 40
43.0
 40
43.0
 40
43.0
 40
44.0
 40
44.0
 40
44.0
 40
45.0
 40
45.0
 40
45.0
 40
46.0
 40
46.0
 40
46.0
 40
47.0
 40
47.0
 40
47.0
 40
48.0
 40
48.0
 40
48.0
 40
49.0
 40
49.0
 40
49.0
 40
50.0
 40
50.0
 40
50.0
 40
51.0
 40
51.0
 40
51.0
 40
52.0
 40
52.0
 40
52.0
 40
53.0
 40
53.0
 40
53.0
 40
54.0
 40
54.0
 40
54.0
 40
55.0
 40
55.0
 40
55.0
 40
56.0
 40
56.0
 40
56.0
 40
57.0
 40
57.0
 40
57.0
 40
58.0
 40
58.0
 40
58.0
 40
59.0
 40
59.0
 40
59.0
 40
60.0
 40
60.0
 40
60.0
 40
61.0
 40
61.0
 40
61.0
 40
62.0
 40
62.0
 40
62.0
 40
63.0
 40
63.0
 40
63.0
 40
64.0
 40
64.0
 40
64.0
 40
65.0
 40
65.0
 40
65.0
 40
65.0
 10
1112.010676805331
 20
62.26872285769671
 30
0.0
 10
1112.010676805331
 20
62.26872285769671
 30
0.0
 10
1112.239431145551
 20
61.31374238918546
 30
0.0
 10
1112.239431145551
 20
61.31374238918546
 30
0.0
 10
1112.365521640311
 20
60.81833765840653
 30
0.0
 10
1112.510904669789
 20
60.35807290157715
 30
0.0
 10
1112.754128411048
 20
59.9050428452668
 30
0.0
 10
1114.29753118844
 20
57.83970810185952
 30
0.0
 10
1118.237342385371
 20
58.07638616169618
 30
0.0
 10
1120.256168339728
 20
58.70236001136608
 30
0.0
 10
1121.37444633424
 20
59.04997014582779
 30
0.0
 10
1122.448627106541
 20
59.62426756321894
 30
0.0
 10
1123.455973026428
 20
60.22302515855536
 30
0.0
 10
1126.023947201133
 20
58.53492837078294
 30
0.0
 10
1129.267160090947
 20
58.01265189521907
 30
0.0
 10
1132.516574152635
 20
57.99990504192364
 30
0.0
 10
1135.837646200416
 20
57.98750269817674
 30
0.0
 10
1139.228309176998
 20
58.51012368328914
 30
0.0
 10
1142.015391424566
 20
58.91595593145157
 30
0.0
 10
1144.979551580075
 20
59.10612520223736
 30
0.0
 10
1147.342887082956
 20
60.50380044060322
 30
0.0
 10
1150.461387516204
 20
59.83304034962507
 30
0.0
 10
1151.133870154925
 20
60.05766057526336
 30
0.0
 10
1151.663725840556
 20
60.40079208559425
 30
0.0
 10
1151.614116465569
 20
61.23691675986439
 30
0.0
 10
1151.312326101061
 20
61.97692327009605
 30
0.0
 10
1150.894091509152
 20
62.49403210243205
 30
0.0
 10
1150.022482351383
 20
62.56327852168558
 30
0.0
 10
1148.552115598279
 20
61.9307589905937
 30
0.0
 10
1146.892268593485
 20
62.11817218499129
 30
0.0
 10
1145.357134045258
 20
61.74127873890496
 30
0.0
 10
1141.455218898664
 20
60.831773530799
 30
0.0
 10
1137.30112276255
 20
60.47486163852712
 30
0.0
 10
1132.885888388653
 20
60.23577201185078
 30
0.0
 10
1130.148415516074
 20
60.25885415160196
 30
0.0
 10
1126.688161610689
 20
60.30122882607053
 30
0.0
 10
1124.779578711861
 20
62.60840927254235
 30
0.0
 10
1124.568738868163
 20
63.30362954146576
 30
0.0
 10
1125.139246680521
 20
64.2265706219642
 30
0.0
 10
1124.911870378494
 20
65.21496851668238
 30
0.0
 10
1124.555647505319
 20
65.90467663282939
 30
0.0
 10
1123.972048330118
 20
66.361151784625
 30
0.0
 10
1123.12386582165
 20
66.13722057808376
 30
0.0
 10
1121.960801585829
 20
65.29696178923132
 30
0.0
 10
1121.976649025062
 20
63.91031085641826
 30
0.0
 10
1122.080690908716
 20
62.64975041836534
 30
0.0
 10
1120.406374502885
 20
60.48588594407992
 30
0.0
 10
1116.552690693084
 20
59.58258190784741
 30
0.0
 10
1114.902489955649
 20
61.26034340916409
 30
0.0
 10
1114.816362568518
 20
61.5569661304441
 30
0.0
 10
1114.650997985226
 20
62.13918726745132
 30
0.0
 10
1114.819118644906
 20
62.56741263626787
 30
0.0
 10
1114.834277065042
 20
62.61908906854662
 30
0.0
 10
1114.850124504274
 20
62.67524412495619
 30
0.0
 10
1114.857703714341
 20
62.73897839143331
 30
0.0
 10
1114.943831101472
 20
63.38906790949996
 30
0.0
 10
1114.730235181387
 20
63.87620441111429
 30
0.0
 10
1114.135611700633
 20
64.0873887643601
 30
0.0
 10
1113.004931362374
 20
64.5025227703327
 30
0.0
 10
1113.071766214788
 20
65.00998533531
 30
0.0
 10
1112.271126024016
 20
65.71657441933475
 30
0.0
 10
1111.447748203041
 20
66.47483993563824
 30
0.0
 10
1110.488633619947
 20
66.10965981420175
 30
0.0
 10
1109.916747769396
 20
65.35001625970416
 30
0.0
 10
1109.776187873598
 20
63.31603188521266
 30
0.0
 10
1108.339583056249
 20
61.64895017990027
 30
0.0
 10
1106.759662266713
 20
60.55375432513934
 30
0.0
 10
1105.750249289535
 20
60.20476615248354
 30
0.0
 10
1104.485210227351
 20
60.3201768512394
 30
0.0
 10
1103.659076329988
 20
60.88069388668955
 30
0.0
 10
1103.384846729362
 20
61.07017413837829
 30
0.0
 10
1103.288384055775
 20
61.27963594388148
 30
0.0
 10
1103.282871902999
 20
61.4274305401987
 30
0.0
 10
1104.600276416558
 20
61.79812281441158
 30
0.0
 10
1105.781255148902
 20
62.69384764057654
 30
0.0
 10
1106.455804844914
 20
63.92443574790779
 30
0.0
 10
1107.254377978395
 20
66.06728513973319
 30
0.0
 10
1105.705463048226
 20
68.35448403239054
 30
0.0
 10
1103.324902067919
 20
68.02237682761246
 30
0.0
 10
1101.129687224718
 20
67.71507431032818
 30
0.0
 10
1100.047238223252
 20
66.1654703610628
 30
0.0
 10
1100.151280106907
 20
63.49517685044565
 30
0.0
 10
1098.944118648875
 20
63.5454752445303
 30
0.0
 10
1097.862358666507
 20
63.94717337811043
 30
0.0
 10
1096.740635576509
 20
64.39848088667816
 30
0.0
 10
1095.778764917028
 20
64.78708765741435
 30
0.0
 10
1095.606510142765
 20
65.69004718409832
 30
0.0
 10
1094.205734318462
 20
65.42856443676786
 30
0.0
 10
1093.10399278228
 20
64.26343314365637
 30
0.0
 10
1093.876383190073
 20
63.49793292683385
 30
0.0
 10
1094.598475203781
 20
62.57774792272362
 30
0.0
 10
1095.321945255683
 20
61.65997448545306
 30
0.0
 10
1095.288872339025
 20
60.28331432954723
 30
0.0
 10
1094.143033580631
 20
59.63288030193206
 30
0.0
 10
1092.500412053264
 20
59.24358451209883
 30
0.0
 10
1091.126507973746
 20
60.68156736764211
 30
0.0
 10
1090.127430283024
 20
61.74747991077841
 30
0.0
 10
1090.140521645868
 20
62.383100027807
 30
0.0
 10
1090.159125161488
 20
63.61678872107498
 30
0.0
 10
1089.995827635487
 20
64.16042478864739
 30
0.0
 10
1089.67061062168
 20
65.25148652882602
 30
0.0
 10
1088.965744085398
 20
66.18820799126546
 30
0.0
 10
1087.671766221138
 20
65.7558485078666
 30
0.0
 10
1086.863546820298
 20
64.68097871646864
 30
0.0
 10
1087.172916394873
 20
63.39354653363078
 30
0.0
 10
1087.615955674277
 20
62.29697264067576
 30
0.0
 10
1087.254220648325
 20
61.17387151248431
 30
0.0
 10
1086.719541829015
 20
60.07867565772339
 30
0.0
 10
1085.670854763305
 20
59.52194822730701
 30
0.0
 10
1084.451979980623
 20
59.23152667790045
 30
0.0
 10
1082.329801161709
 20
59.52298175595259
 30
0.0
 10
1081.451990832068
 20
61.69890406443639
 30
0.0
 10
1081.502289226152
 20
61.98794757564885
 30
0.0
 10
1081.63595893098
 20
62.81029186797799
 30
0.0
 10
1081.637336969174
 20
63.64848359953927
 30
0.0
 10
1081.638715007368
 20
64.1659369414238
 30
0.0
 10
1081.590483670575
 20
64.72576495777689
 30
0.0
 10
1081.423741049088
 20
65.1822401095725
 30
0.0
 10
1080.878037924225
 20
66.66535371597256
 30
0.0
 10
1078.653884278948
 20
66.64985078628892
 30
0.0
 10
1078.655262317142
 20
64.09910208900995
 30
0.0
 10
1078.655262317142
 20
63.4889756785722
 30
0.0
 10
1078.746212837952
 20
62.87712672039184
 30
0.0
 10
1078.888839791042
 20
62.28594833512296
 30
0.0
 10
1078.00413927043
 20
60.46866046665367
 30
0.0
 10
1076.183061796926
 20
60.10382485476571
 30
0.0
 10
1074.904242352802
 20
60.34842663421845
 30
0.0
 10
1073.026665313341
 20
61.30650768866643
 30
0.0
 10
1072.420328507937
 20
63.34910480187106
 30
0.0
 10
1072.155056155572
 20
65.45199108606757
 30
0.0
 10
1073.49864339482
 20
67.30407441893787
 30
0.0
 10
1074.63139079037
 20
68.92671439249055
 30
0.0
 10
1075.803412274452
 20
71.18084036848951
 30
0.0
 10
1077.148377551893
 20
73.67956812394122
 30
0.0
 10
1077.669275989263
 20
74.70138344486632
 30
0.0
 10
1077.774006892015
 20
77.7816433182282
 30
0.0
 10
1077.45292399279
 20
81.57676050477943
 30
0.0
 10
1072.784819610276
 20
80.49293346511982
 30
0.0
 10
1071.789187015039
 20
78.48168672083096
 30
0.0
 10
1069.411382111119
 20
74.75650497263032
 30
0.0
 10
1069.001415748375
 20
69.75009221346525
 30
0.0
 10
1069.420339359381
 20
65.51296927615648
 30
0.0
 10
1068.953873430678
 20
64.63653698470893
 30
0.0
 10
1068.25038493259
 20
63.96336532689111
 30
0.0
 10
1067.557231720958
 20
63.27021211525884
 30
0.0
 10
1066.917821998896
 20
62.71968585671591
 30
0.0
 10
1066.394167485138
 20
62.57085773175312
 30
0.0
 10
1066.020719134537
 20
61.71647405141116
 30
0.0
 10
1066.20675429074
 20
61.37161999333765
 30
0.0
 10
1066.261186799407
 20
61.31684297512218
 30
0.0
 10
1066.702848040616
 20
61.05053709411237
 30
0.0
 10
1068.062971738193
 20
60.63333603084861
 30
0.0
 10
1068.871880158129
 20
61.46222600459972
 30
0.0
 10
1069.738666182218
 20
62.29318303564199
 30
0.0
 10
1069.738666182218
 20
62.29318303564199
 30
0.0
 10
1070.116248647402
 20
62.64458277513747
 30
0.0
 10
1070.116248647402
 20
62.64458277513747
 30
0.0
 10
1071.012662492664
 20
60.76803926432189
 30
0.0
 10
1072.381743438502
 20
58.61451007649221
 30
0.0
 10
1074.587982587256
 20
58.00093857056921
 30
0.0
 10
1075.866802031381
 20
57.78630912183814
 30
0.0
 10
1077.415716961549
 20
57.79457735100275
 30
0.0
 10
1078.57395806369
 20
58.51804740290521
 30
0.0
 10
1078.57395806369
 20
58.51804740290521
 30
0.0
 10
1080.279969347986
 20
59.61358776721466
 30
0.0
 10
1080.279969347986
 20
59.61358776721466
 30
0.0
 10
1081.520892741773
 20
58.15011120508053
 30
0.0
 10
1083.131819390675
 20
56.97395560641623
 30
0.0
 10
1085.258132324172
 20
57.17411565410925
 30
0.0
 10
1086.660286186668
 20
57.23474933464965
 30
0.0
 10
1087.769606932919
 20
58.23348251582357
 30
0.0
 10
1088.665331759084
 20
59.20362140446993
 30
0.0
 10
1088.665331759084
 20
59.20362140446993
 30
0.0
 10
1089.18002902458
 20
59.77860784095813
 30
0.0
 10
1089.18002902458
 20
59.77860784095813
 30
0.0
 10
1090.560134275971
 20
58.32718911302237
 30
0.0
 10
1092.167615829389
 20
56.97430011596476
 30
0.0
 10
1094.57298149719
 20
57.41975096220757
 30
0.0
 10
1096.047482364877
 20
57.61026474254188
 30
0.0
 10
1096.832275116417
 20
58.42434080570641
 30
0.0
 10
1097.408295081551
 20
59.71452906493248
 30
0.0
 10
1097.679768605788
 20
60.34601506737878
 30
0.0
 10
1097.601220428725
 20
61.03468965488022
 30
0.0
 10
1097.533007538117
 20
61.69373642120851
 30
0.0
 10
1098.535530324325
 20
61.43535425981477
 30
0.0
 10
1099.575260141773
 20
61.22141383018076
 30
0.0
 10
1100.610855844639
 20
61.18213974164891
 30
0.0
 10
1100.965011660523
 20
60.26643336166951
 30
0.0
 10
1101.591330019741
 20
59.20293238537288
 30
0.0
 10
1102.514615609788
 20
58.77746309294452
 30
0.0
 10
1104.51346001033
 20
57.85658906973725
 30
0.0
 10
1104.626459142246
 20
58.00817327108824
 30
0.0
 10
1106.506103238999
 20
58.10773653061196
 30
0.0
 10
1108.905267734927
 20
58.55318737685476
 30
0.0
 10
1110.66777858518
 20
60.42697481128215
 30
0.0
 10
1112.010676805331
 20
62.26872285769671
 30
0.0
  0
SPLINE
  5
56D
330
564
100
AcDbEntity
  8
Layer 1
370
     0
100
AcDbSpline
210
0.0
220
0.0
230
1.0
 70
    11
 71
     3
 72
    53
 73
    49
 74
     0
 42
0.0000000001
 43
0.0000000001
 40
0.0
 40
0.0
 40
0.0
 40
0.0
 40
1.0
 40
1.0
 40
1.0
 40
2.0
 40
2.0
 40
2.0
 40
3.0
 40
3.0
 40
3.0
 40
4.0
 40
4.0
 40
4.0
 40
5.0
 40
5.0
 40
5.0
 40
6.0
 40
6.0
 40
6.0
 40
7.0
 40
7.0
 40
7.0
 40
8.0
 40
8.0
 40
8.0
 40
9.0
 40
9.0
 40
9.0
 40
10.0
 40
10.0
 40
10.0
 40
11.0
 40
11.0
 40
11.0
 40
12.0
 40
12.0
 40
12.0
 40
13.0
 40
13.0
 40
13.0
 40
14.0
 40
14.0
 40
14.0
 40
15.0
 40
15.0
 40
15.0
 40
16.0
 40
16.0
 40
16.0
 40
16.0
 10
1053.438541403307
 20
75.63431530227199
 30
0.0
 10
1053.438541403307
 20
75.63431530227199
 30
0.0
 10
1052.929356290587
 20
76.10525985510563
 30
0.0
 10
1052.929356290587
 20
76.10525985510563
 30
0.0
 10
1052.929356290587
 20
76.10525985510563
 30
0.0
 10
1053.419937887687
 20
76.34228242449082
 30
0.0
 10
1053.419937887687
 20
76.34228242449082
 30
0.0
 10
1054.190950257286
 20
76.58964028033176
 30
0.0
 10
1055.027419441104
 20
76.65130748951773
 30
0.0
 10
1055.419471307326
 20
75.75627168244982
 30
0.0
 10
1055.515244961816
 20
74.97113442136138
 30
0.0
 10
1055.187960890717
 20
74.497089282591
 30
0.0
 10
1054.631922479398
 20
74.00788572368553
 30
0.0
 10
1053.435096307822
 20
73.89902070635164
 30
0.0
 10
1052.633078078856
 20
72.79624564152316
 30
0.0
 10
1051.893071568624
 20
71.96976723461172
 30
0.0
 10
1051.039376907379
 20
69.9574869616773
 30
0.0
 10
1051.74217638637
 20
67.53971895012896
 30
0.0
 10
1052.160410978279
 20
65.51296927615648
 30
0.0
 10
1052.160410978279
 20
65.51296927615648
 30
0.0
 10
1052.416037063285
 20
65.26423338212145
 30
0.0
 10
1052.416037063285
 20
65.26423338212145
 30
0.0
 10
1052.876990839211
 20
64.80775823032585
 30
0.0
 10
1053.251817228007
 20
64.32199976690562
 30
0.0
 10
1053.218744311348
 20
63.62505695023957
 30
0.0
 10
1052.779839146527
 20
62.4451117465415
 30
0.0
 10
1050.437863235655
 20
61.87115883869888
 30
0.0
 10
1050.188438322522
 20
63.75493705003349
 30
0.0
 10
1049.764691577837
 20
64.5025227703327
 30
0.0
 10
1049.594503860865
 20
65.04512530925956
 30
0.0
 10
1049.485638843531
 20
65.5987521537392
 30
0.0
 10
1049.485638843531
 20
65.5987521537392
 30
0.0
 10
1049.409157723759
 20
66.03559026126888
 30
0.0
 10
1049.409157723759
 20
66.03559026126888
 30
0.0
 10
1049.265152732475
 20
64.94418401154174
 30
0.0
 10
1049.440163583126
 20
63.67328828703307
 30
0.0
 10
1049.622753643844
 20
62.6008300624748
 30
0.0
 10
1049.998958070834
 20
61.18076170345481
 30
0.0
 10
1050.978743226839
 20
60.09624564469816
 30
0.0
 10
1052.382964146627
 20
59.52608234188931
 30
0.0
 10
1055.601372348947
 20
58.76299369190647
 30
0.0
 10
1058.25616292988
 20
60.96165363059292
 30
0.0
 10
1060.092398823519
 20
63.34049206315794
 30
0.0
 10
1062.984211973837
 20
67.47012802132691
 30
0.0
 10
1065.552186148543
 20
72.6477620261089
 30
0.0
 10
1063.215722390446
 20
77.65038518024018
 30
0.0
 10
1060.427262104685
 20
81.13957788770122
 30
0.0
 10
1054.957139493205
 20
79.5190049714397
 30
0.0
 10
1053.438541403307
 20
75.63431530227199
 30
0.0
  0
SPLINE
  5
56E
330
564
100
AcDbEntity
  8
Layer 1
370
     0
100
AcDbSpline
210
0.0
220
0.0
230
1.0
 70
    11
 71
     3
 72
    23
 73
    19
 74
     0
 42
0.0000000001
 43
0.0000000001
 40
0.0
 40
0.0
 40
0.0
 40
0.0
 40
1.0
 40
1.0
 40
1.0
 40
2.0
 40
2.0
 40
2.0
 40
3.0
 40
3.0
 40
3.0
 40
4.0
 40
4.0
 40
4.0
 40
5.0
 40
5.0
 40
5.0
 40
6.0
 40
6.0
 40
6.0
 40
6.0
 10
1062.098133415031
 20
61.63379175976517
 30
0.0
 10
1059.833327643028
 20
58.55835502008264
 30
0.0
 10
1056.143630378325
 20
56.50886771590751
 30
0.0
 10
1052.194861933132
 20
57.06490612722683
 30
0.0
 10
1049.41122478105
 20
57.8062906756526
 30
0.0
 10
1047.609439842264
 20
60.51069063157372
 30
0.0
 10
1047.149175085435
 20
63.17030434618659
 30
0.0
 10
1046.588313540436
 20
66.64709470990073
 30
0.0
 10
1047.530891665201
 20
69.81348197039385
 30
0.0
 10
1049.367127558839
 20
72.43072101053815
 30
0.0
 10
1049.917653817382
 20
76.23238387851136
 30
0.0
 10
1052.079795743924
 20
79.8831515642306
 30
0.0
 10
1055.85286431937
 20
81.5612575750958
 30
0.0
 10
1058.205175516699
 20
82.41943086047154
 30
0.0
 10
1063.472037494549
 20
82.79735783520344
 30
0.0
 10
1065.256596955908
 20
78.9398844203692
 30
0.0
 10
1068.496364750237
 20
72.96505532030041
 30
0.0
 10
1065.247639707646
 20
66.40490449728766
 30
0.0
 10
1062.098133415031
 20
61.63379175976517
 30
0.0
  0
SPLINE
  5
56F
330
564
100
AcDbEntity
  8
Layer 1
370
     0
100
AcDbSpline
210
0.0
220
0.0
230
1.0
 70
    11
 71
     3
 72
    17
 73
    13
 74
     0
 42
0.0000000001
 43
0.0000000001
 40
0.0
 40
0.0
 40
0.0
 40
0.0
 40
1.0
 40
1.0
 40
1.0
 40
2.0
 40
2.0
 40
2.0
 40
3.0
 40
3.0
 40
3.0
 40
4.0
 40
4.0
 40
4.0
 40
4.0
 10
1124.681048980982
 20
68.6738443838732
 30
0.0
 10
1124.834011220528
 20
69.13893227438194
 30
0.0
 10
1124.78440184554
 20
69.75801593308134
 30
0.0
 10
1124.506038130332
 20
70.1862413018979
 30
0.0
 10
1123.90383543951
 20
70.94416230865285
 30
0.0
 10
1122.743527280078
 20
71.48263073299741
 30
0.0
 10
1122.023502323661
 20
70.48940970459988
 30
0.0
 10
1121.661078278613
 20
69.60298663624509
 30
0.0
 10
1121.93255180285
 20
68.7206976824726
 30
0.0
 10
1122.644308530103
 20
68.11229381977749
 30
0.0
 10
1123.400851498664
 20
67.93108179725334
 30
0.0
 10
1124.262814389073
 20
67.7498697747292
 30
0.0
 10
1124.681048980982
 20
68.6738443838732
 30
0.0
  0
SPLINE
  5
570
330
564
100
AcDbEntity
  8
Layer 1
370
     0
100
AcDbSpline
210
0.0
220
0.0
230
1.0
 70
    11
 71
     3
 72
    17
 73
    13
 74
     0
 42
0.0000000001
 43
0.0000000001
 40
0.0
 40
0.0
 40
0.0
 40
0.0
 40
1.0
 40
1.0
 40
1.0
 40
2.0
 40
2.0
 40
2.0
 40
3.0
 40
3.0
 40
3.0
 40
4.0
 40
4.0
 40
4.0
 40
4.0
 10
1081.242529026564
 20
70.09356823334467
 30
0.0
 10
1080.853233236731
 20
69.53546276473419
 30
0.0
 10
1079.892051596346
 20
69.53408472654009
 30
0.0
 10
1079.395268827373
 20
69.73700085062131
 30
0.0
 10
1078.67662190915
 20
70.03017847641607
 30
0.0
 10
1077.993803983974
 20
70.97826875395683
 30
0.0
 10
1078.52021457412
 20
71.8950086625818
 30
0.0
 10
1079.107947863904
 20
72.918202021701
 30
0.0
 10
1080.327511665682
 20
72.63708223010462
 30
0.0
 10
1080.957275120386
 20
72.12410751235092
 30
0.0
 10
1081.352083062995
 20
71.80302461312563
 30
0.0
 10
1081.768250597614
 20
70.84528806822618
 30
0.0
 10
1081.242529026564
 20
70.09356823334467
 30
0.0
  0
HATCH
  5
571
330
564
100
AcDbEntity
  8
Layer 1
 62
   152
100
AcDbHatch
 10
0.0
 20
0.0
 30
0.0
210
0.0
220
0.0
230
1.0
  2
SOLID
 70
     1
 71
     0
 91
        7
 92
        1
 93
        2
 72
     4
 94
        3
 73
     0
 74
     0
 95
       14
 96
       10
 40
0.0
 40
0.0
 40
0.0
 40
0.0
 40
0.3527777776895833
 40
0.3527777776895833
 40
0.3527777776895833
 40
0.7055555553791667
 40
0.7055555553791667
 40
0.7055555553791667
 40
1.05833333306875
 40
1.05833333306875
 40
1.05833333306875
 40
1.05833333306875
 10
1074.981412491671
 20
77.10709362221628
 10
1074.765749514295
 20
74.17462834517163
 10
1073.562033151748
 20
72.2340060583304
 10
1072.126806372593
 20
69.81210393219976
 10
1072.144720869117
 20
72.85377873612684
 10
1072.558132327347
 20
75.57540416947421
 10
1074.426752118546
 20
77.54841035387679
 10
1074.66653076432
 20
77.875349915427
 10
1075.042046172212
 20
77.81850583992038
 10
1074.981412491671
 20
77.10709362221628
 72
     1
 10
1074.981412491671
 20
77.10709362221628
 11
1074.981412491671
 21
77.10709362221628
 97
        0
 92
        1
 93
        2
 72
     4
 94
        3
 73
     0
 74
     0
 95
       14
 96
       10
 40
0.0
 40
0.0
 40
0.0
 40
0.0
 40
0.3527777776895833
 40
0.3527777776895833
 40
0.3527777776895833
 40
0.7055555553791667
 40
0.7055555553791667
 40
0.7055555553791667
 40
1.05833333306875
 40
1.05833333306875
 40
1.05833333306875
 40
1.05833333306875
 10
1104.213736703113
 20
64.85357800027967
 10
1104.204090435755
 20
64.6072536730843
 10
1103.617046165068
 20
63.95854219321176
 10
1102.56077988929
 20
63.77560762294499
 10
1102.367854542116
 20
65.01722003582903
 10
1102.96730115655
 20
65.74241263547412
 10
1103.554345427237
 20
65.74241263547412
 10
1104.040103890657
 20
65.74241263547412
 10
1104.240608447898
 20
65.56016708430441
 10
1104.213736703113
 20
64.85357800027967
 72
     1
 10
1104.213736703113
 20
64.85357800027967
 11
1104.213736703113
 21
64.85357800027967
 97
        0
 92
        1
 93
        2
 72
     4
 94
        3
 73
     0
 74
     0
 95
      200
 96
      196
 40
0.0
 40
0.0
 40
0.0
 40
0.0
 40
0.3527777776895833
 40
0.3527777776895833
 40
0.3527777776895833
 40
0.7055555553791667
 40
0.7055555553791667
 40
0.7055555553791667
 40
1.05833333306875
 40
1.05833333306875
 40
1.05833333306875
 40
1.411111110758333
 40
1.411111110758333
 40
1.411111110758333
 40
1.763888888447917
 40
1.763888888447917
 40
1.763888888447917
 40
2.1166666661375
 40
2.1166666661375
 40
2.1166666661375
 40
2.469444443827083
 40
2.469444443827083
 40
2.469444443827083
 40
2.822222221516667
 40
2.822222221516667
 40
2.822222221516667
 40
3.17499999920625
 40
3.17499999920625
 40
3.17499999920625
 40
3.527777776895833
 40
3.527777776895833
 40
3.527777776895833
 40
3.880555554585417
 40
3.880555554585417
 40
3.880555554585417
 40
4.233333332275
 40
4.233333332275
 40
4.233333332275
 40
4.586111109964584
 40
4.586111109964584
 40
4.586111109964584
 40
4.938888887654167
 40
4.938888887654167
 40
4.938888887654167
 40
5.29166666534375
 40
5.29166666534375
 40
5.29166666534375
 40
5.644444443033334
 40
5.644444443033334
 40
5.644444443033334
 40
5.997222220722917
 40
5.997222220722917
 40
5.997222220722917
 40
6.349999998412501
 40
6.349999998412501
 40
6.349999998412501
 40
6.702777776102083
 40
6.702777776102083
 40
6.702777776102083
 40
7.055555553791667
 40
7.055555553791667
 40
7.055555553791667
 40
7.40833333148125
 40
7.40833333148125
 40
7.40833333148125
 40
7.761111109170834
 40
7.761111109170834
 40
7.761111109170834
 40
8.113888886860417
 40
8.113888886860417
 40
8.113888886860417
 40
8.46666666455
 40
8.46666666455
 40
8.46666666455
 40
8.819444442239584
 40
8.819444442239584
 40
8.819444442239584
 40
9.172222219929168
 40
9.172222219929168
 40
9.172222219929168
 40
9.52499999761875
 40
9.52499999761875
 40
9.52499999761875
 40
9.877777775308333
 40
9.877777775308333
 40
9.877777775308333
 40
10.23055555299792
 40
10.23055555299792
 40
10.23055555299792
 40
10.5833333306875
 40
10.5833333306875
 40
10.5833333306875
 40
10.93611110837708
 40
10.93611110837708
 40
10.93611110837708
 40
11.28888888606667
 40
11.28888888606667
 40
11.28888888606667
 40
11.64166666375625
 40
11.64166666375625
 40
11.64166666375625
 40
11.99444444144583
 40
11.99444444144583
 40
11.99444444144583
 40
12.34722221913542
 40
12.34722221913542
 40
12.34722221913542
 40
12.699999996825
 40
12.699999996825
 40
12.699999996825
 40
13.05277777451458
 40
13.05277777451458
 40
13.05277777451458
 40
13.40555555220417
 40
13.40555555220417
 40
13.40555555220417
 40
13.75833332989375
 40
13.75833332989375
 40
13.75833332989375
 40
14.11111110758333
 40
14.11111110758333
 40
14.11111110758333
 40
14.46388888527292
 40
14.46388888527292
 40
14.46388888527292
 40
14.8166666629625
 40
14.8166666629625
 40
14.8166666629625
 40
15.16944444065208
 40
15.16944444065208
 40
15.16944444065208
 40
15.52222221834167
 40
15.52222221834167
 40
15.52222221834167
 40
15.87499999603125
 40
15.87499999603125
 40
15.87499999603125
 40
16.22777777372083
 40
16.22777777372083
 40
16.22777777372083
 40
16.58055555141042
 40
16.58055555141042
 40
16.58055555141042
 40
16.9333333291
 40
16.9333333291
 40
16.9333333291
 40
17.28611110678958
 40
17.28611110678958
 40
17.28611110678958
 40
17.63888888447917
 40
17.63888888447917
 40
17.63888888447917
 40
17.99166666216875
 40
17.99166666216875
 40
17.99166666216875
 40
18.34444443985834
 40
18.34444443985834
 40
18.34444443985834
 40
18.69722221754792
 40
18.69722221754792
 40
18.69722221754792
 40
19.0499999952375
 40
19.0499999952375
 40
19.0499999952375
 40
19.40277777292708
 40
19.40277777292708
 40
19.40277777292708
 40
19.75555555061667
 40
19.75555555061667
 40
19.75555555061667
 40
20.10833332830625
 40
20.10833332830625
 40
20.10833332830625
 40
20.46111110599583
 40
20.46111110599583
 40
20.46111110599583
 40
20.81388888368542
 40
20.81388888368542
 40
20.81388888368542
 40
21.166666661375
 40
21.166666661375
 40
21.166666661375
 40
21.51944443906459
 40
21.51944443906459
 40
21.51944443906459
 40
21.87222221675417
 40
21.87222221675417
 40
21.87222221675417
 40
22.22499999444375
 40
22.22499999444375
 40
22.22499999444375
 40
22.57777777213333
 40
22.57777777213333
 40
22.57777777213333
 40
22.93055554982292
 40
22.93055554982292
 40
22.93055554982292
 40
22.93055554982292
 10
1112.010676805331
 20
62.26872285769671
 10
1112.010676805331
 20
62.26872285769671
 10
1112.239431145551
 20
61.31374238918546
 10
1112.239431145551
 20
61.31374238918546
 10
1112.365521640311
 20
60.81833765840653
 10
1112.510904669789
 20
60.35807290157715
 10
1112.754128411048
 20
59.9050428452668
 10
1114.29753118844
 20
57.83970810185952
 10
1118.237342385371
 20
58.07638616169618
 10
1120.256168339728
 20
58.70236001136608
 10
1121.37444633424
 20
59.04997014582779
 10
1122.448627106541
 20
59.62426756321894
 10
1123.455973026428
 20
60.22302515855536
 10
1126.023947201133
 20
58.53492837078294
 10
1129.267160090947
 20
58.01265189521907
 10
1132.516574152635
 20
57.99990504192364
 10
1135.837646200416
 20
57.98750269817674
 10
1139.228309176998
 20
58.51012368328914
 10
1142.015391424566
 20
58.91595593145157
 10
1144.979551580075
 20
59.10612520223736
 10
1147.342887082956
 20
60.50380044060322
 10
1150.461387516204
 20
59.83304034962507
 10
1151.133870154925
 20
60.05766057526336
 10
1151.663725840556
 20
60.40079208559425
 10
1151.614116465569
 20
61.23691675986439
 10
1151.312326101061
 20
61.97692327009605
 10
1150.894091509152
 20
62.49403210243205
 10
1150.022482351383
 20
62.56327852168558
 10
1148.552115598279
 20
61.9307589905937
 10
1146.892268593485
 20
62.11817218499129
 10
1145.357134045258
 20
61.74127873890496
 10
1141.455218898664
 20
60.831773530799
 10
1137.30112276255
 20
60.47486163852712
 10
1132.885888388653
 20
60.23577201185078
 10
1130.148415516074
 20
60.25885415160196
 10
1126.688161610689
 20
60.30122882607053
 10
1124.779578711861
 20
62.60840927254235
 10
1124.568738868163
 20
63.30362954146576
 10
1125.139246680521
 20
64.2265706219642
 10
1124.911870378494
 20
65.21496851668238
 10
1124.555647505319
 20
65.90467663282939
 10
1123.972048330118
 20
66.361151784625
 10
1123.12386582165
 20
66.13722057808376
 10
1121.960801585829
 20
65.29696178923132
 10
1121.976649025062
 20
63.91031085641826
 10
1122.080690908716
 20
62.64975041836534
 10
1120.406374502885
 20
60.48588594407992
 10
1116.552690693084
 20
59.58258190784741
 10
1114.902489955649
 20
61.26034340916409
 10
1114.816362568518
 20
61.5569661304441
 10
1114.650997985226
 20
62.13918726745132
 10
1114.819118644906
 20
62.56741263626787
 10
1114.834277065042
 20
62.61908906854662
 10
1114.850124504274
 20
62.67524412495619
 10
1114.857703714341
 20
62.73897839143331
 10
1114.943831101472
 20
63.38906790949996
 10
1114.730235181387
 20
63.87620441111429
 10
1114.135611700633
 20
64.0873887643601
 10
1113.004931362374
 20
64.5025227703327
 10
1113.071766214788
 20
65.00998533531
 10
1112.271126024016
 20
65.71657441933475
 10
1111.447748203041
 20
66.47483993563824
 10
1110.488633619947
 20
66.10965981420175
 10
1109.916747769396
 20
65.35001625970416
 10
1109.776187873598
 20
63.31603188521266
 10
1108.339583056249
 20
61.64895017990027
 10
1106.759662266713
 20
60.55375432513934
 10
1105.750249289535
 20
60.20476615248354
 10
1104.485210227351
 20
60.3201768512394
 10
1103.659076329988
 20
60.88069388668955
 10
1103.384846729362
 20
61.07017413837829
 10
1103.288384055775
 20
61.27963594388148
 10
1103.282871902999
 20
61.4274305401987
 10
1104.600276416558
 20
61.79812281441158
 10
1105.781255148902
 20
62.69384764057654
 10
1106.455804844914
 20
63.92443574790779
 10
1107.254377978395
 20
66.06728513973319
 10
1105.705463048226
 20
68.35448403239054
 10
1103.324902067919
 20
68.02237682761246
 10
1101.129687224718
 20
67.71507431032818
 10
1100.047238223252
 20
66.1654703610628
 10
1100.151280106907
 20
63.49517685044565
 10
1098.944118648875
 20
63.5454752445303
 10
1097.862358666507
 20
63.94717337811043
 10
1096.740635576509
 20
64.39848088667816
 10
1095.778764917028
 20
64.78708765741435
 10
1095.606510142765
 20
65.69004718409832
 10
1094.205734318462
 20
65.42856443676786
 10
1093.10399278228
 20
64.26343314365637
 10
1093.876383190073
 20
63.49793292683385
 10
1094.598475203781
 20
62.57774792272362
 10
1095.321945255683
 20
61.65997448545306
 10
1095.288872339025
 20
60.28331432954723
 10
1094.143033580631
 20
59.63288030193206
 10
1092.500412053264
 20
59.24358451209883
 10
1091.126507973746
 20
60.68156736764211
 10
1090.127430283024
 20
61.74747991077841
 10
1090.140521645868
 20
62.383100027807
 10
1090.159125161488
 20
63.61678872107498
 10
1089.995827635487
 20
64.16042478864739
 10
1089.67061062168
 20
65.25148652882602
 10
1088.965744085398
 20
66.18820799126546
 10
1087.671766221138
 20
65.7558485078666
 10
1086.863546820298
 20
64.68097871646864
 10
1087.172916394873
 20
63.39354653363078
 10
1087.615955674277
 20
62.29697264067576
 10
1087.254220648325
 20
61.17387151248431
 10
1086.719541829015
 20
60.07867565772339
 10
1085.670854763305
 20
59.52194822730701
 10
1084.451979980623
 20
59.23152667790045
 10
1082.329801161709
 20
59.52298175595259
 10
1081.451990832068
 20
61.69890406443639
 10
1081.502289226152
 20
61.98794757564885
 10
1081.63595893098
 20
62.81029186797799
 10
1081.637336969174
 20
63.64848359953927
 10
1081.638715007368
 20
64.1659369414238
 10
1081.590483670575
 20
64.72576495777689
 10
1081.423741049088
 20
65.1822401095725
 10
1080.878037924225
 20
66.66535371597256
 10
1078.653884278948
 20
66.64985078628892
 10
1078.655262317142
 20
64.09910208900995
 10
1078.655262317142
 20
63.4889756785722
 10
1078.746212837952
 20
62.87712672039184
 10
1078.888839791042
 20
62.28594833512296
 10
1078.00413927043
 20
60.46866046665367
 10
1076.183061796926
 20
60.10382485476571
 10
1074.904242352802
 20
60.34842663421845
 10
1073.026665313341
 20
61.30650768866643
 10
1072.420328507937
 20
63.34910480187106
 10
1072.155056155572
 20
65.45199108606757
 10
1073.49864339482
 20
67.30407441893787
 10
1074.63139079037
 20
68.92671439249055
 10
1075.803412274452
 20
71.18084036848951
 10
1077.148377551893
 20
73.67956812394122
 10
1077.669275989263
 20
74.70138344486632
 10
1077.774006892015
 20
77.7816433182282
 10
1077.45292399279
 20
81.57676050477943
 10
1072.784819610276
 20
80.49293346511982
 10
1071.789187015039
 20
78.48168672083096
 10
1069.411382111119
 20
74.75650497263032
 10
1069.001415748375
 20
69.75009221346525
 10
1069.420339359381
 20
65.51296927615648
 10
1068.953873430678
 20
64.63653698470893
 10
1068.25038493259
 20
63.96336532689111
 10
1067.557231720958
 20
63.27021211525884
 10
1066.917821998896
 20
62.71968585671591
 10
1066.394167485138
 20
62.57085773175312
 10
1066.020719134537
 20
61.71647405141116
 10
1066.20675429074
 20
61.37161999333765
 10
1066.261186799407
 20
61.31684297512218
 10
1066.702848040616
 20
61.05053709411237
 10
1068.062971738193
 20
60.63333603084861
 10
1068.871880158129
 20
61.46222600459972
 10
1069.738666182218
 20
62.29318303564199
 10
1069.738666182218
 20
62.29318303564199
 10
1070.116248647402
 20
62.64458277513747
 10
1070.116248647402
 20
62.64458277513747
 10
1071.012662492664
 20
60.76803926432189
 10
1072.381743438502
 20
58.61451007649221
 10
1074.587982587256
 20
58.00093857056921
 10
1075.866802031381
 20
57.78630912183814
 10
1077.415716961549
 20
57.79457735100275
 10
1078.57395806369
 20
58.51804740290521
 10
1078.57395806369
 20
58.51804740290521
 10
1080.279969347986
 20
59.61358776721466
 10
1080.279969347986
 20
59.61358776721466
 10
1081.520892741773
 20
58.15011120508053
 10
1083.131819390675
 20
56.97395560641623
 10
1085.258132324172
 20
57.17411565410925
 10
1086.660286186668
 20
57.23474933464965
 10
1087.769606932919
 20
58.23348251582357
 10
1088.665331759084
 20
59.20362140446993
 10
1088.665331759084
 20
59.20362140446993
 10
1089.18002902458
 20
59.77860784095813
 10
1089.18002902458
 20
59.77860784095813
 10
1090.560134275971
 20
58.32718911302237
 10
1092.167615829389
 20
56.97430011596476
 10
1094.57298149719
 20
57.41975096220757
 10
1096.047482364877
 20
57.61026474254188
 10
1096.832275116417
 20
58.42434080570641
 10
1097.408295081551
 20
59.71452906493248
 10
1097.679768605788
 20
60.34601506737878
 10
1097.601220428725
 20
61.03468965488022
 10
1097.533007538117
 20
61.69373642120851
 10
1098.535530324325
 20
61.43535425981477
 10
1099.575260141773
 20
61.22141383018076
 10
1100.610855844639
 20
61.18213974164891
 10
1100.965011660523
 20
60.26643336166951
 10
1101.591330019741
 20
59.20293238537288
 10
1102.514615609788
 20
58.77746309294452
 10
1104.51346001033
 20
57.85658906973725
 10
1104.626459142246
 20
58.00817327108824
 10
1106.506103238999
 20
58.10773653061196
 10
1108.905267734927
 20
58.55318737685476
 10
1110.66777858518
 20
60.42697481128215
 10
1112.010676805331
 20
62.26872285769671
 72
     1
 10
1112.010676805331
 20
62.26872285769671
 11
1112.010676805331
 21
62.26872285769671
 97
        0
 92
        1
 93
        2
 72
     4
 94
        3
 73
     0
 74
     0
 95
       53
 96
       49
 40
0.0
 40
0.0
 40
0.0
 40
0.0
 40
0.3527777776895833
 40
0.3527777776895833
 40
0.3527777776895833
 40
0.7055555553791667
 40
0.7055555553791667
 40
0.7055555553791667
 40
1.05833333306875
 40
1.05833333306875
 40
1.05833333306875
 40
1.411111110758333
 40
1.411111110758333
 40
1.411111110758333
 40
1.763888888447917
 40
1.763888888447917
 40
1.763888888447917
 40
2.1166666661375
 40
2.1166666661375
 40
2.1166666661375
 40
2.469444443827083
 40
2.469444443827083
 40
2.469444443827083
 40
2.822222221516667
 40
2.822222221516667
 40
2.822222221516667
 40
3.17499999920625
 40
3.17499999920625
 40
3.17499999920625
 40
3.527777776895833
 40
3.527777776895833
 40
3.527777776895833
 40
3.880555554585417
 40
3.880555554585417
 40
3.880555554585417
 40
4.233333332275
 40
4.233333332275
 40
4.233333332275
 40
4.586111109964584
 40
4.586111109964584
 40
4.586111109964584
 40
4.938888887654167
 40
4.938888887654167
 40
4.938888887654167
 40
5.29166666534375
 40
5.29166666534375
 40
5.29166666534375
 40
5.644444443033334
 40
5.644444443033334
 40
5.644444443033334
 40
5.644444443033334
 10
1053.438541403307
 20
75.63431530227199
 10
1053.438541403307
 20
75.63431530227199
 10
1052.929356290587
 20
76.10525985510563
 10
1052.929356290587
 20
76.10525985510563
 10
1052.929356290587
 20
76.10525985510563
 10
1053.419937887687
 20
76.34228242449082
 10
1053.419937887687
 20
76.34228242449082
 10
1054.190950257286
 20
76.58964028033176
 10
1055.027419441104
 20
76.65130748951773
 10
1055.419471307326
 20
75.75627168244982
 10
1055.515244961816
 20
74.97113442136138
 10
1055.187960890717
 20
74.497089282591
 10
1054.631922479398
 20
74.00788572368553
 10
1053.435096307822
 20
73.89902070635164
 10
1052.633078078856
 20
72.79624564152316
 10
1051.893071568624
 20
71.96976723461172
 10
1051.039376907379
 20
69.9574869616773
 10
1051.74217638637
 20
67.53971895012896
 10
1052.160410978279
 20
65.51296927615648
 10
1052.160410978279
 20
65.51296927615648
 10
1052.416037063285
 20
65.26423338212145
 10
1052.416037063285
 20
65.26423338212145
 10
1052.876990839211
 20
64.80775823032585
 10
1053.251817228007
 20
64.32199976690562
 10
1053.218744311348
 20
63.62505695023957
 10
1052.779839146527
 20
62.4451117465415
 10
1050.437863235655
 20
61.87115883869888
 10
1050.188438322522
 20
63.75493705003349
 10
1049.764691577837
 20
64.5025227703327
 10
1049.594503860865
 20
65.04512530925956
 10
1049.485638843531
 20
65.5987521537392
 10
1049.485638843531
 20
65.5987521537392
 10
1049.409157723759
 20
66.03559026126888
 10
1049.409157723759
 20
66.03559026126888
 10
1049.265152732475
 20
64.94418401154174
 10
1049.440163583126
 20
63.67328828703307
 10
1049.622753643844
 20
62.6008300624748
 10
1049.998958070834
 20
61.18076170345481
 10
1050.978743226839
 20
60.09624564469816
 10
1052.382964146627
 20
59.52608234188931
 10
1055.601372348947
 20
58.76299369190647
 10
1058.25616292988
 20
60.96165363059292
 10
1060.092398823519
 20
63.34049206315794
 10
1062.984211973837
 20
67.47012802132691
 10
1065.552186148543
 20
72.6477620261089
 10
1063.215722390446
 20
77.65038518024018
 10
1060.427262104685
 20
81.13957788770122
 10
1054.957139493205
 20
79.5190049714397
 10
1053.438541403307
 20
75.63431530227199
 72
     1
 10
1053.438541403307
 20
75.63431530227199
 11
1053.438541403307
 21
75.63431530227199
 97
        0
 92
        1
 93
        2
 72
     4
 94
        3
 73
     0
 74
     0
 95
       23
 96
       19
 40
0.0
 40
0.0
 40
0.0
 40
0.0
 40
0.3527777776895833
 40
0.3527777776895833
 40
0.3527777776895833
 40
0.7055555553791667
 40
0.7055555553791667
 40
0.7055555553791667
 40
1.05833333306875
 40
1.05833333306875
 40
1.05833333306875
 40
1.411111110758333
 40
1.411111110758333
 40
1.411111110758333
 40
1.763888888447917
 40
1.763888888447917
 40
1.763888888447917
 40
2.1166666661375
 40
2.1166666661375
 40
2.1166666661375
 40
2.1166666661375
 10
1062.098133415031
 20
61.63379175976517
 10
1059.833327643028
 20
58.55835502008264
 10
1056.143630378325
 20
56.50886771590751
 10
1052.194861933132
 20
57.06490612722683
 10
1049.41122478105
 20
57.8062906756526
 10
1047.609439842264
 20
60.51069063157372
 10
1047.149175085435
 20
63.17030434618659
 10
1046.588313540436
 20
66.64709470990073
 10
1047.530891665201
 20
69.81348197039385
 10
1049.367127558839
 20
72.43072101053815
 10
1049.917653817382
 20
76.23238387851136
 10
1052.079795743924
 20
79.8831515642306
 10
1055.85286431937
 20
81.5612575750958
 10
1058.205175516699
 20
82.41943086047154
 10
1063.472037494549
 20
82.79735783520344
 10
1065.256596955908
 20
78.9398844203692
 10
1068.496364750237
 20
72.96505532030041
 10
1065.247639707646
 20
66.40490449728766
 10
1062.098133415031
 20
61.63379175976517
 72
     1
 10
1062.098133415031
 20
61.63379175976517
 11
1062.098133415031
 21
61.63379175976517
 97
        0
 92
        1
 93
        2
 72
     4
 94
        3
 73
     0
 74
     0
 95
       17
 96
       13
 40
0.0
 40
0.0
 40
0.0
 40
0.0
 40
0.3527777776895833
 40
0.3527777776895833
 40
0.3527777776895833
 40
0.7055555553791667
 40
0.7055555553791667
 40
0.7055555553791667
 40
1.05833333306875
 40
1.05833333306875
 40
1.05833333306875
 40
1.411111110758333
 40
1.411111110758333
 40
1.411111110758333
 40
1.411111110758333
 10
1124.681048980982
 20
68.6738443838732
 10
1124.834011220528
 20
69.13893227438194
 10
1124.78440184554
 20
69.75801593308134
 10
1124.506038130332
 20
70.1862413018979
 10
1123.90383543951
 20
70.94416230865285
 10
1122.743527280078
 20
71.48263073299741
 10
1122.023502323661
 20
70.48940970459988
 10
1121.661078278613
 20
69.60298663624509
 10
1121.93255180285
 20
68.7206976824726
 10
1122.644308530103
 20
68.11229381977749
 10
1123.400851498664
 20
67.93108179725334
 10
1124.262814389073
 20
67.7498697747292
 10
1124.681048980982
 20
68.6738443838732
 72
     1
 10
1124.681048980982
 20
68.6738443838732
 11
1124.681048980982
 21
68.6738443838732
 97
        0
 92
        1
 93
        2
 72
     4
 94
        3
 73
     0
 74
     0
 95
       17
 96
       13
 40
0.0
 40
0.0
 40
0.0
 40
0.0
 40
0.3527777776895833
 40
0.3527777776895833
 40
0.3527777776895833
 40
0.7055555553791667
 40
0.7055555553791667
 40
0.7055555553791667
 40
1.05833333306875
 40
1.05833333306875
 40
1.05833333306875
 40
1.411111110758333
 40
1.411111110758333
 40
1.411111110758333
 40
1.411111110758333
 10
1081.242529026564
 20
70.09356823334467
 10
1080.853233236731
 20
69.53546276473419
 10
1079.892051596346
 20
69.53408472654009
 10
1079.395268827373
 20
69.73700085062131
 10
1078.67662190915
 20
70.03017847641607
 10
1077.993803983974
 20
70.97826875395683
 10
1078.52021457412
 20
71.8950086625818
 10
1079.107947863904
 20
72.918202021701
 10
1080.327511665682
 20
72.63708223010462
 10
1080.957275120386
 20
72.12410751235092
 10
1081.352083062995
 20
71.80302461312563
 10
1081.768250597614
 20
70.84528806822618
 10
1081.242529026564
 20
70.09356823334467
 72
     1
 10
1081.242529026564
 20
70.09356823334467
 11
1081.242529026564
 21
70.09356823334467
 97
        0
 75
     2
 76
     1
 98
        0
  0
SPLINE
  5
572
330
564
100
AcDbEntity
  8
Layer 1
370
     0
100
AcDbSpline
210
0.0
220
0.0
230
1.0
 70
    11
 71
     3
 72
    20
 73
    16
 74
     0
 42
0.0000000001
 43
0.0000000001
 40
0.0
 40
0.0
 40
0.0
 40
0.0
 40
1.0
 40
1.0
 40
1.0
 40
2.0
 40
2.0
 40
2.0
 40
3.0
 40
3.0
 40
3.0
 40
4.0
 40
4.0
 40
4.0
 40
5.0
 40
5.0
 40
5.0
 40
5.0
 10
1149.045453271767
 20
65.64078231865925
 30
0.0
 10
1149.045453271767
 20
65.64078231865925
 30
0.0
 10
1149.341042464401
 20
65.64078231865925
 30
0.0
 10
1149.341042464401
 20
65.64078231865925
 30
0.0
 10
1149.499516856722
 20
65.64078231865925
 30
0.0
 10
1149.655235172656
 20
65.59117294367165
 30
0.0
 10
1149.655235172656
 20
65.41788464076359
 30
0.0
 10
1149.655235172656
 20
65.21875812171615
 30
0.0
 10
1149.531900754284
 20
65.17913952363577
 30
0.0
 10
1149.341042464401
 20
65.17913952363577
 30
0.0
 10
1149.341042464401
 20
65.17913952363577
 30
0.0
 10
1149.045453271767
 20
65.17913952363577
 30
0.0
 10
1149.045453271767
 20
65.17913952363577
 30
0.0
 10
1149.045453271767
 20
65.17913952363577
 30
0.0
 10
1149.045453271767
 20
65.64078231865925
 30
0.0
 10
1149.045453271767
 20
65.64078231865925
 30
0.0
  0
SPLINE
  5
573
330
564
100
AcDbEntity
  8
Layer 1
370
     0
100
AcDbSpline
210
0.0
220
0.0
230
1.0
 70
    11
 71
     3
 72
    35
 73
    31
 74
     0
 42
0.0000000001
 43
0.0000000001
 40
0.0
 40
0.0
 40
0.0
 40
0.0
 40
1.0
 40
1.0
 40
1.0
 40
2.0
 40
2.0
 40
2.0
 40
3.0
 40
3.0
 40
3.0
 40
4.0
 40
4.0
 40
4.0
 40
5.0
 40
5.0
 40
5.0
 40
6.0
 40
6.0
 40
6.0
 40
7.0
 40
7.0
 40
7.0
 40
8.0
 40
8.0
 40
8.0
 40
9.0
 40
9.0
 40
9.0
 40
10.0
 40
10.0
 40
10.0
 40
10.0
 10
1148.795339339537
 20
64.3092529136102
 30
0.0
 10
1148.795339339537
 20
64.3092529136102
 30
0.0
 10
1149.045453271767
 20
64.3092529136102
 30
0.0
 10
1149.045453271767
 20
64.3092529136102
 30
0.0
 10
1149.045453271767
 20
64.3092529136102
 30
0.0
 10
1149.045453271767
 20
64.98414711917063
 30
0.0
 10
1149.045453271767
 20
64.98414711917063
 30
0.0
 10
1149.045453271767
 20
64.98414711917063
 30
0.0
 10
1149.253537039076
 20
64.98414711917063
 30
0.0
 10
1149.253537039076
 20
64.98414711917063
 30
0.0
 10
1149.253537039076
 20
64.98414711917063
 30
0.0
 10
1149.680039860149
 20
64.3092529136102
 30
0.0
 10
1149.680039860149
 20
64.3092529136102
 30
0.0
 10
1149.680039860149
 20
64.3092529136102
 30
0.0
 10
1149.94393417432
 20
64.3092529136102
 30
0.0
 10
1149.94393417432
 20
64.3092529136102
 30
0.0
 10
1149.94393417432
 20
64.3092529136102
 30
0.0
 10
1149.510541162275
 20
64.98414711917063
 30
0.0
 10
1149.510541162275
 20
64.98414711917063
 30
0.0
 10
1149.748941769855
 20
64.98414711917063
 30
0.0
 10
1149.904660085788
 20
65.161569536661
 30
0.0
 10
1149.904660085788
 20
65.40651582566227
 30
0.0
 10
1149.904660085788
 20
65.69487031777767
 30
0.0
 10
1149.730338254234
 20
65.83577472312439
 30
0.0
 10
1149.380316552933
 20
65.83577472312439
 30
0.0
 10
1149.380316552933
 20
65.83577472312439
 30
0.0
 10
1148.795339339537
 20
65.83577472312439
 30
0.0
 10
1148.795339339537
 20
65.83577472312439
 30
0.0
 10
1148.795339339537
 20
65.83577472312439
 30
0.0
 10
1148.795339339537
 20
64.3092529136102
 30
0.0
 10
1148.795339339537
 20
64.3092529136102
 30
0.0
  0
SPLINE
  5
574
330
564
100
AcDbEntity
  8
Layer 1
370
     0
100
AcDbSpline
210
0.0
220
0.0
230
1.0
 70
    11
 71
     3
 72
    17
 73
    13
 74
     0
 42
0.0000000001
 43
0.0000000001
 40
0.0
 40
0.0
 40
0.0
 40
0.0
 40
1.0
 40
1.0
 40
1.0
 40
2.0
 40
2.0
 40
2.0
 40
3.0
 40
3.0
 40
3.0
 40
4.0
 40
4.0
 40
4.0
 40
4.0
 10
1148.239989947315
 20
65.07096352539892
 30
0.0
 10
1148.239989947315
 20
65.69487031777767
 30
0.0
 10
1148.69198647498
 20
66.1792507430038
 30
0.0
 10
1149.297634261287
 20
66.1792507430038
 30
0.0
 10
1149.896391856623
 20
66.1792507430038
 30
0.0
 10
1150.347010346094
 20
65.69487031777767
 30
0.0
 10
1150.347010346094
 20
65.07096352539892
 30
0.0
 10
1150.347010346094
 20
64.44705673302019
 30
0.0
 10
1149.896391856623
 20
63.96336532689111
 30
0.0
 10
1149.297634261287
 20
63.96336532689111
 30
0.0
 10
1148.69198647498
 20
63.96336532689111
 30
0.0
 10
1148.239989947315
 20
64.44705673302019
 30
0.0
 10
1148.239989947315
 20
65.07096352539892
 30
0.0
  0
SPLINE
  5
575
330
564
100
AcDbEntity
  8
Layer 1
370
     0
100
AcDbSpline
210
0.0
220
0.0
230
1.0
 70
    11
 71
     3
 72
    17
 73
    13
 74
     0
 42
0.0000000001
 43
0.0000000001
 40
0.0
 40
0.0
 40
0.0
 40
0.0
 40
1.0
 40
1.0
 40
1.0
 40
2.0
 40
2.0
 40
2.0
 40
3.0
 40
3.0
 40
3.0
 40
4.0
 40
4.0
 40
4.0
 40
4.0
 10
1147.99125405328
 20
65.07096352539892
 30
0.0
 10
1147.99125405328
 20
64.35335013582139
 30
0.0
 10
1148.575542247578
 20
63.76768390332892
 30
0.0
 10
1149.294189165802
 20
63.76768390332892
 30
0.0
 10
1150.012147064928
 20
63.76768390332892
 30
0.0
 10
1150.596435259226
 20
64.35335013582139
 30
0.0
 10
1150.596435259226
 20
65.07096352539892
 30
0.0
 10
1150.596435259226
 20
65.78926593407353
 30
0.0
 10
1150.012147064928
 20
66.37424314746895
 30
0.0
 10
1149.294189165802
 20
66.37424314746895
 30
0.0
 10
1148.575542247578
 20
66.37424314746895
 30
0.0
 10
1147.99125405328
 20
65.78926593407353
 30
0.0
 10
1147.99125405328
 20
65.07096352539892
 30
0.0
  0
HATCH
  5
576
330
564
100
AcDbEntity
  8
Layer 1
 62
   152
100
AcDbHatch
 10
0.0
 20
0.0
 30
0.0
210
0.0
220
0.0
230
1.0
  2
SOLID
 70
     1
 71
     0
 91
        4
 92
        1
 93
        1
 72
     4
 94
        3
 73
     0
 74
     1
 95
       20
 96
       16
 40
0.0
 40
0.0
 40
0.0
 40
0.0
 40
1.0
 40
1.0
 40
1.0
 40
2.0
 40
2.0
 40
2.0
 40
3.0
 40
3.0
 40
3.0
 40
4.0
 40
4.0
 40
4.0
 40
5.0
 40
5.0
 40
5.0
 40
5.0
 10
1149.045453271767
 20
65.64078231865925
 10
1149.045453271767
 20
65.64078231865925
 10
1149.341042464401
 20
65.64078231865925
 10
1149.341042464401
 20
65.64078231865925
 10
1149.499516856722
 20
65.64078231865925
 10
1149.655235172656
 20
65.59117294367165
 10
1149.655235172656
 20
65.41788464076359
 10
1149.655235172656
 20
65.21875812171615
 10
1149.531900754284
 20
65.17913952363577
 10
1149.341042464401
 20
65.17913952363577
 10
1149.341042464401
 20
65.17913952363577
 10
1149.045453271767
 20
65.17913952363577
 10
1149.045453271767
 20
65.17913952363577
 10
1149.045453271767
 20
65.17913952363577
 10
1149.045453271767
 20
65.64078231865925
 10
1149.045453271767
 20
65.64078231865925
 97
        0
 92
        1
 93
        1
 72
     4
 94
        3
 73
     0
 74
     1
 95
       35
 96
       31
 40
0.0
 40
0.0
 40
0.0
 40
0.0
 40
1.0
 40
1.0
 40
1.0
 40
2.0
 40
2.0
 40
2.0
 40
3.0
 40
3.0
 40
3.0
 40
4.0
 40
4.0
 40
4.0
 40
5.0
 40
5.0
 40
5.0
 40
6.0
 40
6.0
 40
6.0
 40
7.0
 40
7.0
 40
7.0
 40
8.0
 40
8.0
 40
8.0
 40
9.0
 40
9.0
 40
9.0
 40
10.0
 40
10.0
 40
10.0
 40
10.0
 10
1148.795339339537
 20
64.3092529136102
 10
1148.795339339537
 20
64.3092529136102
 10
1149.045453271767
 20
64.3092529136102
 10
1149.045453271767
 20
64.3092529136102
 10
1149.045453271767
 20
64.3092529136102
 10
1149.045453271767
 20
64.98414711917063
 10
1149.045453271767
 20
64.98414711917063
 10
1149.045453271767
 20
64.98414711917063
 10
1149.253537039076
 20
64.98414711917063
 10
1149.253537039076
 20
64.98414711917063
 10
1149.253537039076
 20
64.98414711917063
 10
1149.680039860149
 20
64.3092529136102
 10
1149.680039860149
 20
64.3092529136102
 10
1149.680039860149
 20
64.3092529136102
 10
1149.94393417432
 20
64.3092529136102
 10
1149.94393417432
 20
64.3092529136102
 10
1149.94393417432
 20
64.3092529136102
 10
1149.510541162275
 20
64.98414711917063
 10
1149.510541162275
 20
64.98414711917063
 10
1149.748941769855
 20
64.98414711917063
 10
1149.904660085788
 20
65.161569536661
 10
1149.904660085788
 20
65.40651582566227
 10
1149.904660085788
 20
65.69487031777767
 10
1149.730338254234
 20
65.83577472312439
 10
1149.380316552933
 20
65.83577472312439
 10
1149.380316552933
 20
65.83577472312439
 10
1148.795339339537
 20
65.83577472312439
 10
1148.795339339537
 20
65.83577472312439
 10
1148.795339339537
 20
65.83577472312439
 10
1148.795339339537
 20
64.3092529136102
 10
1148.795339339537
 20
64.3092529136102
 97
        0
 92
        1
 93
        2
 72
     4
 94
        3
 73
     0
 74
     0
 95
       17
 96
       13
 40
0.0
 40
0.0
 40
0.0
 40
0.0
 40
0.3527777776895833
 40
0.3527777776895833
 40
0.3527777776895833
 40
0.7055555553791667
 40
0.7055555553791667
 40
0.7055555553791667
 40
1.05833333306875
 40
1.05833333306875
 40
1.05833333306875
 40
1.411111110758333
 40
1.411111110758333
 40
1.411111110758333
 40
1.411111110758333
 10
1148.239989947315
 20
65.07096352539892
 10
1148.239989947315
 20
65.69487031777767
 10
1148.69198647498
 20
66.1792507430038
 10
1149.297634261287
 20
66.1792507430038
 10
1149.896391856623
 20
66.1792507430038
 10
1150.347010346094
 20
65.69487031777767
 10
1150.347010346094
 20
65.07096352539892
 10
1150.347010346094
 20
64.44705673302019
 10
1149.896391856623
 20
63.96336532689111
 10
1149.297634261287
 20
63.96336532689111
 10
1148.69198647498
 20
63.96336532689111
 10
1148.239989947315
 20
64.44705673302019
 10
1148.239989947315
 20
65.07096352539892
 72
     1
 10
1148.239989947315
 20
65.07096352539892
 11
1148.239989947315
 21
65.07096352539892
 97
        0
 92
        1
 93
        2
 72
     4
 94
        3
 73
     0
 74
     0
 95
       17
 96
       13
 40
0.0
 40
0.0
 40
0.0
 40
0.0
 40
0.3527777776895833
 40
0.3527777776895833
 40
0.3527777776895833
 40
0.7055555553791667
 40
0.7055555553791667
 40
0.7055555553791667
 40
1.05833333306875
 40
1.05833333306875
 40
1.05833333306875
 40
1.411111110758333
 40
1.411111110758333
 40
1.411111110758333
 40
1.411111110758333
 10
1147.99125405328
 20
65.07096352539892
 10
1147.99125405328
 20
64.35335013582139
 10
1148.575542247578
 20
63.76768390332892
 10
1149.294189165802
 20
63.76768390332892
 10
1150.012147064928
 20
63.76768390332892
 10
1150.596435259226
 20
64.35335013582139
 10
1150.596435259226
 20
65.07096352539892
 10
1150.596435259226
 20
65.78926593407353
 10
1150.012147064928
 20
66.37424314746895
 10
1149.294189165802
 20
66.37424314746895
 10
1148.575542247578
 20
66.37424314746895
 10
1147.99125405328
 20
65.78926593407353
 10
1147.99125405328
 20
65.07096352539892
 72
     1
 10
1147.99125405328
 20
65.07096352539892
 11
1147.99125405328
 21
65.07096352539892
 97
        0
 75
     2
 76
     1
 98
        0
  0
ENDBLK
  5
567
330
564
100
AcDbEntity
  8
0
100
AcDbBlockEnd
  0
ENDSEC
  0
SECTION
  2
ENTITIES
  0
INSERT
  5
3D
330
1F
100
AcDbEntity
  8
Layer 1
100
AcDbBlockReference
  2
block 2
 10
0.0
 20
0.0
 30
0.0
  0
ENDSEC
  0
SECTION
  2
OBJECTS
  0
DICTIONARY
  5
C
330
0
100
AcDbDictionary
281
     1
  3
ACAD_GROUP
350
D
  3
ACAD_LAYOUT
350
1A
  3
ACAD_MLINESTYLE
350
17
  3
ACAD_PLOTSETTINGS
350
19
  3
ACAD_PLOTSTYLENAME
350
E
  3
ACAD_TABLESTYLE
350
577
  3
ACAD_VISUALSTYLE
350
2A
  0
DICTIONARY
  5
D
102
{ACAD_REACTORS
330
C
102
}
330
C
100
AcDbDictionary
281
     1
  0
DICTIONARY
  5
1A
102
{ACAD_REACTORS
330
C
102
}
330
C
100
AcDbDictionary
281
     1
  3
Layout1
350
1E
  3
Layout2
350
26
  3
Model
350
22
  0
DICTIONARY
  5
17
102
{ACAD_REACTORS
330
C
102
}
330
C
100
AcDbDictionary
281
     1
  3
Standard
350
18
  0
DICTIONARY
  5
19
102
{ACAD_REACTORS
330
C
102
}
330
C
100
AcDbDictionary
281
     1
  0
ACDBDICTIONARYWDFLT
  5
E
102
{ACAD_REACTORS
330
C
102
}
330
C
100
AcDbDictionary
281
     1
  3
Normal
350
F
100
AcDbDictionaryWithDefault
340
F
  0
DICTIONARY
  5
577
102
{ACAD_REACTORS
330
C
102
}
330
C
100
AcDbDictionary
281
     1
  0
DICTIONARY
  5
2A
102
{ACAD_REACTORS
330
C
102
}
330
C
100
AcDbDictionary
281
     1
  3
2dWireframe
350
2F
  3
3D Hidden
350
31
  3
3dWireframe
350
30
  3
Basic
350
32
  3
Brighten
350
36
  3
ColorChange
350
3A
  3
Conceptual
350
34
  3
Dim
350
35
  3
Facepattern
350
39
  3
Flat
350
2B
  3
FlatWithEdges
350
2C
  3
Gouraud
350
2D
  3
GouraudWithEdges
350
2E
  3
Linepattern
350
38
  3
Realistic
350
33
  3
Thicken
350
37
  0
LAYOUT
  5
1E
102
{ACAD_REACTORS
330
1A
102
}
330
1A
100
AcDbPlotSettings
  1

  2
none_device
  4

  6

 40
0.0
 41
0.0
 42
0.0
 43
0.0
 44
0.0
 45
0.0
 46
0.0
 47
0.0
 48
0.0
 49
0.0
140
0.0
141
0.0
142
1.0
143
1.0
 70
   688
 72
     0
 73
     0
 74
     5
  7

 75
    16
147
1.0
148
0.0
149
0.0
100
AcDbLayout
  1
Layout1
 70
     1
 71
     1
 10
0.0
 20
0.0
 11
12.0
 21
9.0
 12
0.0
 22
0.0
 32
0.0
 14
1.000000000000000E+20
 24
1.000000000000000E+20
 34
1.000000000000000E+20
 15
-1.000000000000000E+20
 25
-1.000000000000000E+20
 35
-1.000000000000000E+20
146
0.0
 13
0.0
 23
0.0
 33
0.0
 16
1.0
 26
0.0
 36
0.0
 17
0.0
 27
1.0
 37
0.0
 76
     0
330
1B
  0
LAYOUT
  5
26
102
{ACAD_REACTORS
330
1A
102
}
330
1A
100
AcDbPlotSettings
  1

  2
none_device
  4

  6

 40
0.0
 41
0.0
 42
0.0
 43
0.0
 44
0.0
 45
0.0
 46
0.0
 47
0.0
 48
0.0
 49
0.0
140
0.0
141
0.0
142
1.0
143
1.0
 70
   688
 72
     0
 73
     0
 74
     5
  7

 75
    16
147
1.0
148
0.0
149
0.0
100
AcDbLayout
  1
Layout2
 70
     1
 71
     2
 10
0.0
 20
0.0
 11
0.0
 21
0.0
 12
0.0
 22
0.0
 32
0.0
 14
0.0
 24
0.0
 34
0.0
 15
0.0
 25
0.0
 35
0.0
146
0.0
 13
0.0
 23
0.0
 33
0.0
 16
1.0
 26
0.0
 36
0.0
 17
0.0
 27
1.0
 37
0.0
 76
     0
330
23
  0
LAYOUT
  5
22
102
{ACAD_REACTORS
330
1A
102
}
330
1A
100
AcDbPlotSettings
  1

  2
none_device
  4

  6

 40
0.0
 41
0.0
 42
0.0
 43
0.0
 44
0.0
 45
0.0
 46
0.0
 47
0.0
 48
0.0
 49
0.0
140
0.0
141
0.0
142
1.0
143
1.0
 70
  1712
 72
     0
 73
     0
 74
     0
  7

 75
     0
147
1.0
148
0.0
149
0.0
100
AcDbLayout
  1
Model
 70
     1
 71
     0
 10
0.0
 20
0.0
 11
12.0
 21
9.0
 12
0.0
 22
0.0
 32
0.0
 14
1.000000000000000E+20
 24
1.000000000000000E+20
 34
1.000000000000000E+20
 15
-1.000000000000000E+20
 25
-1.000000000000000E+20
 35
-1.000000000000000E+20
146
0.0
 13
0.0
 23
0.0
 33
0.0
 16
1.0
 26
0.0
 36
0.0
 17
0.0
 27
1.0
 37
0.0
 76
     0
330
1F
331
29
  0
MLINESTYLE
  5
18
102
{ACAD_REACTORS
330
17
102
}
330
17
100
AcDbMlineStyle
  2
Standard
 70
     0
  3

 62
   256
 51
90.0
 52
90.0
 71
     2
 49
0.5
 62
   256
  6
BYLAYER
 49
-0.5
 62
   256
  6
BYLAYER
  0
ACDBPLACEHOLDER
  5
F
102
{ACAD_REACTORS
330
E
102
}
330
E
  0
VISUALSTYLE
  5
2F
102
{ACAD_REACTORS
330
2A
102
}
330
2A
100
AcDbVisualStyle
  2
2dWireframe
 70
     4
 71
     0
 72
     2
 73
     0
 90
        0
 40
-0.6
 41
-30.0
 62
     5
 63
     7
 74
     1
 91
        4
 64
     7
 65
   257
 75
     1
175
     1
 42
1.0
 92
        0
 66
   257
 43
1.0
 76
     1
 77
     6
 78
     2
 67
     7
 79
     5
170
     0
171
     0
290
     0
174
     0
 93
        1
 44
0.0
173
     0
291
     0
 45
0.0
1001
ACAD
1000
AcDbSavedByObjectVersion
1070
     0
  0
VISUALSTYLE
  5
31
102
{ACAD_REACTORS
330
2A
102
}
330
2A
100
AcDbVisualStyle
  2
3D Hidden
 70
     6
 71
     1
 72
     2
 73
     2
 90
        0
 40
-0.6
 41
-30.0
 62
     5
 63
     7
 74
     2
 91
        2
 64
     7
 65
   257
 75
     2
175
     1
 42
40.0
 92
        0
 66
   257
 43
1.0
 76
     1
 77
     6
 78
     2
 67
     7
 79
     3
170
     0
171
     0
290
     0
174
     0
 93
        1
 44
0.0
173
     0
291
     0
 45
0.0
1001
ACAD
1000
AcDbSavedByObjectVersion
1070
     0
  0
VISUALSTYLE
  5
30
102
{ACAD_REACTORS
330
2A
102
}
330
2A
100
AcDbVisualStyle
  2
3dWireframe
 70
     5
 71
     0
 72
     2
 73
     0
 90
        0
 40
-0.6
 41
-30.0
 62
     5
 63
     7
 74
     1
 91
        4
 64
     7
 65
   257
 75
     1
175
     1
 42
1.0
 92
        0
 66
   257
 43
1.0
 76
     1
 77
     6
 78
     2
 67
     7
 79
     5
170
     0
171
     0
290
     0
174
     0
 93
        1
 44
0.0
173
     0
291
     0
 45
0.0
1001
ACAD
1000
AcDbSavedByObjectVersion
1070
     0
  0
VISUALSTYLE
  5
32
102
{ACAD_REACTORS
330
2A
102
}
330
2A
100
AcDbVisualStyle
  2
Basic
 70
     7
 71
     1
 72
     0
 73
     1
 90
        0
 40
-0.6
 41
-30.0
 62
     5
 63
     7
 74
     0
 91
        4
 64
     7
 65
   257
 75
     1
175
     1
 42
1.0
 92
        8
 66
     7
 43
1.0
 76
     1
 77
     6
 78
     2
 67
     7
 79
     5
170
     0
171
     0
290
     0
174
     0
 93
        1
 44
0.0
173
     0
291
     1
 45
0.0
1001
ACAD
1000
AcDbSavedByObjectVersion
1070
     0
  0
VISUALSTYLE
  5
36
102
{ACAD_REACTORS
330
2A
102
}
330
2A
100
AcDbVisualStyle
  2
Brighten
 70
    12
 71
     2
 72
     2
 73
     0
 90
        0
 40
-0.6
 41
-30.0
 62
     5
 63
     7
 74
     1
 91
        4
 64
     7
 65
   257
 75
     1
175
     1
 42
1.0
 92
        8
 66
     7
 43
1.0
 76
     1
 77
     6
 78
     2
 67
     7
 79
     5
170
     0
171
     0
290
     0
174
     0
 93
        1
 44
50.0
173
     0
291
     1
 45
0.0
1001
ACAD
1000
AcDbSavedByObjectVersion
1070
     0
  0
VISUALSTYLE
  5
3A
102
{ACAD_REACTORS
330
2A
102
}
330
2A
100
AcDbVisualStyle
  2
ColorChange
 70
    16
 71
     2
 72
     2
 73
     3
 90
        0
 40
-0.6
 41
-30.0
 62
     5
 63
     8
 74
     1
 91
        4
 64
     7
 65
   257
 75
     1
175
     1
 42
1.0
 92
        8
 66
     8
 43
1.0
 76
     1
 77
     6
 78
     2
 67
     7
 79
     5
170
     0
171
     0
290
     0
174
     0
 93
        1
 44
0.0
173
     0
291
     1
 45
0.0
1001
ACAD
1000
AcDbSavedByObjectVersion
1070
     0
  0
VISUALSTYLE
  5
34
102
{ACAD_REACTORS
330
2A
102
}
330
2A
100
AcDbVisualStyle
  2
Conceptual
 70
     9
 71
     3
 72
     2
 73
     0
 90
        0
 40
-0.6
 41
-30.0
 62
     5
 63
     7
 74
     2
 91
        2
 64
     7
 65
   257
 75
     1
175
     1
 42
40.0
 92
        8
 66
     7
 43
1.0
 76
     1
 77
     6
 78
     2
 67
     7
 79
     3
170
     0
171
     0
290
     0
174
     0
 93
        1
 44
0.0
173
     0
291
     0
 45
0.0
1001
ACAD
1000
AcDbSavedByObjectVersion
1070
     0
  0
VISUALSTYLE
  5
35
102
{ACAD_REACTORS
330
2A
102
}
330
2A
100
AcDbVisualStyle
  2
Dim
 70
    11
 71
     2
 72
     2
 73
     0
 90
        0
 40
-0.6
 41
-30.0
 62
     5
 63
     7
 74
     1
 91
        4
 64
     7
 65
   257
 75
     1
175
     1
 42
1.0
 92
        8
 66
     7
 43
1.0
 76
     1
 77
     6
 78
     2
 67
     7
 79
     5
170
     0
171
     0
290
     0
174
     0
 93
        1
 44
-50.0
173
     0
291
     1
 45
0.0
1001
ACAD
1000
AcDbSavedByObjectVersion
1070
     0
  0
VISUALSTYLE
  5
39
102
{ACAD_REACTORS
330
2A
102
}
330
2A
100
AcDbVisualStyle
  2
Facepattern
 70
    15
 71
     2
 72
     2
 73
     0
 90
        0
 40
-0.6
 41
-30.0
 62
     5
 63
     7
 74
     1
 91
        4
 64
     7
 65
   257
 75
     1
175
     1
 42
1.0
 92
        8
 66
     7
 43
1.0
 76
     1
 77
     6
 78
     2
 67
     7
 79
     5
170
     0
171
     0
290
     0
174
     0
 93
        1
 44
0.0
173
     0
291
     1
 45
0.0
1001
ACAD
1000
AcDbSavedByObjectVersion
1070
     0
  0
VISUALSTYLE
  5
2B
102
{ACAD_REACTORS
330
2A
102
}
330
2A
100
AcDbVisualStyle
  2
Flat
 70
     0
 71
     2
 72
     1
 73
     1
 90
        2
 40
-0.6
 41
30.0
 62
     5
 63
     7
 74
     0
 91
        4
 64
     7
 65
   257
 75
     1
175
     1
 42
1.0
 92
        8
 66
     7
 43
1.0
 76
     1
 77
     6
 78
     2
 67
     7
 79
     5
170
     0
171
     0
290
     0
174
     0
 93
       13
 44
0.0
173
     0
291
     1
 45
0.0
1001
ACAD
1000
AcDbSavedByObjectVersion
1070
     0
  0
VISUALSTYLE
  5
2C
102
{ACAD_REACTORS
330
2A
102
}
330
2A
100
AcDbVisualStyle
  2
FlatWithEdges
 70
     1
 71
     2
 72
     1
 73
     1
 90
        2
 40
-0.6
 41
30.0
 62
     5
 63
     7
 74
     1
 91
        4
 64
     7
 65
   257
 75
     1
175
     1
 42
1.0
 92
        0
 66
   257
 43
1.0
 76
     1
 77
     6
 78
     2
 67
     7
 79
     5
170
     0
171
     0
290
     0
174
     0
 93
       13
 44
0.0
173
     0
291
     1
 45
0.0
1001
ACAD
1000
AcDbSavedByObjectVersion
1070
     0
  0
VISUALSTYLE
  5
2D
102
{ACAD_REACTORS
330
2A
102
}
330
2A
100
AcDbVisualStyle
  2
Gouraud
 70
     2
 71
     2
 72
     2
 73
     1
 90
        2
 40
-0.6
 41
30.0
 62
     5
 63
     7
 74
     0
 91
        4
 64
     7
 65
   257
 75
     1
175
     1
 42
1.0
 92
        0
 66
     7
 43
1.0
 76
     1
 77
     6
 78
     2
 67
     7
 79
     5
170
     0
171
     0
290
     0
174
     0
 93
       13
 44
0.0
173
     0
291
     1
 45
0.0
1001
ACAD
1000
AcDbSavedByObjectVersion
1070
     0
  0
VISUALSTYLE
  5
2E
102
{ACAD_REACTORS
330
2A
102
}
330
2A
100
AcDbVisualStyle
  2
GouraudWithEdges
 70
     3
 71
     2
 72
     2
 73
     1
 90
        2
 40
-0.6
 41
30.0
 62
     5
 63
     7
 74
     1
 91
        4
 64
     7
 65
   257
 75
     1
175
     1
 42
1.0
 92
        0
 66
   257
 43
1.0
 76
     1
 77
     6
 78
     2
 67
     7
 79
     5
170
     0
171
     0
290
     0
174
     0
 93
       13
 44
0.0
173
     0
291
     1
 45
0.0
1001
ACAD
1000
AcDbSavedByObjectVersion
1070
     0
  0
VISUALSTYLE
  5
38
102
{ACAD_REACTORS
330
2A
102
}
330
2A
100
AcDbVisualStyle
  2
Linepattern
 70
    14
 71
     2
 72
     2
 73
     0
 90
        0
 40
-0.6
 41
-30.0
 62
     5
 63
     7
 74
     1
 91
        4
 64
     7
 65
   257
 75
     7
175
     7
 42
1.0
 92
        8
 66
     7
 43
1.0
 76
     1
 77
     6
 78
     2
 67
     7
 79
     5
170
     0
171
     0
290
     0
174
     0
 93
        1
 44
0.0
173
     0
291
     1
 45
0.0
1001
ACAD
1000
AcDbSavedByObjectVersion
1070
     0
  0
VISUALSTYLE
  5
33
102
{ACAD_REACTORS
330
2A
102
}
330
2A
100
AcDbVisualStyle
  2
Realistic
 70
     8
 71
     2
 72
     2
 73
     0
 90
        0
 40
-0.6
 41
-30.0
 62
     5
 63
     7
 74
     1
 91
        0
 64
     7
 65
   257
 75
     1
175
     1
 42
1.0
 92
        8
 66
     8
 43
1.0
 76
     1
 77
     6
 78
     2
 67
     7
 79
     5
170
     0
171
     0
290
     0
174
     0
 93
       13
 44
0.0
173
     0
291
     0
 45
0.0
1001
ACAD
1000
AcDbSavedByObjectVersion
1070
     0
  0
VISUALSTYLE
  5
37
102
{ACAD_REACTORS
330
2A
102
}
330
2A
100
AcDbVisualStyle
  2
Thicken
 70
    13
 71
     2
 72
     2
 73
     0
 90
        0
 40
-0.6
 41
-30.0
 62
     5
 63
     7
 74
     1
 91
        4
 64
     7
 65
   257
 75
     1
175
     1
 42
1.0
 92
       12
 66
     7
 43
1.0
 76
     1
 77
     6
 78
     2
 67
     7
 79
     5
170
     0
171
     0
290
     0
174
     0
 93
        1
 44
0.0
173
     0
291
     1
 45
0.0
1001
ACAD
1000
AcDbSavedByObjectVersion
1070
     0
  0
ENDSEC
  0
EOF
