  0
SECTION
  2
HEADER
  9
$ACADVER
  1
AC1015
  9
$ACADMAINTVER
 70
     6
  9
$DWGCODEPAGE
  3
ANSI_1252
  9
$INSBASE
 10
0.0
 20
0.0
 30
0.0
  9
$EXTMIN
 10
1.000000000000000E+20
 20
1.000000000000000E+20
 30
1.000000000000000E+20
  9
$EXTMAX
 10
-1.000000000000000E+20
 20
-1.000000000000000E+20
 30
-1.000000000000000E+20
  9
$LIMMIN
 10
0.0
 20
0.0
  9
$LIMMAX
 10
12.0
 20
9.0
  9
$ORTHOMODE
 70
     0
  9
$REGENMODE
 70
     1
  9
$FILLMODE
 70
     1
  9
$QTEXTMODE
 70
     0
  9
$MIRRTEXT
 70
     1
  9
$LTSCALE
 40
1.0
  9
$ATTMODE
 70
     1
  9
$TEXTSIZE
 40
0.2
  9
$TRACEWID
 40
0.05
  9
$TEXTSTYLE
  7
Standard
  9
$CLAYER
  8
0
  9
$CELTYPE
  6
ByLayer
  9
$CECOLOR
 62
   256
  9
$CELTSCALE
 40
1.0
  9
$DISPSILH
 70
     0
  9
$DIMSCALE
 40
1.0
  9
$DIMASZ
 40
0.18
  9
$DIMEXO
 40
0.0625
  9
$DIMDLI
 40
0.38
  9
$DIMRND
 40
0.0
  9
$DIMDLE
 40
0.0
  9
$DIMEXE
 40
0.18
  9
$DIMTP
 40
0.0
  9
$DIMTM
 40
0.0
  9
$DIMTXT
 40
0.18
  9
$DIMCEN
 40
0.09
  9
$DIMTSZ
 40
0.0
  9
$DIMTOL
 70
     0
  9
$DIMLIM
 70
     0
  9
$DIMTIH
 70
     1
  9
$DIMTOH
 70
     1
  9
$DIMSE1
 70
     0
  9
$DIMSE2
 70
     0
  9
$DIMTAD
 70
     0
  9
$DIMZIN
 70
     0
  9
$DIMBLK
  1

  9
$DIMASO
 70
     1
  9
$DIMSHO
 70
     1
  9
$DIMPOST
  1

  9
$DIMAPOST
  1

  9
$DIMALT
 70
     0
  9
$DIMALTD
 70
     2
  9
$DIMALTF
 40
25.4
  9
$DIMLFAC
 40
1.0
  9
$DIMTOFL
 70
     0
  9
$DIMTVP
 40
0.0
  9
$DIMTIX
 70
     0
  9
$DIMSOXD
 70
     0
  9
$DIMSAH
 70
     0
  9
$DIMBLK1
  1

  9
$DIMBLK2
  1

  9
$DIMSTYLE
  2
Standard
  9
$DIMCLRD
 70
     0
  9
$DIMCLRE
 70
     0
  9
$DIMCLRT
 70
     0
  9
$DIMTFAC
 40
1.0
  9
$DIMGAP
 40
0.09
  9
$DIMJUST
 70
     0
  9
$DIMSD1
 70
     0
  9
$DIMSD2
 70
     0
  9
$DIMTOLJ
 70
     1
  9
$DIMTZIN
 70
     0
  9
$DIMALTZ
 70
     0
  9
$DIMALTTZ
 70
     0
  9
$DIMUPT
 70
     0
  9
$DIMDEC
 70
     4
  9
$DIMTDEC
 70
     4
  9
$DIMALTU
 70
     2
  9
$DIMALTTD
 70
     2
  9
$DIMTXSTY
  7
Standard
  9
$DIMAUNIT
 70
     0
  9
$DIMADEC
 70
     0
  9
$DIMALTRND
 40
0.0
  9
$DIMAZIN
 70
     0
  9
$DIMDSEP
 70
    46
  9
$DIMATFIT
 70
     3
  9
$DIMFRAC
 70
     0
  9
$DIMLDRBLK
  1

  9
$DIMLUNIT
 70
     2
  9
$DIMLWD
 70
    -2
  9
$DIMLWE
 70
    -2
  9
$DIMTMOVE
 70
     0
  9
$LUNITS
 70
     2
  9
$LUPREC
 70
     4
  9
$SKETCHINC
 40
0.1
  9
$FILLETRAD
 40
0.5
  9
$AUNITS
 70
     0
  9
$AUPREC
 70
     0
  9
$MENU
  1
.
  9
$ELEVATION
 40
0.0
  9
$PELEVATION
 40
0.0
  9
$THICKNESS
 40
0.0
  9
$LIMCHECK
 70
     0
  9
$CHAMFERA
 40
0.5
  9
$CHAMFERB
 40
0.5
  9
$CHAMFERC
 40
1.0
  9
$CHAMFERD
 40
0.0
  9
$SKPOLY
 70
     0
  9
$TDCREATE
 40
2456510.558342789
  9
$TDUCREATE
 40
2456510.162509456
  9
$TDUPDATE
 40
2456510.558342801
  9
$TDUUPDATE
 40
2456510.162509467
  9
$TDINDWG
 40
0.0000000116
  9
$TDUSRTIMER
 40
0.0000000116
  9
$USRTIMER
 70
     1
  9
$ANGBASE
 50
0.0
  9
$ANGDIR
 70
     0
  9
$PDMODE
 70
     0
  9
$PDSIZE
 40
0.0
  9
$PLINEWID
 40
0.0
  9
$SPLFRAME
 70
     0
  9
$SPLINETYPE
 70
     6
  9
$SPLINESEGS
 70
     8
  9
$HANDSEED
  5
5DC
  9
$SURFTAB1
 70
     6
  9
$SURFTAB2
 70
     6
  9
$SURFTYPE
 70
     6
  9
$SURFU
 70
     6
  9
$SURFV
 70
     6
  9
$UCSBASE
  2

  9
$UCSNAME
  2

  9
$UCSORG
 10
0.0
 20
0.0
 30
0.0
  9
$UCSXDIR
 10
1.0
 20
0.0
 30
0.0
  9
$UCSYDIR
 10
0.0
 20
1.0
 30
0.0
  9
$UCSORTHOREF
  2

  9
$UCSORTHOVIEW
 70
     0
  9
$UCSORGTOP
 10
0.0
 20
0.0
 30
0.0
  9
$UCSORGBOTTOM
 10
0.0
 20
0.0
 30
0.0
  9
$UCSORGLEFT
 10
0.0
 20
0.0
 30
0.0
  9
$UCSORGRIGHT
 10
0.0
 20
0.0
 30
0.0
  9
$UCSORGFRONT
 10
0.0
 20
0.0
 30
0.0
  9
$UCSORGBACK
 10
0.0
 20
0.0
 30
0.0
  9
$PUCSBASE
  2

  9
$PUCSNAME
  2

  9
$PUCSORG
 10
0.0
 20
0.0
 30
0.0
  9
$PUCSXDIR
 10
1.0
 20
0.0
 30
0.0
  9
$PUCSYDIR
 10
0.0
 20
1.0
 30
0.0
  9
$PUCSORTHOREF
  2

  9
$PUCSORTHOVIEW
 70
     0
  9
$PUCSORGTOP
 10
0.0
 20
0.0
 30
0.0
  9
$PUCSORGBOTTOM
 10
0.0
 20
0.0
 30
0.0
  9
$PUCSORGLEFT
 10
0.0
 20
0.0
 30
0.0
  9
$PUCSORGRIGHT
 10
0.0
 20
0.0
 30
0.0
  9
$PUCSORGFRONT
 10
0.0
 20
0.0
 30
0.0
  9
$PUCSORGBACK
 10
0.0
 20
0.0
 30
0.0
  9
$USERI1
 70
     0
  9
$USERI2
 70
     0
  9
$USERI3
 70
     0
  9
$USERI4
 70
     0
  9
$USERI5
 70
     0
  9
$USERR1
 40
0.0
  9
$USERR2
 40
0.0
  9
$USERR3
 40
0.0
  9
$USERR4
 40
0.0
  9
$USERR5
 40
0.0
  9
$WORLDVIEW
 70
     1
  9
$SHADEDGE
 70
     3
  9
$SHADEDIF
 70
    70
  9
$TILEMODE
 70
     1
  9
$MAXACTVP
 70
    64
  9
$PINSBASE
 10
0.0
 20
0.0
 30
0.0
  9
$PLIMCHECK
 70
     0
  9
$PEXTMIN
 10
1.000000000000000E+20
 20
1.000000000000000E+20
 30
1.000000000000000E+20
  9
$PEXTMAX
 10
-1.000000000000000E+20
 20
-1.000000000000000E+20
 30
-1.000000000000000E+20
  9
$PLIMMIN
 10
0.0
 20
0.0
  9
$PLIMMAX
 10
12.0
 20
9.0
  9
$UNITMODE
 70
     0
  9
$VISRETAIN
 70
     1
  9
$PLINEGEN
 70
     0
  9
$PSLTSCALE
 70
     1
  9
$TREEDEPTH
 70
  3020
  9
$CMLSTYLE
  2
Standard
  9
$CMLJUST
 70
     0
  9
$CMLSCALE
 40
1.0
  9
$PROXYGRAPHICS
 70
     1
  9
$MEASUREMENT
 70
     0
  9
$CELWEIGHT
370
    -1
  9
$ENDCAPS
280
     0
  9
$JOINSTYLE
280
     0
  9
$LWDISPLAY
290
     1
  9
$INSUNITS
 70
     1
  9
$HYPERLINKBASE
  1

  9
$STYLESHEET
  1

  9
$XEDIT
290
     1
  9
$CEPSNTYPE
380
     0
  9
$PSTYLEMODE
290
     1
  9
$FINGERPRINTGUID
  2
{E0541437-312E-4FB1-9561-6BC086891BFF}
  9
$VERSIONGUID
  2
{FAEB1C32-E019-11D5-929B-00C0DF256EC4}
  9
$EXTNAMES
290
     1
  9
$PSVPSCALE
 40
0.0
  9
$OLESTARTUP
290
     0
  0
ENDSEC
  0
SECTION
  2
CLASSES
  0
CLASS
  1
ACDBDICTIONARYWDFLT
  2
AcDbDictionaryWithDefault
  3
ObjectDBX Classes
 90
        0
280
     0
281
     0
  0
CLASS
  1
VISUALSTYLE
  2
AcDbVisualStyle
  3
ObjectDBX Classes
 90
     4095
280
     0
281
     0
  0
CLASS
  1
ACDBPLACEHOLDER
  2
AcDbPlaceHolder
  3
ObjectDBX Classes
 90
        0
280
     0
281
     0
  0
CLASS
  1
LAYOUT
  2
AcDbLayout
  3
ObjectDBX Classes
 90
        0
280
     0
281
     0
  0
ENDSEC
  0
SECTION
  2
TABLES
  0
TABLE
  2
VPORT
  5
8
330
0
100
AcDbSymbolTable
 70
     1
  0
VPORT
  5
29
330
8
100
AcDbSymbolTableRecord
100
AcDbViewportTableRecord
  2
*Active
 70
     0
 10
0.0
 20
0.0
 11
1.0
 21
1.0
 12
0.0
 22
0.0
 13
0.0
 23
0.0
 14
0.5
 24
0.5
 15
0.5
 25
0.5
 16
0.0
 26
0.0
 36
1.0
 17
431.6236110032053
 27
689.6805553831355
 37
0.0
 40
1379.361110766271
 41
1.097953964194373
 42
50.0
 43
0.0
 44
0.0
 50
0.0
 51
0.0
 71
     0
 72
   100
 73
     1
 74
     3
 75
     0
 76
     0
 77
     0
 78
     0
281
     0
 65
     1
110
0.0
120
0.0
130
0.0
111
1.0
121
0.0
131
0.0
112
0.0
122
1.0
132
0.0
 79
     0
146
0.0
  0
ENDTAB
  0
TABLE
  2
LTYPE
  5
5
330
0
100
AcDbSymbolTable
 70
     1
  0
LTYPE
  5
14
330
5
100
AcDbSymbolTableRecord
100
AcDbLinetypeTableRecord
  2
ByBlock
 70
     0
  3

 72
    65
 73
     0
 40
0.0
  0
LTYPE
  5
15
330
5
100
AcDbSymbolTableRecord
100
AcDbLinetypeTableRecord
  2
ByLayer
 70
     0
  3

 72
    65
 73
     0
 40
0.0
  0
LTYPE
  5
16
330
5
100
AcDbSymbolTableRecord
100
AcDbLinetypeTableRecord
  2
Continuous
 70
     0
  3
Solid line
 72
    65
 73
     0
 40
0.0
  0
ENDTAB
  0
TABLE
  2
LAYER
  5
2
330
0
100
AcDbSymbolTable
 70
     2
  0
LAYER
  5
10
330
2
100
AcDbSymbolTableRecord
100
AcDbLayerTableRecord
  2
0
 70
     0
 62
     7
  6
Continuous
370
    -3
390
F
  0
LAYER
  5
3B
330
2
100
AcDbSymbolTableRecord
100
AcDbLayerTableRecord
  2
Layer 1
 70
     0
 62
     7
  6
Continuous
370
    -3
390
F
  0
ENDTAB
  0
TABLE
  2
STYLE
  5
3
330
0
100
AcDbSymbolTable
 70
     1
  0
STYLE
  5
11
330
3
100
AcDbSymbolTableRecord
100
AcDbTextStyleTableRecord
  2
Standard
 70
     0
 40
0.0
 41
1.0
 50
0.0
 71
     0
 42
0.2
  3
txt
  4

  0
ENDTAB
  0
TABLE
  2
VIEW
  5
6
330
0
100
AcDbSymbolTable
 70
     0
  0
ENDTAB
  0
TABLE
  2
UCS
  5
7
330
0
100
AcDbSymbolTable
 70
     0
  0
ENDTAB
  0
TABLE
  2
APPID
  5
9
330
0
100
AcDbSymbolTable
 70
     1
  0
APPID
  5
12
330
9
100
AcDbSymbolTableRecord
100
AcDbRegAppTableRecord
  2
ACAD
 70
     0
  0
ENDTAB
  0
TABLE
  2
DIMSTYLE
  5
A
330
0
100
AcDbSymbolTable
 70
     1
100
AcDbDimStyleTable
  0
DIMSTYLE
105
27
330
A
100
AcDbSymbolTableRecord
100
AcDbDimStyleTableRecord
  2
Standard
 70
     0
340
11
  0
ENDTAB
  0
TABLE
  2
BLOCK_RECORD
  5
1
330
0
100
AcDbSymbolTable
 70
     3
  0
BLOCK_RECORD
  5
1F
330
1
100
AcDbSymbolTableRecord
100
AcDbBlockTableRecord
  2
*Model_Space
340
22
  0
BLOCK_RECORD
  5
1B
330
1
100
AcDbSymbolTableRecord
100
AcDbBlockTableRecord
  2
*Paper_Space
340
1E
  0
BLOCK_RECORD
  5
23
330
1
100
AcDbSymbolTableRecord
100
AcDbBlockTableRecord
  2
*Paper_Space0
340
26
  0
BLOCK_RECORD
  5
3C
330
1
100
AcDbSymbolTableRecord
100
AcDbBlockTableRecord
  2
block 2
340
0
102
{BLKREFS
331
3D
102
}
  0
BLOCK_RECORD
  5
5C8
330
1
100
AcDbSymbolTableRecord
100
AcDbBlockTableRecord
  2
block 3
340
0
102
{BLKREFS
331
5C9
102
}
  0
ENDTAB
  0
ENDSEC
  0
SECTION
  2
BLOCKS
  0
BLOCK
  5
20
330
1F
100
AcDbEntity
  8
0
100
AcDbBlockBegin
  2
*Model_Space
 70
     0
 71
     0
 10
0.0
 20
0.0
 30
0.0
  3
*Model_Space
  1

  0
ENDBLK
  5
21
330
1F
100
AcDbEntity
  8
0
100
AcDbBlockEnd
  0
BLOCK
  5
1C
330
1B
100
AcDbEntity
 67
     1
  8
0
100
AcDbBlockBegin
  2
*Paper_Space
 70
     0
 71
     0
 10
0.0
 20
0.0
 30
0.0
  3
*Paper_Space
  1

  0
ENDBLK
  5
1D
330
1B
100
AcDbEntity
 67
     1
  8
0
100
AcDbBlockEnd
  0
BLOCK
  5
24
330
23
100
AcDbEntity
  8
0
100
AcDbBlockBegin
  2
*Paper_Space0
 70
     0
 71
     0
 10
0.0
 20
0.0
 30
0.0
  3
*Paper_Space0
  1

  0
ENDBLK
  5
25
330
23
100
AcDbEntity
  8
0
100
AcDbBlockEnd
  0
BLOCK
  5
3E
330
3C
100
AcDbEntity
  8
0
100
AcDbBlockBegin
  2
block 2
 70
     0
 71
     0
 10
0.0
 20
0.0
 30
0.0
  3
block 2
  1

  0
SPLINE
  5
40
330
3C
100
AcDbEntity
  8
Layer 1
 62
     7
370
    15
100
AcDbSpline
210
0.0
220
0.0
230
1.0
 70
     8
 71
     3
 72
     8
 73
     4
 74
     0
 42
0.0000000001
 43
0.0000000001
 40
0.0
 40
0.0
 40
0.0
 40
0.0
 40
1.0
 40
1.0
 40
1.0
 40
1.0
 10
542.7451658799388
 20
92.33407115747204
 30
0.0
 10
550.0525579137021
 20
92.53526473381064
 30
0.0
 10
557.3599499474656
 20
92.7374918387948
 30
0.0
 10
564.7737954317232
 20
92.94213051061864
 30
0.0
  0
SPLINE
  5
41
330
3C
100
AcDbEntity
  8
Layer 1
 62
     7
370
    15
100
AcDbSpline
210
0.0
220
0.0
230
1.0
 70
     8
 71
     3
 72
     8
 73
     4
 74
     0
 42
0.0000000001
 43
0.0000000001
 40
0.0
 40
0.0
 40
0.0
 40
0.0
 40
1.0
 40
1.0
 40
1.0
 40
1.0
 10
564.7737954317232
 20
92.94213051061864
 30
0.0
 10
572.2169242276055
 20
93.14745820153954
 30
0.0
 10
579.7678845121761
 20
93.35623098794566
 30
0.0
 10
587.3980819929075
 20
93.56775985074
 30
0.0
  0
SPLINE
  5
42
330
3C
100
AcDbEntity
  8
Layer 1
 62
     7
370
    15
100
AcDbSpline
210
0.0
220
0.0
230
1.0
 70
     8
 71
     3
 72
     8
 73
     4
 74
     0
 42
0.0000000001
 43
0.0000000001
 40
0.0
 40
0.0
 40
0.0
 40
0.0
 40
1.0
 40
1.0
 40
1.0
 40
1.0
 10
587.3980819929075
 20
93.56775985074
 30
0.0
 10
594.8605033235071
 20
93.7730875416609
 30
0.0
 10
602.3990612643308
 20
93.98186032806704
 30
0.0
 10
610.0234020827372
 20
94.1923556622158
 30
0.0
  0
SPLINE
  5
43
330
3C
100
AcDbEntity
  8
Layer 1
 62
     7
370
    15
100
AcDbSpline
210
0.0
220
0.0
230
1.0
 70
     8
 71
     3
 72
     8
 73
     4
 74
     0
 42
0.0000000001
 43
0.0000000001
 40
0.0
 40
0.0
 40
0.0
 40
0.0
 40
1.0
 40
1.0
 40
1.0
 40
1.0
 10
610.0234020827372
 20
94.1923556622158
 30
0.0
 10
617.4837563560458
 20
94.39871688178226
 30
0.0
 10
625.0257593923546
 20
94.60680064909135
 30
0.0
 10
632.648722172567
 20
94.81729598324013
 30
0.0
  0
SPLINE
  5
44
330
3C
100
AcDbEntity
  8
Layer 1
 62
     7
370
    15
100
AcDbSpline
210
0.0
220
0.0
230
1.0
 70
     8
 71
     3
 72
     8
 73
     4
 74
     0
 42
0.0000000001
 43
0.0000000001
 40
0.0
 40
0.0
 40
0.0
 40
0.0
 40
1.0
 40
1.0
 40
1.0
 40
1.0
 10
632.648722172567
 20
94.81729598324013
 30
0.0
 10
640.1125215413608
 20
95.02331269325806
 30
0.0
 10
647.6528020299271
 20
95.23139646056715
 30
0.0
 10
655.2730087337512
 20
95.44189179471591
 30
0.0
  0
SPLINE
  5
45
330
3C
100
AcDbEntity
  8
Layer 1
 62
     7
370
    15
100
AcDbSpline
210
0.0
220
0.0
230
1.0
 70
     8
 71
     3
 72
     8
 73
     4
 74
     0
 42
0.0000000001
 43
0.0000000001
 40
0.0
 40
0.0
 40
0.0
 40
0.0
 40
1.0
 40
1.0
 40
1.0
 40
1.0
 10
655.2730087337512
 20
95.44189179471591
 30
0.0
 10
662.7409422171273
 20
95.64825301428239
 30
0.0
 10
670.2853568202759
 20
95.85702580068853
 30
0.0
 10
677.898328823581
 20
96.06752113483729
 30
0.0
  0
SPLINE
  5
46
330
3C
100
AcDbEntity
  8
Layer 1
 62
     7
370
    15
100
AcDbSpline
210
0.0
220
0.0
230
1.0
 70
     8
 71
     3
 72
     8
 73
     4
 74
     0
 42
0.0000000001
 43
0.0000000001
 40
0.0
 40
0.0
 40
0.0
 40
0.0
 40
1.0
 40
1.0
 40
1.0
 40
1.0
 10
677.898328823581
 20
96.06752113483729
 30
0.0
 10
685.3669513260542
 20
96.27388235440375
 30
0.0
 10
692.901719661844
 20
96.48162161216432
 30
0.0
 10
700.5233044038623
 20
96.69211694631309
 30
0.0
  0
SPLINE
  5
47
330
3C
100
AcDbEntity
  8
Layer 1
 62
     7
370
    15
100
AcDbSpline
210
0.0
220
0.0
230
1.0
 70
     8
 71
     3
 72
     8
 73
     4
 74
     0
 42
0.0000000001
 43
0.0000000001
 40
0.0
 40
0.0
 40
0.0
 40
0.0
 40
1.0
 40
1.0
 40
1.0
 40
1.0
 10
700.5233044038623
 20
96.69211694631309
 30
0.0
 10
708.0088078742131
 20
96.89951169452513
 30
0.0
 10
715.578371674404
 20
97.10828448093126
 30
0.0
 10
723.147935474595
 20
97.3170572673374
 30
0.0
  0
SPLINE
  5
48
330
3C
100
AcDbEntity
  8
Layer 1
 62
     7
370
    15
100
AcDbSpline
210
0.0
220
0.0
230
1.0
 70
     8
 71
     3
 72
     8
 73
     4
 74
     0
 42
0.0000000001
 43
0.0000000001
 40
0.0
 40
0.0
 40
0.0
 40
0.0
 40
1.0
 40
1.0
 40
1.0
 40
1.0
 10
243.0661281401883
 20
97.3170572673374
 30
0.0
 10
249.7449625026679
 20
97.13308916842506
 30
0.0
 10
256.4243136294703
 20
96.94843205041568
 30
0.0
 10
263.2163193786404
 20
96.76032983692103
 30
0.0
  0
SPLINE
  5
49
330
3C
100
AcDbEntity
  8
Layer 1
 62
     7
370
    15
100
AcDbSpline
210
0.0
220
0.0
230
1.0
 70
     8
 71
     3
 72
     8
 73
     4
 74
     0
 42
0.0000000001
 43
0.0000000001
 40
0.0
 40
0.0
 40
0.0
 40
0.0
 40
1.0
 40
1.0
 40
1.0
 40
1.0
 10
263.2163193786404
 20
96.76032983692103
 30
0.0
 10
270.0787773304838
 20
96.5708495852323
 30
0.0
 10
277.0566459810831
 20
96.37861325715535
 30
0.0
 10
284.0737887202142
 20
96.18465438133579
 30
0.0
  0
SPLINE
  5
4A
330
3C
100
AcDbEntity
  8
Layer 1
 62
     7
370
    15
100
AcDbSpline
210
0.0
220
0.0
230
1.0
 70
     8
 71
     3
 72
     8
 73
     4
 74
     0
 42
0.0000000001
 43
0.0000000001
 40
0.0
 40
0.0
 40
0.0
 40
0.0
 40
1.0
 40
1.0
 40
1.0
 40
1.0
 10
284.0737887202142
 20
96.18465438133579
 30
0.0
 10
291.2282185144326
 20
95.98690590048244
 30
0.0
 10
298.4233004353768
 20
95.78812389098353
 30
0.0
 10
305.6383639101356
 20
95.58899737193609
 30
0.0
  0
SPLINE
  5
4B
330
3C
100
AcDbEntity
  8
Layer 1
 62
     7
370
    15
100
AcDbSpline
210
0.0
220
0.0
230
1.0
 70
     8
 71
     3
 72
     8
 73
     4
 74
     0
 42
0.0000000001
 43
0.0000000001
 40
0.0
 40
0.0
 40
0.0
 40
0.0
 40
1.0
 40
1.0
 40
1.0
 40
1.0
 10
305.6383639101356
 20
95.58899737193609
 30
0.0
 10
313.0530706682645
 20
95.38366968101519
 30
0.0
 10
320.4881034897564
 20
95.17834199009431
 30
0.0
 10
327.9095281840816
 20
94.97335880872194
 30
0.0
  0
SPLINE
  5
4C
330
3C
100
AcDbEntity
  8
Layer 1
 62
     7
370
    15
100
AcDbSpline
210
0.0
220
0.0
230
1.0
 70
     8
 71
     3
 72
     8
 73
     4
 74
     0
 42
0.0000000001
 43
0.0000000001
 40
0.0
 40
0.0
 40
0.0
 40
0.0
 40
1.0
 40
1.0
 40
1.0
 40
1.0
 10
327.9095281840816
 20
94.97335880872194
 30
0.0
 10
332.9991399992155
 20
94.83279891292375
 30
0.0
 10
338.0820338781531
 20
94.69223901712556
 30
0.0
 10
343.1499415917299
 20
94.55271264997293
 30
0.0
  0
SPLINE
  5
4D
330
3C
100
AcDbEntity
  8
Layer 1
 62
     7
370
    15
100
AcDbSpline
210
0.0
220
0.0
230
1.0
 70
     8
 71
     3
 72
     8
 73
     4
 74
     0
 42
0.0000000001
 43
0.0000000001
 40
0.0
 40
0.0
 40
0.0
 40
0.0
 40
1.0
 40
1.0
 40
1.0
 40
1.0
 10
343.1499415917299
 20
94.55271264997293
 30
0.0
 10
348.3539305769741
 20
94.4087076586895
 30
0.0
 10
353.5417276134375
 20
94.26573619605162
 30
0.0
 10
358.7048922171815
 20
94.12242022386523
 30
0.0
  0
SPLINE
  5
4E
330
3C
100
AcDbEntity
  8
Layer 1
 62
     7
370
    15
100
AcDbSpline
210
0.0
220
0.0
230
1.0
 70
     8
 71
     3
 72
     8
 73
     4
 74
     0
 42
0.0000000001
 43
0.0000000001
 40
0.0
 40
0.0
 40
0.0
 40
0.0
 40
1.0
 40
1.0
 40
1.0
 40
1.0
 10
358.7048922171815
 20
94.12242022386523
 30
0.0
 10
364.0241196464072
 20
93.97600366574211
 30
0.0
 10
369.3169920951707
 20
93.82958710761899
 30
0.0
 10
374.5738632961135
 20
93.68420407814145
 30
0.0
  0
SPLINE
  5
4F
330
3C
100
AcDbEntity
  8
Layer 1
 62
     7
370
    15
100
AcDbSpline
210
0.0
220
0.0
230
1.0
 70
     8
 71
     3
 72
     8
 73
     4
 74
     0
 42
0.0000000001
 43
0.0000000001
 40
0.0
 40
0.0
 40
0.0
 40
0.0
 40
1.0
 40
1.0
 40
1.0
 40
1.0
 10
374.5738632961135
 20
93.68420407814145
 30
0.0
 10
380.007812404998
 20
93.53434242453308
 30
0.0
 10
385.4030041896736
 20
93.38551429957029
 30
0.0
 10
390.7568548285261
 20
93.23737519370455
 30
0.0
  0
SPLINE
  5
50
330
3C
100
AcDbEntity
  8
Layer 1
 62
     7
370
    15
100
AcDbSpline
210
0.0
220
0.0
230
1.0
 70
     8
 71
     3
 72
     8
 73
     4
 74
     0
 42
0.0000000001
 43
0.0000000001
 40
0.0
 40
0.0
 40
0.0
 40
0.0
 40
1.0
 40
1.0
 40
1.0
 40
1.0
 10
390.7568548285261
 20
93.23737519370455
 30
0.0
 10
396.3113822793944
 20
93.08441295415946
 30
0.0
 10
401.821467998503
 20
92.93213973371141
 30
0.0
 10
407.2542113239677
 20
92.781589061006
 30
0.0
  0
SPLINE
  5
51
330
3C
100
AcDbEntity
  8
Layer 1
 62
     7
370
    15
100
AcDbSpline
210
0.0
220
0.0
230
1.0
 70
     8
 71
     3
 72
     8
 73
     4
 74
     0
 42
0.0000000001
 43
0.0000000001
 40
0.0
 40
0.0
 40
0.0
 40
0.0
 40
1.0
 40
1.0
 40
1.0
 40
1.0
 10
407.2542113239677
 20
92.781589061006
 30
0.0
 10
412.7110703178292
 20
92.63103838830058
 30
0.0
 10
418.0897256441755
 20
92.48186575378926
 30
0.0
 10
423.4687254800704
 20
92.33407115747204
 30
0.0
  0
POLYLINE
  5
52
330
3C
100
AcDbEntity
  8
Layer 1
 62
     7
370
    15
100
AcDb2dPolyline
 66
     1
 10
0.0
 20
0.0
 30
0.0
  0
VERTEX
  5
53
330
52
100
AcDbEntity
  8
Layer 1
 62
     7
370
    15
100
AcDbVertex
100
AcDb2dVertex
 10
208.1075384679384
 20
323.8162379832821
 30
0.0
  0
VERTEX
  5
54
330
52
100
AcDbEntity
  8
Layer 1
 62
     7
370
    15
100
AcDbVertex
100
AcDb2dVertex
 10
218.1074448781988
 20
323.8162379832821
 30
0.0
  0
SEQEND
  5
55
330
52
100
AcDbEntity
  8
Layer 1
370
    15
  0
POLYLINE
  5
56
330
3C
100
AcDbEntity
  8
Layer 1
 62
     7
370
    15
100
AcDb2dPolyline
 66
     1
 10
0.0
 20
0.0
 30
0.0
  0
VERTEX
  5
57
330
56
100
AcDbEntity
  8
Layer 1
 62
     7
370
    15
100
AcDbVertex
100
AcDb2dVertex
 10
218.1074448781988
 20
322.3162434090043
 30
0.0
  0
VERTEX
  5
58
330
56
100
AcDbEntity
  8
Layer 1
 62
     7
370
    15
100
AcDbVertex
100
AcDb2dVertex
 10
218.1074448781988
 20
323.8162379832821
 30
0.0
  0
SEQEND
  5
59
330
56
100
AcDbEntity
  8
Layer 1
370
    15
  0
POLYLINE
  5
5A
330
3C
100
AcDbEntity
  8
Layer 1
 62
     7
370
    15
100
AcDb2dPolyline
 66
     1
 10
0.0
 20
0.0
 30
0.0
  0
VERTEX
  5
5B
330
5A
100
AcDbEntity
  8
Layer 1
 62
     7
370
    15
100
AcDbVertex
100
AcDb2dVertex
 10
208.1075384679384
 20
322.3162434090043
 30
0.0
  0
VERTEX
  5
5C
330
5A
100
AcDbEntity
  8
Layer 1
 62
     7
370
    15
100
AcDbVertex
100
AcDb2dVertex
 10
218.1074448781988
 20
322.3162434090043
 30
0.0
  0
SEQEND
  5
5D
330
5A
100
AcDbEntity
  8
Layer 1
370
    15
  0
POLYLINE
  5
5E
330
3C
100
AcDbEntity
  8
Layer 1
 62
     7
370
    15
100
AcDb2dPolyline
 66
     1
 10
0.0
 20
0.0
 30
0.0
  0
VERTEX
  5
5F
330
5E
100
AcDbEntity
  8
Layer 1
 62
     7
370
    15
100
AcDbVertex
100
AcDb2dVertex
 10
208.1075384679384
 20
322.3162434090043
 30
0.0
  0
VERTEX
  5
60
330
5E
100
AcDbEntity
  8
Layer 1
 62
     7
370
    15
100
AcDbVertex
100
AcDb2dVertex
 10
208.1075384679384
 20
323.8162379832821
 30
0.0
  0
SEQEND
  5
61
330
5E
100
AcDbEntity
  8
Layer 1
370
    15
  0
POLYLINE
  5
62
330
3C
100
AcDbEntity
  8
Layer 1
 62
     7
370
    15
100
AcDb2dPolyline
 66
     1
 10
0.0
 20
0.0
 30
0.0
  0
VERTEX
  5
63
330
62
100
AcDbEntity
  8
Layer 1
 62
     7
370
    15
100
AcDbVertex
100
AcDb2dVertex
 10
758.1066974016192
 20
322.3162434090043
 30
0.0
  0
VERTEX
  5
64
330
62
100
AcDbEntity
  8
Layer 1
 62
     7
370
    15
100
AcDbVertex
100
AcDb2dVertex
 10
758.1066974016192
 20
323.8162379832821
 30
0.0
  0
SEQEND
  5
65
330
62
100
AcDbEntity
  8
Layer 1
370
    15
  0
POLYLINE
  5
66
330
3C
100
AcDbEntity
  8
Layer 1
 62
     7
370
    15
100
AcDb2dPolyline
 66
     1
 10
0.0
 20
0.0
 30
0.0
  0
VERTEX
  5
67
330
66
100
AcDbEntity
  8
Layer 1
 62
     7
370
    15
100
AcDbVertex
100
AcDb2dVertex
 10
748.1066187365844
 20
322.3162434090043
 30
0.0
  0
VERTEX
  5
68
330
66
100
AcDbEntity
  8
Layer 1
 62
     7
370
    15
100
AcDbVertex
100
AcDb2dVertex
 10
748.1066187365844
 20
323.8162379832821
 30
0.0
  0
SEQEND
  5
69
330
66
100
AcDbEntity
  8
Layer 1
370
    15
  0
POLYLINE
  5
6A
330
3C
100
AcDbEntity
  8
Layer 1
 62
     7
370
    15
100
AcDb2dPolyline
 66
     1
 10
0.0
 20
0.0
 30
0.0
  0
VERTEX
  5
6B
330
6A
100
AcDbEntity
  8
Layer 1
 62
     7
370
    15
100
AcDbVertex
100
AcDb2dVertex
 10
748.1066187365844
 20
322.3162434090043
 30
0.0
  0
VERTEX
  5
6C
330
6A
100
AcDbEntity
  8
Layer 1
 62
     7
370
    15
100
AcDbVertex
100
AcDb2dVertex
 10
758.1066974016192
 20
322.3162434090043
 30
0.0
  0
SEQEND
  5
6D
330
6A
100
AcDbEntity
  8
Layer 1
370
    15
  0
POLYLINE
  5
6E
330
3C
100
AcDbEntity
  8
Layer 1
 62
     7
370
    15
100
AcDb2dPolyline
 66
     1
 10
0.0
 20
0.0
 30
0.0
  0
VERTEX
  5
6F
330
6E
100
AcDbEntity
  8
Layer 1
 62
     7
370
    15
100
AcDbVertex
100
AcDb2dVertex
 10
748.1066187365844
 20
323.8162379832821
 30
0.0
  0
VERTEX
  5
70
330
6E
100
AcDbEntity
  8
Layer 1
 62
     7
370
    15
100
AcDbVertex
100
AcDb2dVertex
 10
758.1066974016192
 20
323.8162379832821
 30
0.0
  0
SEQEND
  5
71
330
6E
100
AcDbEntity
  8
Layer 1
370
    15
  0
POLYLINE
  5
72
330
3C
100
AcDbEntity
  8
Layer 1
 62
     7
370
    15
100
AcDb2dPolyline
 66
     1
 10
0.0
 20
0.0
 30
0.0
  0
VERTEX
  5
73
330
72
100
AcDbEntity
  8
Layer 1
 62
     7
370
    15
100
AcDbVertex
100
AcDb2dVertex
 10
218.1074448781988
 20
322.3162434090043
 30
0.0
  0
VERTEX
  5
74
330
72
100
AcDbEntity
  8
Layer 1
 62
     7
370
    15
100
AcDbVertex
100
AcDb2dVertex
 10
748.1066187365844
 20
322.3162434090043
 30
0.0
  0
SEQEND
  5
75
330
72
100
AcDbEntity
  8
Layer 1
370
    15
  0
POLYLINE
  5
76
330
3C
100
AcDbEntity
  8
Layer 1
 62
     7
370
    15
100
AcDb2dPolyline
 66
     1
 10
0.0
 20
0.0
 30
0.0
  0
VERTEX
  5
77
330
76
100
AcDbEntity
  8
Layer 1
 62
     7
370
    15
100
AcDbVertex
100
AcDb2dVertex
 10
218.1074448781988
 20
323.8162379832821
 30
0.0
  0
VERTEX
  5
78
330
76
100
AcDbEntity
  8
Layer 1
 62
     7
370
    15
100
AcDbVertex
100
AcDb2dVertex
 10
748.1066187365844
 20
323.8162379832821
 30
0.0
  0
SEQEND
  5
79
330
76
100
AcDbEntity
  8
Layer 1
370
    15
  0
SPLINE
  5
7A
330
3C
100
AcDbEntity
  8
Layer 1
 62
     7
370
    15
100
AcDbSpline
210
0.0
220
0.0
230
1.0
 70
     8
 71
     3
 72
     8
 73
     4
 74
     0
 42
0.0000000001
 43
0.0000000001
 40
0.0
 40
0.0
 40
0.0
 40
0.0
 40
1.0
 40
1.0
 40
1.0
 40
1.0
 10
723.1279539207806
 20
97.3170572673374
 30
0.0
 10
729.4710637282226
 20
97.32877059198725
 30
0.0
 10
734.606323058536
 20
102.4740206992079
 30
0.0
 10
734.606323058536
 20
108.8164414875528
 30
0.0
  0
POLYLINE
  5
7B
330
3C
100
AcDbEntity
  8
Layer 1
 62
     7
370
    15
100
AcDb2dPolyline
 66
     1
 10
0.0
 20
0.0
 30
0.0
  0
VERTEX
  5
7C
330
7B
100
AcDbEntity
  8
Layer 1
 62
     7
370
    15
100
AcDbVertex
100
AcDb2dVertex
 10
723.1279539207806
 20
97.3170572673374
 30
0.0
  0
VERTEX
  5
7D
330
7B
100
AcDbEntity
  8
Layer 1
 62
     7
370
    15
100
AcDbVertex
100
AcDb2dVertex
 10
723.1279539207806
 20
97.3170572673374
 30
0.0
  0
SEQEND
  5
7E
330
7B
100
AcDbEntity
  8
Layer 1
370
    15
  0
SPLINE
  5
7F
330
3C
100
AcDbEntity
  8
Layer 1
 62
     7
370
    15
100
AcDbSpline
210
0.0
220
0.0
230
1.0
 70
    24
 71
     3
 72
     8
 73
     4
 74
     0
 42
0.0000000001
 43
0.0000000001
 40
0.0
 40
0.0
 40
0.0
 40
0.0
 40
1.0
 40
1.0
 40
1.0
 40
1.0
 10
723.1279539207806
 20
97.3170572673374
 30
0.0
 10
723.1279539207806
 20
97.3170572673374
 30
0.0
 10
723.1279539207806
 20
97.3170572673374
 30
0.0
 10
723.1286429398776
 20
97.3170572673374
 30
0.0
  0
SPLINE
  5
80
330
3C
100
AcDbEntity
  8
Layer 1
 62
     7
370
    15
100
AcDbSpline
210
0.0
220
0.0
230
1.0
 70
    24
 71
     3
 72
     8
 73
     4
 74
     0
 42
0.0000000001
 43
0.0000000001
 40
0.0
 40
0.0
 40
0.0
 40
0.0
 40
1.0
 40
1.0
 40
1.0
 40
1.0
 10
243.1076415407856
 20
97.3170572673374
 30
0.0
 10
243.1043687000746
 20
97.3170572673374
 30
0.0
 10
243.1009236045894
 20
97.3170572673374
 30
0.0
 10
243.0976507638784
 20
97.3170572673374
 30
0.0
  0
SPLINE
  5
81
330
3C
100
AcDbEntity
  8
Layer 1
 62
     7
370
    15
100
AcDbSpline
210
0.0
220
0.0
230
1.0
 70
    24
 71
     3
 72
     8
 73
     4
 74
     0
 42
0.0000000001
 43
0.0000000001
 40
0.0
 40
0.0
 40
0.0
 40
0.0
 40
1.0
 40
1.0
 40
1.0
 40
1.0
 10
243.0976507638784
 20
97.3170572673374
 30
0.0
 10
243.0943779231674
 20
97.3170572673374
 30
0.0
 10
243.0909328276821
 20
97.3170572673374
 30
0.0
 10
243.0876599869711
 20
97.3170572673374
 30
0.0
  0
SPLINE
  5
82
330
3C
100
AcDbEntity
  8
Layer 1
 62
     7
370
    15
100
AcDbSpline
210
0.0
220
0.0
230
1.0
 70
     8
 71
     3
 72
     8
 73
     4
 74
     0
 42
0.0000000001
 43
0.0000000001
 40
0.0
 40
0.0
 40
0.0
 40
0.0
 40
1.0
 40
1.0
 40
1.0
 40
1.0
 10
231.6073960466989
 20
108.8164414875528
 30
0.0
 10
231.6073960466989
 20
102.4740206992079
 30
0.0
 10
236.7436889056578
 20
97.32877059198725
 30
0.0
 10
243.0864542035513
 20
97.3170572673374
 30
0.0
  0
POLYLINE
  5
83
330
3C
100
AcDbEntity
  8
Layer 1
 62
     7
370
    15
100
AcDb2dPolyline
 66
     1
 10
0.0
 20
0.0
 30
0.0
  0
VERTEX
  5
84
330
83
100
AcDbEntity
  8
Layer 1
 62
     7
370
    15
100
AcDbVertex
100
AcDb2dVertex
 10
231.6073960466989
 20
108.8164414875528
 30
0.0
  0
VERTEX
  5
85
330
83
100
AcDbEntity
  8
Layer 1
 62
     7
370
    15
100
AcDbVertex
100
AcDb2dVertex
 10
231.6073960466989
 20
322.3162434090043
 30
0.0
  0
SEQEND
  5
86
330
83
100
AcDbEntity
  8
Layer 1
370
    15
  0
POLYLINE
  5
87
330
3C
100
AcDbEntity
  8
Layer 1
 62
     7
370
    15
100
AcDb2dPolyline
 66
     1
 10
0.0
 20
0.0
 30
0.0
  0
VERTEX
  5
88
330
87
100
AcDbEntity
  8
Layer 1
 62
     7
370
    15
100
AcDbVertex
100
AcDb2dVertex
 10
734.606323058536
 20
108.8164414875528
 30
0.0
  0
VERTEX
  5
89
330
87
100
AcDbEntity
  8
Layer 1
 62
     7
370
    15
100
AcDbVertex
100
AcDb2dVertex
 10
734.606323058536
 20
322.3162434090043
 30
0.0
  0
SEQEND
  5
8A
330
87
100
AcDbEntity
  8
Layer 1
370
    15
  0
SPLINE
  5
8B
330
3C
100
AcDbEntity
  8
Layer 1
 62
     7
370
    15
100
AcDbSpline
210
0.0
220
0.0
230
1.0
 70
     8
 71
     3
 72
     8
 73
     4
 74
     0
 42
0.0000000001
 43
0.0000000001
 40
0.0
 40
0.0
 40
0.0
 40
0.0
 40
1.0
 40
1.0
 40
1.0
 40
1.0
 10
529.1070663824802
 20
92.33303762882646
 30
0.0
 10
529.9828096548307
 20
92.33303762882646
 30
0.0
 10
530.8464950929829
 20
92.33131508108384
 30
0.0
 10
531.6974336778395
 20
92.33131508108384
 30
0.0
  0
SPLINE
  5
8C
330
3C
100
AcDbEntity
  8
Layer 1
 62
     7
370
    15
100
AcDbSpline
210
0.0
220
0.0
230
1.0
 70
     8
 71
     3
 72
     8
 73
     4
 74
     0
 42
0.0000000001
 43
0.0000000001
 40
0.0
 40
0.0
 40
0.0
 40
0.0
 40
1.0
 40
1.0
 40
1.0
 40
1.0
 10
531.6974336778395
 20
92.33131508108384
 30
0.0
 10
532.1225584607193
 20
92.33062606198679
 30
0.0
 10
532.5452716767595
 20
92.33062606198679
 30
0.0
 10
532.9645397973145
 20
92.33062606198679
 30
0.0
  0
SPLINE
  5
8D
330
3C
100
AcDbEntity
  8
Layer 1
 62
     7
370
    15
100
AcDbSpline
210
0.0
220
0.0
230
1.0
 70
     8
 71
     3
 72
     8
 73
     4
 74
     0
 42
0.0000000001
 43
0.0000000001
 40
0.0
 40
0.0
 40
0.0
 40
0.0
 40
1.0
 40
1.0
 40
1.0
 40
1.0
 10
532.9645397973145
 20
92.33062606198679
 30
0.0
 10
533.3838079178694
 20
92.33062606198679
 30
0.0
 10
533.7961858474538
 20
92.32959253334121
 30
0.0
 10
534.1982284905824
 20
92.32959253334121
 30
0.0
  0
SPLINE
  5
8E
330
3C
100
AcDbEntity
  8
Layer 1
 62
     7
370
    15
100
AcDbSpline
210
0.0
220
0.0
230
1.0
 70
     8
 71
     3
 72
     8
 73
     4
 74
     0
 42
0.0000000001
 43
0.0000000001
 40
0.0
 40
0.0
 40
0.0
 40
0.0
 40
1.0
 40
1.0
 40
1.0
 40
1.0
 10
534.1982284905824
 20
92.32959253334121
 30
0.0
 10
535.0016247577427
 20
92.32959253334121
 30
0.0
 10
535.7688475223079
 20
92.32890351424416
 30
0.0
 10
536.4985187460837
 20
92.32890351424416
 30
0.0
  0
SPLINE
  5
8F
330
3C
100
AcDbEntity
  8
Layer 1
 62
     7
370
    15
100
AcDbSpline
210
0.0
220
0.0
230
1.0
 70
    24
 71
     3
 72
     8
 73
     4
 74
     0
 42
0.0000000001
 43
0.0000000001
 40
0.0
 40
0.0
 40
0.0
 40
0.0
 40
1.0
 40
1.0
 40
1.0
 40
1.0
 10
536.4985187460837
 20
92.32890351424416
 30
0.0
 10
536.8626653388746
 20
92.32890351424416
 30
0.0
 10
537.2195772311466
 20
92.32890351424416
 30
0.0
 10
537.5623642319289
 20
92.32890351424416
 30
0.0
  0
SPLINE
  5
90
330
3C
100
AcDbEntity
  8
Layer 1
 62
     7
370
    15
100
AcDbSpline
210
0.0
220
0.0
230
1.0
 70
     8
 71
     3
 72
     8
 73
     4
 74
     0
 42
0.0000000001
 43
0.0000000001
 40
0.0
 40
0.0
 40
0.0
 40
0.0
 40
1.0
 40
1.0
 40
1.0
 40
1.0
 10
537.5623642319289
 20
92.32890351424416
 30
0.0
 10
537.9051512327112
 20
92.32821449514712
 30
0.0
 10
538.2345023611011
 20
92.32821449514712
 30
0.0
 10
538.5507621266471
 20
92.32821449514712
 30
0.0
  0
POLYLINE
  5
91
330
3C
100
AcDbEntity
  8
Layer 1
 62
     7
370
    15
100
AcDb2dPolyline
 66
     1
 10
0.0
 20
0.0
 30
0.0
  0
VERTEX
  5
92
330
91
100
AcDbEntity
  8
Layer 1
 62
     7
370
    15
100
AcDbVertex
100
AcDb2dVertex
 10
437.1069972323031
 20
92.33303762882646
 30
0.0
  0
VERTEX
  5
93
330
91
100
AcDbEntity
  8
Layer 1
 62
     7
370
    15
100
AcDbVertex
100
AcDb2dVertex
 10
529.1070663824802
 20
92.33303762882646
 30
0.0
  0
SEQEND
  5
94
330
91
100
AcDbEntity
  8
Layer 1
370
    15
  0
SPLINE
  5
95
330
3C
100
AcDbEntity
  8
Layer 1
 62
     7
370
    15
100
AcDbSpline
210
0.0
220
0.0
230
1.0
 70
     8
 71
     3
 72
     8
 73
     4
 74
     0
 42
0.0000000001
 43
0.0000000001
 40
0.0
 40
0.0
 40
0.0
 40
0.0
 40
1.0
 40
1.0
 40
1.0
 40
1.0
 10
427.6636459976848
 20
92.32821449514712
 30
0.0
 10
428.2951320001311
 20
92.32821449514712
 30
0.0
 10
428.9755383584679
 20
92.32890351424416
 30
0.0
 10
429.7034870345012
 20
92.32890351424416
 30
0.0
  0
SPLINE
  5
96
330
3C
100
AcDbEntity
  8
Layer 1
 62
     7
370
    15
100
AcDbSpline
210
0.0
220
0.0
230
1.0
 70
    24
 71
     3
 72
     8
 73
     4
 74
     0
 42
0.0000000001
 43
0.0000000001
 40
0.0
 40
0.0
 40
0.0
 40
0.0
 40
1.0
 40
1.0
 40
1.0
 40
1.0
 10
429.7034870345012
 20
92.32890351424416
 30
0.0
 10
430.0674613725179
 20
92.32890351424416
 30
0.0
 10
430.4434935447329
 20
92.32890351424416
 30
0.0
 10
430.8315835511463
 20
92.32890351424416
 30
0.0
  0
SPLINE
  5
97
330
3C
100
AcDbEntity
  8
Layer 1
 62
     7
370
    15
100
AcDbSpline
210
0.0
220
0.0
230
1.0
 70
     8
 71
     3
 72
     8
 73
     4
 74
     0
 42
0.0000000001
 43
0.0000000001
 40
0.0
 40
0.0
 40
0.0
 40
0.0
 40
1.0
 40
1.0
 40
1.0
 40
1.0
 10
430.8315835511463
 20
92.32890351424416
 30
0.0
 10
431.2196735575597
 20
92.32959253334121
 30
0.0
 10
431.6163763026862
 20
92.32959253334121
 30
0.0
 10
432.0182466910406
 20
92.32959253334121
 30
0.0
  0
SPLINE
  5
98
330
3C
100
AcDbEntity
  8
Layer 1
 62
     7
370
    15
100
AcDbSpline
210
0.0
220
0.0
230
1.0
 70
     8
 71
     3
 72
     8
 73
     4
 74
     0
 42
0.0000000001
 43
0.0000000001
 40
0.0
 40
0.0
 40
0.0
 40
0.0
 40
1.0
 40
1.0
 40
1.0
 40
1.0
 10
432.0182466910406
 20
92.32959253334121
 30
0.0
 10
432.8218152129751
 20
92.32959253334121
 30
0.0
 10
433.6496716580806
 20
92.33062606198679
 30
0.0
 10
434.50233279068
 20
92.33131508108384
 30
0.0
  0
SPLINE
  5
99
330
3C
100
AcDbEntity
  8
Layer 1
 62
     7
370
    15
100
AcDbSpline
210
0.0
220
0.0
230
1.0
 70
     8
 71
     3
 72
     8
 73
     4
 74
     0
 42
0.0000000001
 43
0.0000000001
 40
0.0
 40
0.0
 40
0.0
 40
0.0
 40
1.0
 40
1.0
 40
1.0
 40
1.0
 10
434.50233279068
 20
92.33131508108384
 30
0.0
 10
434.9281465926568
 20
92.33131508108384
 30
0.0
 10
435.3624008785726
 20
92.33234860972942
 30
0.0
 10
435.7975164383597
 20
92.33234860972942
 30
0.0
  0
SPLINE
  5
9A
330
3C
100
AcDbEntity
  8
Layer 1
 62
     7
370
    15
100
AcDbSpline
210
0.0
220
0.0
230
1.0
 70
     8
 71
     3
 72
     8
 73
     4
 74
     0
 42
0.0000000001
 43
0.0000000001
 40
0.0
 40
0.0
 40
0.0
 40
0.0
 40
1.0
 40
1.0
 40
1.0
 40
1.0
 10
435.7975164383597
 20
92.33234860972942
 30
0.0
 10
436.2326319981467
 20
92.33234860972942
 30
0.0
 10
436.6694701056764
 20
92.33303762882646
 30
0.0
 10
437.1069972323031
 20
92.33303762882646
 30
0.0
  0
POLYLINE
  5
9B
330
3C
100
AcDbEntity
  8
Layer 1
 62
     7
370
    15
100
AcDb2dPolyline
 66
     1
 10
0.0
 20
0.0
 30
0.0
  0
VERTEX
  5
9C
330
9B
100
AcDbEntity
  8
Layer 1
 62
     7
370
    15
100
AcDbVertex
100
AcDb2dVertex
 10
243.0967894900071
 20
97.31602373869183
 30
0.0
  0
VERTEX
  5
9D
330
9B
100
AcDbEntity
  8
Layer 1
 62
     7
370
    15
100
AcDbVertex
100
AcDb2dVertex
 10
289.2416042028632
 20
96.06924368257991
 30
0.0
  0
VERTEX
  5
9E
330
9B
100
AcDbEntity
  8
Layer 1
 62
     7
370
    15
100
AcDbVertex
100
AcDb2dVertex
 10
335.556778887465
 20
94.81798500233718
 30
0.0
  0
VERTEX
  5
9F
330
9B
100
AcDbEntity
  8
Layer 1
 62
     7
370
    15
100
AcDbVertex
100
AcDb2dVertex
 10
427.6636459976848
 20
92.32821449514712
 30
0.0
  0
SEQEND
  5
A0
330
9B
100
AcDbEntity
  8
Layer 1
370
    15
  0
POLYLINE
  5
A1
330
3C
100
AcDbEntity
  8
Layer 1
 62
     7
370
    15
100
AcDb2dPolyline
 66
     1
 10
0.0
 20
0.0
 30
0.0
  0
VERTEX
  5
A2
330
A1
100
AcDbEntity
  8
Layer 1
 62
     7
370
    15
100
AcDbVertex
100
AcDb2dVertex
 10
723.1179631438733
 20
97.31602373869183
 30
0.0
  0
VERTEX
  5
A3
330
A1
100
AcDbEntity
  8
Layer 1
 62
     7
370
    15
100
AcDbVertex
100
AcDb2dVertex
 10
676.9733206857915
 20
96.06924368257991
 30
0.0
  0
VERTEX
  5
A4
330
A1
100
AcDbEntity
  8
Layer 1
 62
     7
370
    15
100
AcDbVertex
100
AcDb2dVertex
 10
630.6571124725441
 20
94.81798500233718
 30
0.0
  0
VERTEX
  5
A5
330
A1
100
AcDbEntity
  8
Layer 1
 62
     7
370
    15
100
AcDbVertex
100
AcDb2dVertex
 10
538.5507621266471
 20
92.32821449514712
 30
0.0
  0
SEQEND
  5
A6
330
A1
100
AcDbEntity
  8
Layer 1
370
    15
  0
SPLINE
  5
A7
330
3C
100
AcDbEntity
  8
Layer 1
 62
     7
370
    15
100
AcDbSpline
210
0.0
220
0.0
230
1.0
 70
     8
 71
     3
 72
     8
 73
     4
 74
     0
 42
0.0000000001
 43
0.0000000001
 40
0.0
 40
0.0
 40
0.0
 40
0.0
 40
1.0
 40
1.0
 40
1.0
 40
1.0
 10
542.7451658799388
 20
92.33407115747204
 30
0.0
 10
542.7451658799388
 20
92.33407115747204
 30
0.0
 10
542.6511147731915
 20
92.33234860972942
 30
0.0
 10
542.4681802029246
 20
92.33131508108384
 30
0.0
  0
SPLINE
  5
A8
330
3C
100
AcDbEntity
  8
Layer 1
 62
     7
370
    15
100
AcDbSpline
210
0.0
220
0.0
230
1.0
 70
     8
 71
     3
 72
     8
 73
     4
 74
     0
 42
0.0000000001
 43
0.0000000001
 40
0.0
 40
0.0
 40
0.0
 40
0.0
 40
1.0
 40
1.0
 40
1.0
 40
1.0
 10
542.4681802029246
 20
92.33131508108384
 30
0.0
 10
542.376540663017
 20
92.33131508108384
 30
0.0
 10
542.2625080024552
 20
92.33062606198679
 30
0.0
 10
542.1253932021423
 20
92.33062606198679
 30
0.0
  0
SPLINE
  5
A9
330
3C
100
AcDbEntity
  8
Layer 1
 62
     7
370
    15
100
AcDbSpline
210
0.0
220
0.0
230
1.0
 70
     8
 71
     3
 72
     8
 73
     4
 74
     0
 42
0.0000000001
 43
0.0000000001
 40
0.0
 40
0.0
 40
0.0
 40
0.0
 40
1.0
 40
1.0
 40
1.0
 40
1.0
 10
542.1253932021423
 20
92.33062606198679
 30
0.0
 10
541.9879338922808
 20
92.33062606198679
 30
0.0
 10
541.8291149904109
 20
92.32959253334121
 30
0.0
 10
541.6510035538233
 20
92.32959253334121
 30
0.0
  0
SPLINE
  5
AA
330
3C
100
AcDbEntity
  8
Layer 1
 62
     7
370
    15
100
AcDbSpline
210
0.0
220
0.0
230
1.0
 70
     8
 71
     3
 72
     8
 73
     4
 74
     0
 42
0.0000000001
 43
0.0000000001
 40
0.0
 40
0.0
 40
0.0
 40
0.0
 40
1.0
 40
1.0
 40
1.0
 40
1.0
 10
541.6510035538233
 20
92.32959253334121
 30
0.0
 10
541.2934026424545
 20
92.32959253334121
 30
0.0
 10
540.8548419871821
 20
92.32890351424416
 30
0.0
 10
540.3342880593609
 20
92.32890351424416
 30
0.0
  0
SPLINE
  5
AB
330
3C
100
AcDbEntity
  8
Layer 1
 62
     7
370
    15
100
AcDbSpline
210
0.0
220
0.0
230
1.0
 70
    24
 71
     3
 72
     8
 73
     4
 74
     0
 42
0.0000000001
 43
0.0000000001
 40
0.0
 40
0.0
 40
0.0
 40
0.0
 40
1.0
 40
1.0
 40
1.0
 40
1.0
 10
540.3342880593609
 20
92.32890351424416
 30
0.0
 10
540.0745278597731
 20
92.32890351424416
 30
0.0
 10
539.7934080681766
 20
92.32890351424416
 30
0.0
 10
539.495751818251
 20
92.32890351424416
 30
0.0
  0
SPLINE
  5
AC
330
3C
100
AcDbEntity
  8
Layer 1
 62
     7
370
    15
100
AcDbSpline
210
0.0
220
0.0
230
1.0
 70
     8
 71
     3
 72
     8
 73
     4
 74
     0
 42
0.0000000001
 43
0.0000000001
 40
0.0
 40
0.0
 40
0.0
 40
0.0
 40
1.0
 40
1.0
 40
1.0
 40
1.0
 10
539.495751818251
 20
92.32890351424416
 30
0.0
 10
539.1977510587769
 20
92.32821449514712
 30
0.0
 10
538.8835583505222
 20
92.32821449514712
 30
0.0
 10
538.5507621266471
 20
92.32821449514712
 30
0.0
  0
POLYLINE
  5
AD
330
3C
100
AcDbEntity
  8
Layer 1
 62
     7
370
    15
100
AcDb2dPolyline
 66
     1
 10
0.0
 20
0.0
 30
0.0
  0
VERTEX
  5
AE
330
AD
100
AcDbEntity
  8
Layer 1
 62
     7
370
    15
100
AcDbVertex
100
AcDb2dVertex
 10
243.0864542035513
 20
97.3170572673374
 30
0.0
  0
VERTEX
  5
AF
330
AD
100
AcDbEntity
  8
Layer 1
 62
     7
370
    15
100
AcDbVertex
100
AcDb2dVertex
 10
243.0861096940028
 20
97.3170572673374
 30
0.0
  0
SEQEND
  5
B0
330
AD
100
AcDbEntity
  8
Layer 1
370
    15
  0
SPLINE
  5
B1
330
3C
100
AcDbEntity
  8
Layer 1
 62
     7
370
    15
100
AcDbSpline
210
0.0
220
0.0
230
1.0
 70
     8
 71
     3
 72
     8
 73
     4
 74
     0
 42
0.0000000001
 43
0.0000000001
 40
0.0
 40
0.0
 40
0.0
 40
0.0
 40
1.0
 40
1.0
 40
1.0
 40
1.0
 10
423.4687254800704
 20
92.33407115747204
 30
0.0
 10
423.4687254800704
 20
92.33407115747204
 30
0.0
 10
423.5627765868177
 20
92.33234860972942
 30
0.0
 10
423.7462279214072
 20
92.33131508108384
 30
0.0
  0
SPLINE
  5
B2
330
3C
100
AcDbEntity
  8
Layer 1
 62
     7
370
    15
100
AcDbSpline
210
0.0
220
0.0
230
1.0
 70
     8
 71
     3
 72
     8
 73
     4
 74
     0
 42
0.0000000001
 43
0.0000000001
 40
0.0
 40
0.0
 40
0.0
 40
0.0
 40
1.0
 40
1.0
 40
1.0
 40
1.0
 10
423.7462279214072
 20
92.33131508108384
 30
0.0
 10
423.8376952065406
 20
92.33131508108384
 30
0.0
 10
423.9520723766509
 20
92.33062606198679
 30
0.0
 10
424.0893594317381
 20
92.33062606198679
 30
0.0
  0
SPLINE
  5
B3
330
3C
100
AcDbEntity
  8
Layer 1
 62
     7
370
    15
100
AcDbSpline
210
0.0
220
0.0
230
1.0
 70
     8
 71
     3
 72
     8
 73
     4
 74
     0
 42
0.0000000001
 43
0.0000000001
 40
0.0
 40
0.0
 40
0.0
 40
0.0
 40
1.0
 40
1.0
 40
1.0
 40
1.0
 10
424.0893594317381
 20
92.33062606198679
 30
0.0
 10
424.2266464868253
 20
92.33062606198679
 30
0.0
 10
424.3847763695983
 20
92.32959253334121
 30
0.0
 10
424.5635768252827
 20
92.32959253334121
 30
0.0
  0
SPLINE
  5
B4
330
3C
100
AcDbEntity
  8
Layer 1
 62
     7
370
    15
100
AcDbSpline
210
0.0
220
0.0
230
1.0
 70
     8
 71
     3
 72
     8
 73
     4
 74
     0
 42
0.0000000001
 43
0.0000000001
 40
0.0
 40
0.0
 40
0.0
 40
0.0
 40
1.0
 40
1.0
 40
1.0
 40
1.0
 10
424.5635768252827
 20
92.32959253334121
 30
0.0
 10
424.9208332271031
 20
92.32959253334121
 30
0.0
 10
425.3588771180526
 20
92.32890351424416
 30
0.0
 10
425.8796033006482
 20
92.32890351424416
 30
0.0
  0
SPLINE
  5
B5
330
3C
100
AcDbEntity
  8
Layer 1
 62
     7
370
    15
100
AcDbSpline
210
0.0
220
0.0
230
1.0
 70
    24
 71
     3
 72
     8
 73
     4
 74
     0
 42
0.0000000001
 43
0.0000000001
 40
0.0
 40
0.0
 40
0.0
 40
0.0
 40
1.0
 40
1.0
 40
1.0
 40
1.0
 10
425.8796033006482
 20
92.32890351424416
 30
0.0
 10
426.140052519333
 20
92.32890351424416
 30
0.0
 10
426.4211723109294
 20
92.32890351424416
 30
0.0
 10
426.7186563060808
 20
92.32890351424416
 30
0.0
  0
SPLINE
  5
B6
330
3C
100
AcDbEntity
  8
Layer 1
 62
     7
370
    15
100
AcDbSpline
210
0.0
220
0.0
230
1.0
 70
     8
 71
     3
 72
     8
 73
     4
 74
     0
 42
0.0000000001
 43
0.0000000001
 40
0.0
 40
0.0
 40
0.0
 40
0.0
 40
1.0
 40
1.0
 40
1.0
 40
1.0
 10
426.7186563060808
 20
92.32890351424416
 30
0.0
 10
427.0159680464578
 20
92.32821449514712
 30
0.0
 10
427.3313665381324
 20
92.32821449514712
 30
0.0
 10
427.6636459976848
 20
92.32821449514712
 30
0.0
  0
POLYLINE
  5
B7
330
3C
100
AcDbEntity
  8
Layer 1
 62
     7
370
    15
100
AcDb2dPolyline
 66
     1
 10
0.0
 20
0.0
 30
0.0
  0
VERTEX
  5
B8
330
B7
100
AcDbEntity
  8
Layer 1
 62
     7
370
    15
100
AcDbVertex
100
AcDb2dVertex
 10
437.1069972323031
 20
90.10027124483605
 30
0.0
  0
VERTEX
  5
B9
330
B7
100
AcDbEntity
  8
Layer 1
 62
     7
370
    15
100
AcDbVertex
100
AcDb2dVertex
 10
425.7020086283836
 20
90.10027124483605
 30
0.0
  0
SEQEND
  5
BA
330
B7
100
AcDbEntity
  8
Layer 1
370
    15
  0
POLYLINE
  5
BB
330
3C
100
AcDbEntity
  8
Layer 1
 62
     7
370
    15
100
AcDb2dPolyline
 66
     1
 10
0.0
 20
0.0
 30
0.0
  0
VERTEX
  5
BC
330
BB
100
AcDbEntity
  8
Layer 1
 62
     7
370
    15
100
AcDbVertex
100
AcDb2dVertex
 10
425.7020086283836
 20
90.10027124483605
 30
0.0
  0
VERTEX
  5
BD
330
BB
100
AcDbEntity
  8
Layer 1
 62
     7
370
    15
100
AcDbVertex
100
AcDb2dVertex
 10
423.4687254800704
 20
92.33407115747204
 30
0.0
  0
SEQEND
  5
BE
330
BB
100
AcDbEntity
  8
Layer 1
370
    15
  0
POLYLINE
  5
BF
330
3C
100
AcDbEntity
  8
Layer 1
 62
     7
370
    15
100
AcDb2dPolyline
 66
     1
 10
0.0
 20
0.0
 30
0.0
  0
VERTEX
  5
C0
330
BF
100
AcDbEntity
  8
Layer 1
 62
     7
370
    15
100
AcDbVertex
100
AcDb2dVertex
 10
437.1069972323031
 20
90.10027124483605
 30
0.0
  0
VERTEX
  5
C1
330
BF
100
AcDbEntity
  8
Layer 1
 62
     7
370
    15
100
AcDbVertex
100
AcDb2dVertex
 10
437.1069972323031
 20
92.33303762882646
 30
0.0
  0
SEQEND
  5
C2
330
BF
100
AcDbEntity
  8
Layer 1
370
    15
  0
POLYLINE
  5
C3
330
3C
100
AcDbEntity
  8
Layer 1
 62
     7
370
    15
100
AcDb2dPolyline
 66
     1
 10
0.0
 20
0.0
 30
0.0
  0
VERTEX
  5
C4
330
C3
100
AcDbEntity
  8
Layer 1
 62
     7
370
    15
100
AcDbVertex
100
AcDb2dVertex
 10
540.5123994959483
 20
90.10027124483605
 30
0.0
  0
VERTEX
  5
C5
330
C3
100
AcDbEntity
  8
Layer 1
 62
     7
370
    15
100
AcDbVertex
100
AcDb2dVertex
 10
529.1070663824802
 20
90.10027124483605
 30
0.0
  0
SEQEND
  5
C6
330
C3
100
AcDbEntity
  8
Layer 1
370
    15
  0
POLYLINE
  5
C7
330
3C
100
AcDbEntity
  8
Layer 1
 62
     7
370
    15
100
AcDb2dPolyline
 66
     1
 10
0.0
 20
0.0
 30
0.0
  0
VERTEX
  5
C8
330
C7
100
AcDbEntity
  8
Layer 1
 62
     7
370
    15
100
AcDbVertex
100
AcDb2dVertex
 10
529.1070663824802
 20
90.10027124483605
 30
0.0
  0
VERTEX
  5
C9
330
C7
100
AcDbEntity
  8
Layer 1
 62
     7
370
    15
100
AcDbVertex
100
AcDb2dVertex
 10
529.1070663824802
 20
92.33303762882646
 30
0.0
  0
SEQEND
  5
CA
330
C7
100
AcDbEntity
  8
Layer 1
370
    15
  0
POLYLINE
  5
CB
330
3C
100
AcDbEntity
  8
Layer 1
 62
     7
370
    15
100
AcDb2dPolyline
 66
     1
 10
0.0
 20
0.0
 30
0.0
  0
VERTEX
  5
CC
330
CB
100
AcDbEntity
  8
Layer 1
 62
     7
370
    15
100
AcDbVertex
100
AcDb2dVertex
 10
540.5123994959483
 20
90.10027124483605
 30
0.0
  0
VERTEX
  5
CD
330
CB
100
AcDbEntity
  8
Layer 1
 62
     7
370
    15
100
AcDbVertex
100
AcDb2dVertex
 10
542.7451658799388
 20
92.33407115747204
 30
0.0
  0
SEQEND
  5
CE
330
CB
100
AcDbEntity
  8
Layer 1
370
    15
  0
POLYLINE
  5
CF
330
3C
100
AcDbEntity
  8
Layer 1
 62
     7
370
    15
100
AcDb2dPolyline
 66
     1
 10
0.0
 20
0.0
 30
0.0
  0
VERTEX
  5
D0
330
CF
100
AcDbEntity
  8
Layer 1
 62
     7
370
    15
100
AcDbVertex
100
AcDb2dVertex
 10
529.1070663824802
 20
90.10027124483605
 30
0.0
  0
VERTEX
  5
D1
330
CF
100
AcDbEntity
  8
Layer 1
 62
     7
370
    15
100
AcDbVertex
100
AcDb2dVertex
 10
437.1069972323031
 20
90.10027124483605
 30
0.0
  0
SEQEND
  5
D2
330
CF
100
AcDbEntity
  8
Layer 1
370
    15
  0
POLYLINE
  5
D3
330
3C
100
AcDbEntity
  8
Layer 1
 62
     7
370
    15
100
AcDb2dPolyline
 66
     1
 10
0.0
 20
0.0
 30
0.0
  0
VERTEX
  5
D4
330
D3
100
AcDbEntity
  8
Layer 1
 62
     7
370
    15
100
AcDbVertex
100
AcDb2dVertex
 10
437.1069972323031
 20
89.25932343688656
 30
0.0
  0
VERTEX
  5
D5
330
D3
100
AcDbEntity
  8
Layer 1
 62
     7
370
    15
100
AcDbVertex
100
AcDb2dVertex
 10
529.1070663824802
 20
89.25932343688656
 30
0.0
  0
SEQEND
  5
D6
330
D3
100
AcDbEntity
  8
Layer 1
370
    15
  0
POLYLINE
  5
D7
330
3C
100
AcDbEntity
  8
Layer 1
 62
     7
370
    15
100
AcDb2dPolyline
 66
     1
 10
0.0
 20
0.0
 30
0.0
  0
VERTEX
  5
D8
330
D7
100
AcDbEntity
  8
Layer 1
 62
     7
370
    15
100
AcDbVertex
100
AcDb2dVertex
 10
437.1069972323031
 20
90.10027124483605
 30
0.0
  0
VERTEX
  5
D9
330
D7
100
AcDbEntity
  8
Layer 1
 62
     7
370
    15
100
AcDbVertex
100
AcDb2dVertex
 10
437.1069972323031
 20
89.25932343688656
 30
0.0
  0
SEQEND
  5
DA
330
D7
100
AcDbEntity
  8
Layer 1
370
    15
  0
POLYLINE
  5
DB
330
3C
100
AcDbEntity
  8
Layer 1
 62
     7
370
    15
100
AcDb2dPolyline
 66
     1
 10
0.0
 20
0.0
 30
0.0
  0
VERTEX
  5
DC
330
DB
100
AcDbEntity
  8
Layer 1
 62
     7
370
    15
100
AcDbVertex
100
AcDb2dVertex
 10
529.1070663824802
 20
90.10027124483605
 30
0.0
  0
VERTEX
  5
DD
330
DB
100
AcDbEntity
  8
Layer 1
 62
     7
370
    15
100
AcDbVertex
100
AcDb2dVertex
 10
529.1070663824802
 20
89.25932343688656
 30
0.0
  0
SEQEND
  5
DE
330
DB
100
AcDbEntity
  8
Layer 1
370
    15
  0
POLYLINE
  5
DF
330
3C
100
AcDbEntity
  8
Layer 1
 62
     7
370
    15
100
AcDb2dPolyline
 66
     1
 10
0.0
 20
0.0
 30
0.0
  0
VERTEX
  5
E0
330
DF
100
AcDbEntity
  8
Layer 1
 62
     7
370
    15
100
AcDbVertex
100
AcDb2dVertex
 10
427.3537596587866
 20
89.25932343688656
 30
0.0
  0
VERTEX
  5
E1
330
DF
100
AcDbEntity
  8
Layer 1
 62
     7
370
    15
100
AcDbVertex
100
AcDb2dVertex
 10
437.1069972323031
 20
89.25932343688656
 30
0.0
  0
SEQEND
  5
E2
330
DF
100
AcDbEntity
  8
Layer 1
370
    15
  0
SPLINE
  5
E3
330
3C
100
AcDbEntity
  8
Layer 1
 62
     7
370
    15
100
AcDbSpline
210
0.0
220
0.0
230
1.0
 70
     8
 71
     3
 72
     8
 73
     4
 74
     0
 42
0.0000000001
 43
0.0000000001
 40
0.0
 40
0.0
 40
0.0
 40
0.0
 40
1.0
 40
1.0
 40
1.0
 40
1.0
 10
425.7020086283836
 20
90.10027124483605
 30
0.0
 10
426.1500432962403
 20
89.65275334130209
 30
0.0
 10
426.7281303186652
 20
89.35819767731323
 30
0.0
 10
427.3537596587866
 20
89.25932343688656
 30
0.0
  0
SPLINE
  5
E4
330
3C
100
AcDbEntity
  8
Layer 1
 62
     7
370
    15
100
AcDbSpline
210
0.0
220
0.0
230
1.0
 70
     8
 71
     3
 72
     8
 73
     4
 74
     0
 42
0.0000000001
 43
0.0000000001
 40
0.0
 40
0.0
 40
0.0
 40
0.0
 40
1.0
 40
1.0
 40
1.0
 40
1.0
 10
538.8601317012225
 20
89.25932343688656
 30
0.0
 10
539.4857610413438
 20
89.35819767731323
 30
0.0
 10
540.0645370828659
 20
89.65275334130209
 30
0.0
 10
540.5123994959483
 20
90.10027124483605
 30
0.0
  0
POLYLINE
  5
E5
330
3C
100
AcDbEntity
  8
Layer 1
 62
     7
370
    15
100
AcDb2dPolyline
 66
     1
 10
0.0
 20
0.0
 30
0.0
  0
VERTEX
  5
E6
330
E5
100
AcDbEntity
  8
Layer 1
 62
     7
370
    15
100
AcDbVertex
100
AcDb2dVertex
 10
529.1070663824802
 20
89.25932343688656
 30
0.0
  0
VERTEX
  5
E7
330
E5
100
AcDbEntity
  8
Layer 1
 62
     7
370
    15
100
AcDbVertex
100
AcDb2dVertex
 10
538.8601317012225
 20
89.25932343688656
 30
0.0
  0
SEQEND
  5
E8
330
E5
100
AcDbEntity
  8
Layer 1
370
    15
  0
POLYLINE
  5
E9
330
3C
100
AcDbEntity
  8
Layer 1
 62
     7
370
    15
100
AcDb2dPolyline
 66
     1
 10
0.0
 20
0.0
 30
0.0
  0
VERTEX
  5
EA
330
E9
100
AcDbEntity
  8
Layer 1
 62
     7
370
    15
100
AcDbVertex
100
AcDb2dVertex
 10
529.1070663824802
 20
87.71419811175201
 30
0.0
  0
VERTEX
  5
EB
330
E9
100
AcDbEntity
  8
Layer 1
 62
     7
370
    15
100
AcDbVertex
100
AcDb2dVertex
 10
529.1070663824802
 20
89.25932343688656
 30
0.0
  0
SEQEND
  5
EC
330
E9
100
AcDbEntity
  8
Layer 1
370
    15
  0
POLYLINE
  5
ED
330
3C
100
AcDbEntity
  8
Layer 1
 62
     7
370
    15
100
AcDb2dPolyline
 66
     1
 10
0.0
 20
0.0
 30
0.0
  0
VERTEX
  5
EE
330
ED
100
AcDbEntity
  8
Layer 1
 62
     7
370
    15
100
AcDbVertex
100
AcDb2dVertex
 10
526.5980033405727
 20
87.31663409275419
 30
0.0
  0
VERTEX
  5
EF
330
ED
100
AcDbEntity
  8
Layer 1
 62
     7
370
    15
100
AcDbVertex
100
AcDb2dVertex
 10
529.1070663824802
 20
87.71419811175201
 30
0.0
  0
SEQEND
  5
F0
330
ED
100
AcDbEntity
  8
Layer 1
370
    15
  0
POLYLINE
  5
F1
330
3C
100
AcDbEntity
  8
Layer 1
 62
     7
370
    15
100
AcDb2dPolyline
 66
     1
 10
0.0
 20
0.0
 30
0.0
  0
VERTEX
  5
F2
330
F1
100
AcDbEntity
  8
Layer 1
 62
     7
370
    15
100
AcDbVertex
100
AcDb2dVertex
 10
517.0419974835868
 20
87.31663409275419
 30
0.0
  0
VERTEX
  5
F3
330
F1
100
AcDbEntity
  8
Layer 1
 62
     7
370
    15
100
AcDbVertex
100
AcDb2dVertex
 10
526.5980033405727
 20
87.31663409275419
 30
0.0
  0
SEQEND
  5
F4
330
F1
100
AcDbEntity
  8
Layer 1
370
    15
  0
SPLINE
  5
F5
330
3C
100
AcDbEntity
  8
Layer 1
 62
     7
370
    15
100
AcDbSpline
210
0.0
220
0.0
230
1.0
 70
     8
 71
     3
 72
     8
 73
     4
 74
     0
 42
0.0000000001
 43
0.0000000001
 40
0.0
 40
0.0
 40
0.0
 40
0.0
 40
1.0
 40
1.0
 40
1.0
 40
1.0
 10
517.0419974835868
 20
87.31663409275419
 30
0.0
 10
516.8969589636578
 20
87.31766762139975
 30
0.0
 10
516.7522649532773
 20
87.3183566404968
 30
0.0
 10
516.6068819237997
 20
87.3183566404968
 30
0.0
  0
POLYLINE
  5
F6
330
3C
100
AcDbEntity
  8
Layer 1
 62
     7
370
    15
100
AcDb2dPolyline
 66
     1
 10
0.0
 20
0.0
 30
0.0
  0
VERTEX
  5
F7
330
F6
100
AcDbEntity
  8
Layer 1
 62
     7
370
    15
100
AcDbVertex
100
AcDb2dVertex
 10
449.6071816909836
 20
87.3183566404968
 30
0.0
  0
VERTEX
  5
F8
330
F6
100
AcDbEntity
  8
Layer 1
 62
     7
370
    15
100
AcDbVertex
100
AcDb2dVertex
 10
516.6068819237997
 20
87.3183566404968
 30
0.0
  0
SEQEND
  5
F9
330
F6
100
AcDbEntity
  8
Layer 1
370
    15
  0
SPLINE
  5
FA
330
3C
100
AcDbEntity
  8
Layer 1
 62
     7
370
    15
100
AcDbSpline
210
0.0
220
0.0
230
1.0
 70
     8
 71
     3
 72
     8
 73
     4
 74
     0
 42
0.0000000001
 43
0.0000000001
 40
0.0
 40
0.0
 40
0.0
 40
0.0
 40
1.0
 40
1.0
 40
1.0
 40
1.0
 10
449.6071816909836
 20
87.3183566404968
 30
0.0
 10
449.4623154258289
 20
87.3183566404968
 30
0.0
 10
449.3176214154484
 20
87.31766762139975
 30
0.0
 10
449.1729274050679
 20
87.31663409275419
 30
0.0
  0
POLYLINE
  5
FB
330
3C
100
AcDbEntity
  8
Layer 1
 62
     7
370
    15
100
AcDb2dPolyline
 66
     1
 10
0.0
 20
0.0
 30
0.0
  0
VERTEX
  5
FC
330
FB
100
AcDbEntity
  8
Layer 1
 62
     7
370
    15
100
AcDbVertex
100
AcDb2dVertex
 10
439.6167492933076
 20
87.31663409275419
 30
0.0
  0
VERTEX
  5
FD
330
FB
100
AcDbEntity
  8
Layer 1
 62
     7
370
    15
100
AcDbVertex
100
AcDb2dVertex
 10
449.1729274050679
 20
87.31663409275419
 30
0.0
  0
SEQEND
  5
FE
330
FB
100
AcDbEntity
  8
Layer 1
370
    15
  0
POLYLINE
  5
FF
330
3C
100
AcDbEntity
  8
Layer 1
 62
     7
370
    15
100
AcDb2dPolyline
 66
     1
 10
0.0
 20
0.0
 30
0.0
  0
VERTEX
  5
100
330
FF
100
AcDbEntity
  8
Layer 1
 62
     7
370
    15
100
AcDbVertex
100
AcDb2dVertex
 10
439.6167492933076
 20
87.31663409275419
 30
0.0
  0
VERTEX
  5
101
330
FF
100
AcDbEntity
  8
Layer 1
 62
     7
370
    15
100
AcDbVertex
100
AcDb2dVertex
 10
437.1069972323031
 20
87.71419811175201
 30
0.0
  0
SEQEND
  5
102
330
FF
100
AcDbEntity
  8
Layer 1
370
    15
  0
POLYLINE
  5
103
330
3C
100
AcDbEntity
  8
Layer 1
 62
     7
370
    15
100
AcDb2dPolyline
 66
     1
 10
0.0
 20
0.0
 30
0.0
  0
VERTEX
  5
104
330
103
100
AcDbEntity
  8
Layer 1
 62
     7
370
    15
100
AcDbVertex
100
AcDb2dVertex
 10
437.1069972323031
 20
87.71419811175201
 30
0.0
  0
VERTEX
  5
105
330
103
100
AcDbEntity
  8
Layer 1
 62
     7
370
    15
100
AcDbVertex
100
AcDb2dVertex
 10
437.1069972323031
 20
89.25932343688656
 30
0.0
  0
SEQEND
  5
106
330
103
100
AcDbEntity
  8
Layer 1
370
    15
  0
POLYLINE
  5
107
330
3C
100
AcDbEntity
  8
Layer 1
 62
     7
370
    15
100
AcDb2dPolyline
 66
     1
 10
0.0
 20
0.0
 30
0.0
  0
VERTEX
  5
108
330
107
100
AcDbEntity
  8
Layer 1
 62
     7
370
    15
100
AcDbVertex
100
AcDb2dVertex
 10
437.1069972323031
 20
87.71419811175201
 30
0.0
  0
VERTEX
  5
109
330
107
100
AcDbEntity
  8
Layer 1
 62
     7
370
    15
100
AcDbVertex
100
AcDb2dVertex
 10
427.3537596587866
 20
89.25932343688656
 30
0.0
  0
SEQEND
  5
10A
330
107
100
AcDbEntity
  8
Layer 1
370
    15
  0
POLYLINE
  5
10B
330
3C
100
AcDbEntity
  8
Layer 1
 62
     7
370
    15
100
AcDb2dPolyline
 66
     1
 10
0.0
 20
0.0
 30
0.0
  0
VERTEX
  5
10C
330
10B
100
AcDbEntity
  8
Layer 1
 62
     7
370
    15
100
AcDbVertex
100
AcDb2dVertex
 10
529.1070663824802
 20
87.71419811175201
 30
0.0
  0
VERTEX
  5
10D
330
10B
100
AcDbEntity
  8
Layer 1
 62
     7
370
    15
100
AcDbVertex
100
AcDb2dVertex
 10
538.8601317012225
 20
89.25932343688656
 30
0.0
  0
SEQEND
  5
10E
330
10B
100
AcDbEntity
  8
Layer 1
370
    15
  0
POLYLINE
  5
10F
330
3C
100
AcDbEntity
  8
Layer 1
370
     0
100
AcDb2dPolyline
 66
     1
 10
0.0
 20
0.0
 30
0.0
  0
VERTEX
  5
110
330
10F
100
AcDbEntity
  8
Layer 1
370
     0
100
AcDbVertex
100
AcDb2dVertex
 10
38.10775145531682
 20
323.8162379832821
 30
0.0
  0
VERTEX
  5
111
330
10F
100
AcDbEntity
  8
Layer 1
370
     0
100
AcDbVertex
100
AcDb2dVertex
 10
33.1075398680252
 20
353.8161294688376
 30
0.0
  0
VERTEX
  5
112
330
10F
100
AcDbEntity
  8
Layer 1
370
     0
100
AcDbVertex
100
AcDb2dVertex
 10
43.10779078783416
 20
353.8161294688376
 30
0.0
  0
SEQEND
  5
113
330
10F
100
AcDbEntity
  8
Layer 1
370
     0
  0
HATCH
  5
114
330
3C
100
AcDbEntity
  8
Layer 1
 62
     7
100
AcDbHatch
 10
0.0
 20
0.0
 30
0.0
210
0.0
220
0.0
230
1.0
  2
SOLID
 70
     1
 71
     0
 91
        1
 92
        1
 93
        3
 72
     1
 10
38.10775145531682
 20
323.8162379832821
 11
33.1075398680252
 21
353.8161294688376
 72
     1
 10
33.1075398680252
 20
353.8161294688376
 11
43.10779078783416
 21
353.8161294688376
 72
     1
 10
43.10779078783416
 20
353.8161294688376
 11
38.10775145531682
 21
323.8162379832821
 97
        0
 75
     2
 76
     1
 98
        0
  0
POLYLINE
  5
115
330
3C
100
AcDbEntity
  8
Layer 1
370
     0
100
AcDb2dPolyline
 66
     1
 10
0.0
 20
0.0
 30
0.0
  0
VERTEX
  5
116
330
115
100
AcDbEntity
  8
Layer 1
370
     0
100
AcDbVertex
100
AcDb2dVertex
 10
38.10775145531682
 20
97.3170572673374
 30
0.0
  0
VERTEX
  5
117
330
115
100
AcDbEntity
  8
Layer 1
370
     0
100
AcDbVertex
100
AcDb2dVertex
 10
43.10779078783416
 20
67.3168212722333
 30
0.0
  0
VERTEX
  5
118
330
115
100
AcDbEntity
  8
Layer 1
370
     0
100
AcDbVertex
100
AcDb2dVertex
 10
33.1075398680252
 20
67.3168212722333
 30
0.0
  0
SEQEND
  5
119
330
115
100
AcDbEntity
  8
Layer 1
370
     0
  0
HATCH
  5
11A
330
3C
100
AcDbEntity
  8
Layer 1
 62
     7
100
AcDbHatch
 10
0.0
 20
0.0
 30
0.0
210
0.0
220
0.0
230
1.0
  2
SOLID
 70
     1
 71
     0
 91
        1
 92
        1
 93
        3
 72
     1
 10
38.10775145531682
 20
97.3170572673374
 11
43.10779078783416
 21
67.3168212722333
 72
     1
 10
43.10779078783416
 20
67.3168212722333
 11
33.1075398680252
 21
67.3168212722333
 72
     1
 10
33.1075398680252
 20
67.3168212722333
 11
38.10775145531682
 21
97.3170572673374
 97
        0
 75
     2
 76
     1
 98
        0
  0
POLYLINE
  5
11B
330
3C
100
AcDbEntity
  8
Layer 1
 62
     7
370
    25
100
AcDb2dPolyline
 66
     1
 10
0.0
 20
0.0
 30
0.0
  0
VERTEX
  5
11C
330
11B
100
AcDbEntity
  8
Layer 1
 62
     7
370
    25
100
AcDbVertex
100
AcDb2dVertex
 10
167.3186414512259
 20
323.8162379832821
 30
0.0
  0
VERTEX
  5
11D
330
11B
100
AcDbEntity
  8
Layer 1
 62
     7
370
    25
100
AcDbVertex
100
AcDb2dVertex
 10
28.10784504505637
 20
323.8162379832821
 30
0.0
  0
SEQEND
  5
11E
330
11B
100
AcDbEntity
  8
Layer 1
370
    25
  0
POLYLINE
  5
11F
330
3C
100
AcDbEntity
  8
Layer 1
 62
     7
370
    25
100
AcDb2dPolyline
 66
     1
 10
0.0
 20
0.0
 30
0.0
  0
VERTEX
  5
120
330
11F
100
AcDbEntity
  8
Layer 1
 62
     7
370
    25
100
AcDbVertex
100
AcDb2dVertex
 10
169.1021673839397
 20
97.3170572673374
 30
0.0
  0
VERTEX
  5
121
330
11F
100
AcDbEntity
  8
Layer 1
 62
     7
370
    25
100
AcDbVertex
100
AcDb2dVertex
 10
28.10784504505637
 20
97.3170572673374
 30
0.0
  0
SEQEND
  5
122
330
11F
100
AcDbEntity
  8
Layer 1
370
    25
  0
POLYLINE
  5
123
330
3C
100
AcDbEntity
  8
Layer 1
 62
     7
370
    25
100
AcDb2dPolyline
 66
     1
 10
0.0
 20
0.0
 30
0.0
  0
VERTEX
  5
124
330
123
100
AcDbEntity
  8
Layer 1
 62
     7
370
    25
100
AcDbVertex
100
AcDb2dVertex
 10
38.10775145531682
 20
323.8162379832821
 30
0.0
  0
VERTEX
  5
125
330
123
100
AcDbEntity
  8
Layer 1
 62
     7
370
    25
100
AcDbVertex
100
AcDb2dVertex
 10
38.10775145531682
 20
383.8163654639417
 30
0.0
  0
SEQEND
  5
126
330
123
100
AcDbEntity
  8
Layer 1
370
    25
  0
POLYLINE
  5
127
330
3C
100
AcDbEntity
  8
Layer 1
 62
     7
370
    25
100
AcDb2dPolyline
 66
     1
 10
0.0
 20
0.0
 30
0.0
  0
VERTEX
  5
128
330
127
100
AcDbEntity
  8
Layer 1
 62
     7
370
    25
100
AcDbVertex
100
AcDb2dVertex
 10
38.10775145531682
 20
323.8162379832821
 30
0.0
  0
VERTEX
  5
129
330
127
100
AcDbEntity
  8
Layer 1
 62
     7
370
    25
100
AcDbVertex
100
AcDb2dVertex
 10
38.10775145531682
 20
97.3170572673374
 30
0.0
  0
SEQEND
  5
12A
330
127
100
AcDbEntity
  8
Layer 1
370
    25
  0
POLYLINE
  5
12B
330
3C
100
AcDbEntity
  8
Layer 1
 62
     7
370
    25
100
AcDb2dPolyline
 66
     1
 10
0.0
 20
0.0
 30
0.0
  0
VERTEX
  5
12C
330
12B
100
AcDbEntity
  8
Layer 1
 62
     7
370
    25
100
AcDbVertex
100
AcDb2dVertex
 10
38.10775145531682
 20
97.3170572673374
 30
0.0
  0
VERTEX
  5
12D
330
12B
100
AcDbEntity
  8
Layer 1
 62
     7
370
    25
100
AcDbVertex
100
AcDb2dVertex
 10
38.10775145531682
 20
37.31692978667771
 30
0.0
  0
SEQEND
  5
12E
330
12B
100
AcDbEntity
  8
Layer 1
370
    25
  0
POLYLINE
  5
12F
330
3C
100
AcDbEntity
  8
Layer 1
 62
     7
370
    25
100
AcDb2dPolyline
 66
     1
 10
0.0
 20
0.0
 30
0.0
  0
VERTEX
  5
130
330
12F
100
AcDbEntity
  8
Layer 1
 62
     7
370
    25
100
AcDbVertex
100
AcDb2dVertex
 10
-9.407177732023206
 20
146.4789143514011
 30
0.0
  0
VERTEX
  5
131
330
12F
100
AcDbEntity
  8
Layer 1
 62
     7
370
    25
100
AcDbVertex
100
AcDb2dVertex
 10
-16.46290554058914
 20
151.7705810167449
 30
0.0
  0
SEQEND
  5
132
330
12F
100
AcDbEntity
  8
Layer 1
370
    25
  0
POLYLINE
  5
133
330
3C
100
AcDbEntity
  8
Layer 1
 62
     7
370
    25
100
AcDb2dPolyline
 66
     1
 10
0.0
 20
0.0
 30
0.0
  0
VERTEX
  5
134
330
133
100
AcDbEntity
  8
Layer 1
 62
     7
370
    25
100
AcDbVertex
100
AcDb2dVertex
 10
-16.46290554058914
 20
151.7705810167449
 30
0.0
  0
VERTEX
  5
135
330
133
100
AcDbEntity
  8
Layer 1
 62
     7
370
    25
100
AcDbVertex
100
AcDb2dVertex
 10
-16.46290554058914
 20
162.3532253283353
 30
0.0
  0
SEQEND
  5
136
330
133
100
AcDbEntity
  8
Layer 1
370
    25
  0
POLYLINE
  5
137
330
3C
100
AcDbEntity
  8
Layer 1
 62
     7
370
    25
100
AcDb2dPolyline
 66
     1
 10
0.0
 20
0.0
 30
0.0
  0
VERTEX
  5
138
330
137
100
AcDbEntity
  8
Layer 1
 62
     7
370
    25
100
AcDbVertex
100
AcDb2dVertex
 10
-16.46290554058914
 20
162.3532253283353
 30
0.0
  0
VERTEX
  5
139
330
137
100
AcDbEntity
  8
Layer 1
 62
     7
370
    25
100
AcDbVertex
100
AcDb2dVertex
 10
-9.407177732023206
 20
167.6452365032276
 30
0.0
  0
SEQEND
  5
13A
330
137
100
AcDbEntity
  8
Layer 1
370
    25
  0
POLYLINE
  5
13B
330
3C
100
AcDbEntity
  8
Layer 1
 62
     7
370
    25
100
AcDb2dPolyline
 66
     1
 10
0.0
 20
0.0
 30
0.0
  0
VERTEX
  5
13C
330
13B
100
AcDbEntity
  8
Layer 1
 62
     7
370
    25
100
AcDbVertex
100
AcDb2dVertex
 10
-9.407177732023206
 20
167.6452365032276
 30
0.0
  0
VERTEX
  5
13D
330
13B
100
AcDbEntity
  8
Layer 1
 62
     7
370
    25
100
AcDbVertex
100
AcDb2dVertex
 10
-2.351794433005801
 20
167.6452365032276
 30
0.0
  0
SEQEND
  5
13E
330
13B
100
AcDbEntity
  8
Layer 1
370
    25
  0
POLYLINE
  5
13F
330
3C
100
AcDbEntity
  8
Layer 1
 62
     7
370
    25
100
AcDb2dPolyline
 66
     1
 10
0.0
 20
0.0
 30
0.0
  0
VERTEX
  5
140
330
13F
100
AcDbEntity
  8
Layer 1
 62
     7
370
    25
100
AcDbVertex
100
AcDb2dVertex
 10
-2.351794433005801
 20
167.6452365032276
 30
0.0
  0
VERTEX
  5
141
330
13F
100
AcDbEntity
  8
Layer 1
 62
     7
370
    25
100
AcDbVertex
100
AcDb2dVertex
 10
4.703933375560128
 20
162.3532253283353
 30
0.0
  0
SEQEND
  5
142
330
13F
100
AcDbEntity
  8
Layer 1
370
    25
  0
POLYLINE
  5
143
330
3C
100
AcDbEntity
  8
Layer 1
 62
     7
370
    25
100
AcDb2dPolyline
 66
     1
 10
0.0
 20
0.0
 30
0.0
  0
VERTEX
  5
144
330
143
100
AcDbEntity
  8
Layer 1
 62
     7
370
    25
100
AcDbVertex
100
AcDb2dVertex
 10
4.703933375560128
 20
162.3532253283353
 30
0.0
  0
VERTEX
  5
145
330
143
100
AcDbEntity
  8
Layer 1
 62
     7
370
    25
100
AcDbVertex
100
AcDb2dVertex
 10
4.703933375560128
 20
151.7705810167449
 30
0.0
  0
SEQEND
  5
146
330
143
100
AcDbEntity
  8
Layer 1
370
    25
  0
POLYLINE
  5
147
330
3C
100
AcDbEntity
  8
Layer 1
 62
     7
370
    25
100
AcDb2dPolyline
 66
     1
 10
0.0
 20
0.0
 30
0.0
  0
VERTEX
  5
148
330
147
100
AcDbEntity
  8
Layer 1
 62
     7
370
    25
100
AcDbVertex
100
AcDb2dVertex
 10
4.703933375560128
 20
151.7705810167449
 30
0.0
  0
VERTEX
  5
149
330
147
100
AcDbEntity
  8
Layer 1
 62
     7
370
    25
100
AcDbVertex
100
AcDb2dVertex
 10
11.75931667457753
 20
146.4789143514011
 30
0.0
  0
SEQEND
  5
14A
330
147
100
AcDbEntity
  8
Layer 1
370
    25
  0
POLYLINE
  5
14B
330
3C
100
AcDbEntity
  8
Layer 1
 62
     7
370
    25
100
AcDb2dPolyline
 66
     1
 10
0.0
 20
0.0
 30
0.0
  0
VERTEX
  5
14C
330
14B
100
AcDbEntity
  8
Layer 1
 62
     7
370
    25
100
AcDbVertex
100
AcDb2dVertex
 10
11.75931667457753
 20
146.4789143514011
 30
0.0
  0
VERTEX
  5
14D
330
14B
100
AcDbEntity
  8
Layer 1
 62
     7
370
    25
100
AcDbVertex
100
AcDb2dVertex
 10
25.87042778216087
 20
146.4789143514011
 30
0.0
  0
SEQEND
  5
14E
330
14B
100
AcDbEntity
  8
Layer 1
370
    25
  0
POLYLINE
  5
14F
330
3C
100
AcDbEntity
  8
Layer 1
 62
     7
370
    25
100
AcDb2dPolyline
 66
     1
 10
0.0
 20
0.0
 30
0.0
  0
VERTEX
  5
150
330
14F
100
AcDbEntity
  8
Layer 1
 62
     7
370
    25
100
AcDbVertex
100
AcDb2dVertex
 10
25.87042778216087
 20
146.4789143514011
 30
0.0
  0
VERTEX
  5
151
330
14F
100
AcDbEntity
  8
Layer 1
 62
     7
370
    25
100
AcDbVertex
100
AcDb2dVertex
 10
25.87042778216087
 20
167.6452365032276
 30
0.0
  0
SEQEND
  5
152
330
14F
100
AcDbEntity
  8
Layer 1
370
    25
  0
POLYLINE
  5
153
330
3C
100
AcDbEntity
  8
Layer 1
 62
     7
370
    25
100
AcDb2dPolyline
 66
     1
 10
0.0
 20
0.0
 30
0.0
  0
VERTEX
  5
154
330
153
100
AcDbEntity
  8
Layer 1
 62
     7
370
    25
100
AcDbVertex
100
AcDb2dVertex
 10
-9.407177732023206
 20
178.2285698339151
 30
0.0
  0
VERTEX
  5
155
330
153
100
AcDbEntity
  8
Layer 1
 62
     7
370
    25
100
AcDbVertex
100
AcDb2dVertex
 10
-16.46290554058914
 20
183.5202364992588
 30
0.0
  0
SEQEND
  5
156
330
153
100
AcDbEntity
  8
Layer 1
370
    25
  0
POLYLINE
  5
157
330
3C
100
AcDbEntity
  8
Layer 1
 62
     7
370
    25
100
AcDb2dPolyline
 66
     1
 10
0.0
 20
0.0
 30
0.0
  0
VERTEX
  5
158
330
157
100
AcDbEntity
  8
Layer 1
 62
     7
370
    25
100
AcDbVertex
100
AcDb2dVertex
 10
-16.46290554058914
 20
183.5202364992588
 30
0.0
  0
VERTEX
  5
159
330
157
100
AcDbEntity
  8
Layer 1
 62
     7
370
    25
100
AcDbVertex
100
AcDb2dVertex
 10
-16.46290554058914
 20
194.1035698299463
 30
0.0
  0
SEQEND
  5
15A
330
157
100
AcDbEntity
  8
Layer 1
370
    25
  0
POLYLINE
  5
15B
330
3C
100
AcDbEntity
  8
Layer 1
 62
     7
370
    25
100
AcDb2dPolyline
 66
     1
 10
0.0
 20
0.0
 30
0.0
  0
VERTEX
  5
15C
330
15B
100
AcDbEntity
  8
Layer 1
 62
     7
370
    25
100
AcDbVertex
100
AcDb2dVertex
 10
-16.46290554058914
 20
194.1035698299463
 30
0.0
  0
VERTEX
  5
15D
330
15B
100
AcDbEntity
  8
Layer 1
 62
     7
370
    25
100
AcDbVertex
100
AcDb2dVertex
 10
-9.407177732023206
 20
199.3955810048386
 30
0.0
  0
SEQEND
  5
15E
330
15B
100
AcDbEntity
  8
Layer 1
370
    25
  0
POLYLINE
  5
15F
330
3C
100
AcDbEntity
  8
Layer 1
 62
     7
370
    25
100
AcDb2dPolyline
 66
     1
 10
0.0
 20
0.0
 30
0.0
  0
VERTEX
  5
160
330
15F
100
AcDbEntity
  8
Layer 1
 62
     7
370
    25
100
AcDbVertex
100
AcDb2dVertex
 10
-9.407177732023206
 20
199.3955810048386
 30
0.0
  0
VERTEX
  5
161
330
15F
100
AcDbEntity
  8
Layer 1
 62
     7
370
    25
100
AcDbVertex
100
AcDb2dVertex
 10
-2.351794433005801
 20
199.3955810048386
 30
0.0
  0
SEQEND
  5
162
330
15F
100
AcDbEntity
  8
Layer 1
370
    25
  0
POLYLINE
  5
163
330
3C
100
AcDbEntity
  8
Layer 1
 62
     7
370
    25
100
AcDb2dPolyline
 66
     1
 10
0.0
 20
0.0
 30
0.0
  0
VERTEX
  5
164
330
163
100
AcDbEntity
  8
Layer 1
 62
     7
370
    25
100
AcDbVertex
100
AcDb2dVertex
 10
-2.351794433005801
 20
199.3955810048386
 30
0.0
  0
VERTEX
  5
165
330
163
100
AcDbEntity
  8
Layer 1
 62
     7
370
    25
100
AcDbVertex
100
AcDb2dVertex
 10
4.703933375560128
 20
194.1035698299463
 30
0.0
  0
SEQEND
  5
166
330
163
100
AcDbEntity
  8
Layer 1
370
    25
  0
POLYLINE
  5
167
330
3C
100
AcDbEntity
  8
Layer 1
 62
     7
370
    25
100
AcDb2dPolyline
 66
     1
 10
0.0
 20
0.0
 30
0.0
  0
VERTEX
  5
168
330
167
100
AcDbEntity
  8
Layer 1
 62
     7
370
    25
100
AcDbVertex
100
AcDb2dVertex
 10
4.703933375560128
 20
194.1035698299463
 30
0.0
  0
VERTEX
  5
169
330
167
100
AcDbEntity
  8
Layer 1
 62
     7
370
    25
100
AcDbVertex
100
AcDb2dVertex
 10
4.703933375560128
 20
183.5202364992588
 30
0.0
  0
SEQEND
  5
16A
330
167
100
AcDbEntity
  8
Layer 1
370
    25
  0
POLYLINE
  5
16B
330
3C
100
AcDbEntity
  8
Layer 1
 62
     7
370
    25
100
AcDb2dPolyline
 66
     1
 10
0.0
 20
0.0
 30
0.0
  0
VERTEX
  5
16C
330
16B
100
AcDbEntity
  8
Layer 1
 62
     7
370
    25
100
AcDbVertex
100
AcDb2dVertex
 10
4.703933375560128
 20
183.5202364992588
 30
0.0
  0
VERTEX
  5
16D
330
16B
100
AcDbEntity
  8
Layer 1
 62
     7
370
    25
100
AcDbVertex
100
AcDb2dVertex
 10
11.75931667457753
 20
178.2285698339151
 30
0.0
  0
SEQEND
  5
16E
330
16B
100
AcDbEntity
  8
Layer 1
370
    25
  0
POLYLINE
  5
16F
330
3C
100
AcDbEntity
  8
Layer 1
 62
     7
370
    25
100
AcDb2dPolyline
 66
     1
 10
0.0
 20
0.0
 30
0.0
  0
VERTEX
  5
170
330
16F
100
AcDbEntity
  8
Layer 1
 62
     7
370
    25
100
AcDbVertex
100
AcDb2dVertex
 10
11.75931667457753
 20
178.2285698339151
 30
0.0
  0
VERTEX
  5
171
330
16F
100
AcDbEntity
  8
Layer 1
 62
     7
370
    25
100
AcDbVertex
100
AcDb2dVertex
 10
25.87042778216087
 20
178.2285698339151
 30
0.0
  0
SEQEND
  5
172
330
16F
100
AcDbEntity
  8
Layer 1
370
    25
  0
POLYLINE
  5
173
330
3C
100
AcDbEntity
  8
Layer 1
 62
     7
370
    25
100
AcDb2dPolyline
 66
     1
 10
0.0
 20
0.0
 30
0.0
  0
VERTEX
  5
174
330
173
100
AcDbEntity
  8
Layer 1
 62
     7
370
    25
100
AcDbVertex
100
AcDb2dVertex
 10
25.87042778216087
 20
178.2285698339151
 30
0.0
  0
VERTEX
  5
175
330
173
100
AcDbEntity
  8
Layer 1
 62
     7
370
    25
100
AcDbVertex
100
AcDb2dVertex
 10
25.87042778216087
 20
199.3955810048386
 30
0.0
  0
SEQEND
  5
176
330
173
100
AcDbEntity
  8
Layer 1
370
    25
  0
POLYLINE
  5
177
330
3C
100
AcDbEntity
  8
Layer 1
 62
     7
370
    25
100
AcDb2dPolyline
 66
     1
 10
0.0
 20
0.0
 30
0.0
  0
VERTEX
  5
178
330
177
100
AcDbEntity
  8
Layer 1
 62
     7
370
    25
100
AcDbVertex
100
AcDb2dVertex
 10
18.81504448314346
 20
209.9789143355261
 30
0.0
  0
VERTEX
  5
179
330
177
100
AcDbEntity
  8
Layer 1
 62
     7
370
    25
100
AcDbVertex
100
AcDb2dVertex
 10
25.87042778216087
 20
215.2705810008699
 30
0.0
  0
SEQEND
  5
17A
330
177
100
AcDbEntity
  8
Layer 1
370
    25
  0
POLYLINE
  5
17B
330
3C
100
AcDbEntity
  8
Layer 1
 62
     7
370
    25
100
AcDb2dPolyline
 66
     1
 10
0.0
 20
0.0
 30
0.0
  0
VERTEX
  5
17C
330
17B
100
AcDbEntity
  8
Layer 1
 62
     7
370
    25
100
AcDbVertex
100
AcDb2dVertex
 10
25.87042778216087
 20
215.2705810008699
 30
0.0
  0
VERTEX
  5
17D
330
17B
100
AcDbEntity
  8
Layer 1
 62
     7
370
    25
100
AcDbVertex
100
AcDb2dVertex
 10
25.87042778216087
 20
225.8532253124603
 30
0.0
  0
SEQEND
  5
17E
330
17B
100
AcDbEntity
  8
Layer 1
370
    25
  0
POLYLINE
  5
17F
330
3C
100
AcDbEntity
  8
Layer 1
 62
     7
370
    25
100
AcDb2dPolyline
 66
     1
 10
0.0
 20
0.0
 30
0.0
  0
VERTEX
  5
180
330
17F
100
AcDbEntity
  8
Layer 1
 62
     7
370
    25
100
AcDbVertex
100
AcDb2dVertex
 10
25.87042778216087
 20
225.8532253124603
 30
0.0
  0
VERTEX
  5
181
330
17F
100
AcDbEntity
  8
Layer 1
 62
     7
370
    25
100
AcDbVertex
100
AcDb2dVertex
 10
18.81504448314346
 20
231.1448919778041
 30
0.0
  0
SEQEND
  5
182
330
17F
100
AcDbEntity
  8
Layer 1
370
    25
  0
POLYLINE
  5
183
330
3C
100
AcDbEntity
  8
Layer 1
 62
     7
370
    25
100
AcDb2dPolyline
 66
     1
 10
0.0
 20
0.0
 30
0.0
  0
VERTEX
  5
184
330
183
100
AcDbEntity
  8
Layer 1
 62
     7
370
    25
100
AcDbVertex
100
AcDb2dVertex
 10
18.81504448314346
 20
231.1448919778041
 30
0.0
  0
VERTEX
  5
185
330
183
100
AcDbEntity
  8
Layer 1
 62
     7
370
    25
100
AcDbVertex
100
AcDb2dVertex
 10
4.703933375560128
 20
231.1448919778041
 30
0.0
  0
SEQEND
  5
186
330
183
100
AcDbEntity
  8
Layer 1
370
    25
  0
POLYLINE
  5
187
330
3C
100
AcDbEntity
  8
Layer 1
 62
     7
370
    25
100
AcDb2dPolyline
 66
     1
 10
0.0
 20
0.0
 30
0.0
  0
VERTEX
  5
188
330
187
100
AcDbEntity
  8
Layer 1
 62
     7
370
    25
100
AcDbVertex
100
AcDb2dVertex
 10
4.703933375560128
 20
231.1448919778041
 30
0.0
  0
VERTEX
  5
189
330
187
100
AcDbEntity
  8
Layer 1
 62
     7
370
    25
100
AcDbVertex
100
AcDb2dVertex
 10
-2.351794433005801
 20
225.8532253124603
 30
0.0
  0
SEQEND
  5
18A
330
187
100
AcDbEntity
  8
Layer 1
370
    25
  0
POLYLINE
  5
18B
330
3C
100
AcDbEntity
  8
Layer 1
 62
     7
370
    25
100
AcDb2dPolyline
 66
     1
 10
0.0
 20
0.0
 30
0.0
  0
VERTEX
  5
18C
330
18B
100
AcDbEntity
  8
Layer 1
 62
     7
370
    25
100
AcDbVertex
100
AcDb2dVertex
 10
-2.351794433005801
 20
225.8532253124603
 30
0.0
  0
VERTEX
  5
18D
330
18B
100
AcDbEntity
  8
Layer 1
 62
     7
370
    25
100
AcDbVertex
100
AcDb2dVertex
 10
-2.351794433005801
 20
209.9789143355261
 30
0.0
  0
SEQEND
  5
18E
330
18B
100
AcDbEntity
  8
Layer 1
370
    25
  0
POLYLINE
  5
18F
330
3C
100
AcDbEntity
  8
Layer 1
 62
     7
370
    25
100
AcDb2dPolyline
 66
     1
 10
0.0
 20
0.0
 30
0.0
  0
VERTEX
  5
190
330
18F
100
AcDbEntity
  8
Layer 1
 62
     7
370
    25
100
AcDbVertex
100
AcDb2dVertex
 10
-2.351794433005801
 20
209.9789143355261
 30
0.0
  0
VERTEX
  5
191
330
18F
100
AcDbEntity
  8
Layer 1
 62
     7
370
    25
100
AcDbVertex
100
AcDb2dVertex
 10
-16.46290554058914
 20
209.9789143355261
 30
0.0
  0
SEQEND
  5
192
330
18F
100
AcDbEntity
  8
Layer 1
370
    25
  0
POLYLINE
  5
193
330
3C
100
AcDbEntity
  8
Layer 1
 62
     7
370
    25
100
AcDb2dPolyline
 66
     1
 10
0.0
 20
0.0
 30
0.0
  0
VERTEX
  5
194
330
193
100
AcDbEntity
  8
Layer 1
 62
     7
370
    25
100
AcDbVertex
100
AcDb2dVertex
 10
-16.46290554058914
 20
209.9789143355261
 30
0.0
  0
VERTEX
  5
195
330
193
100
AcDbEntity
  8
Layer 1
 62
     7
370
    25
100
AcDbVertex
100
AcDb2dVertex
 10
-16.46290554058914
 20
231.1448919778041
 30
0.0
  0
SEQEND
  5
196
330
193
100
AcDbEntity
  8
Layer 1
370
    25
  0
POLYLINE
  5
197
330
3C
100
AcDbEntity
  8
Layer 1
 62
     7
370
    15
100
AcDb2dPolyline
 66
     1
 10
0.0
 20
0.0
 30
0.0
  0
VERTEX
  5
198
330
197
100
AcDbEntity
  8
Layer 1
 62
     7
370
    15
100
AcDbVertex
100
AcDb2dVertex
 10
758.1066974016192
 20
575.2107122042876
 30
0.0
  0
VERTEX
  5
199
330
197
100
AcDbEntity
  8
Layer 1
 62
     7
370
    15
100
AcDbVertex
100
AcDb2dVertex
 10
758.1066974016192
 20
1060.21004883434
 30
0.0
  0
SEQEND
  5
19A
330
197
100
AcDbEntity
  8
Layer 1
370
    15
  0
SPLINE
  5
19B
330
3C
100
AcDbEntity
  8
Layer 1
 62
     7
370
    15
100
AcDbSpline
210
0.0
220
0.0
230
1.0
 70
     8
 71
     3
 72
     8
 73
     4
 74
     0
 42
0.0000000001
 43
0.0000000001
 40
0.0
 40
0.0
 40
0.0
 40
0.0
 40
1.0
 40
1.0
 40
1.0
 40
1.0
 10
748.1066187365844
 20
565.210633539253
 30
0.0
 10
753.6294513089885
 20
565.210633539253
 30
0.0
 10
758.1066974016192
 20
569.6878796318836
 30
0.0
 10
758.1066974016192
 20
575.2107122042876
 30
0.0
  0
POLYLINE
  5
19C
330
3C
100
AcDbEntity
  8
Layer 1
 62
     7
370
    15
100
AcDb2dPolyline
 66
     1
 10
0.0
 20
0.0
 30
0.0
  0
VERTEX
  5
19D
330
19C
100
AcDbEntity
  8
Layer 1
 62
     7
370
    15
100
AcDbVertex
100
AcDb2dVertex
 10
218.1074448781988
 20
565.210633539253
 30
0.0
  0
VERTEX
  5
19E
330
19C
100
AcDbEntity
  8
Layer 1
 62
     7
370
    15
100
AcDbVertex
100
AcDb2dVertex
 10
748.1066187365844
 20
565.210633539253
 30
0.0
  0
SEQEND
  5
19F
330
19C
100
AcDbEntity
  8
Layer 1
370
    15
  0
SPLINE
  5
1A0
330
3C
100
AcDbEntity
  8
Layer 1
 62
     7
370
    15
100
AcDbSpline
210
0.0
220
0.0
230
1.0
 70
     8
 71
     3
 72
     8
 73
     4
 74
     0
 42
0.0000000001
 43
0.0000000001
 40
0.0
 40
0.0
 40
0.0
 40
0.0
 40
1.0
 40
1.0
 40
1.0
 40
1.0
 10
208.1075384679384
 20
575.2107122042876
 30
0.0
 10
208.1075384679384
 20
569.6878796318836
 30
0.0
 10
212.5844400510206
 20
565.210633539253
 30
0.0
 10
218.1074448781988
 20
565.210633539253
 30
0.0
  0
POLYLINE
  5
1A1
330
3C
100
AcDbEntity
  8
Layer 1
 62
     7
370
    15
100
AcDb2dPolyline
 66
     1
 10
0.0
 20
0.0
 30
0.0
  0
VERTEX
  5
1A2
330
1A1
100
AcDbEntity
  8
Layer 1
 62
     7
370
    15
100
AcDbVertex
100
AcDb2dVertex
 10
208.1075384679384
 20
1060.21004883434
 30
0.0
  0
VERTEX
  5
1A3
330
1A1
100
AcDbEntity
  8
Layer 1
 62
     7
370
    15
100
AcDbVertex
100
AcDb2dVertex
 10
208.1075384679384
 20
575.2107122042876
 30
0.0
  0
SEQEND
  5
1A4
330
1A1
100
AcDbEntity
  8
Layer 1
370
    15
  0
SPLINE
  5
1A5
330
3C
100
AcDbEntity
  8
Layer 1
 62
     7
370
    15
100
AcDbSpline
210
0.0
220
0.0
230
1.0
 70
     8
 71
     3
 72
     8
 73
     4
 74
     0
 42
0.0000000001
 43
0.0000000001
 40
0.0
 40
0.0
 40
0.0
 40
0.0
 40
1.0
 40
1.0
 40
1.0
 40
1.0
 10
218.1074448781988
 20
1070.210299754149
 30
0.0
 10
212.5844400510206
 20
1070.210299754149
 30
0.0
 10
208.1075384679384
 20
1065.733053661518
 30
0.0
 10
208.1075384679384
 20
1060.21004883434
 30
0.0
  0
POLYLINE
  5
1A6
330
3C
100
AcDbEntity
  8
Layer 1
 62
     7
370
    15
100
AcDb2dPolyline
 66
     1
 10
0.0
 20
0.0
 30
0.0
  0
VERTEX
  5
1A7
330
1A6
100
AcDbEntity
  8
Layer 1
 62
     7
370
    15
100
AcDbVertex
100
AcDb2dVertex
 10
748.1066187365844
 20
1070.210299754149
 30
0.0
  0
VERTEX
  5
1A8
330
1A6
100
AcDbEntity
  8
Layer 1
 62
     7
370
    15
100
AcDbVertex
100
AcDb2dVertex
 10
218.1074448781988
 20
1070.210299754149
 30
0.0
  0
SEQEND
  5
1A9
330
1A6
100
AcDbEntity
  8
Layer 1
370
    15
  0
SPLINE
  5
1AA
330
3C
100
AcDbEntity
  8
Layer 1
 62
     7
370
    15
100
AcDbSpline
210
0.0
220
0.0
230
1.0
 70
    11
 71
     3
 72
    17
 73
    13
 74
     0
 42
0.0000000001
 43
0.0000000001
 40
0.0
 40
0.0
 40
0.0
 40
0.0
 40
1.0
 40
1.0
 40
1.0
 40
2.0
 40
2.0
 40
2.0
 40
3.0
 40
3.0
 40
3.0
 40
4.0
 40
4.0
 40
4.0
 40
4.0
 10
465.6070663983552
 20
1032.71026314243
 30
0.0
 10
465.6070663983552
 20
1023.045220013336
 30
0.0
 10
473.4419025509104
 20
1015.210039351232
 30
0.0
 10
483.1067734252303
 20
1015.210039351232
 30
0.0
 10
492.7719888090987
 20
1015.210039351232
 30
0.0
 10
500.6068249616539
 20
1023.045220013336
 30
0.0
 10
500.6068249616539
 20
1032.71026314243
 30
0.0
 10
500.6068249616539
 20
1042.375306271524
 30
0.0
 10
492.7719888090987
 20
1050.21014242408
 30
0.0
 10
483.1067734252303
 20
1050.21014242408
 30
0.0
 10
473.4419025509104
 20
1050.21014242408
 30
0.0
 10
465.6070663983552
 20
1042.375306271524
 30
0.0
 10
465.6070663983552
 20
1032.71026314243
 30
0.0
  0
SPLINE
  5
1AB
330
3C
100
AcDbEntity
  8
Layer 1
 62
     7
370
    15
100
AcDbSpline
210
0.0
220
0.0
230
1.0
 70
     8
 71
     3
 72
     8
 73
     4
 74
     0
 42
0.0000000001
 43
0.0000000001
 40
0.0
 40
0.0
 40
0.0
 40
0.0
 40
1.0
 40
1.0
 40
1.0
 40
1.0
 10
758.1066974016192
 20
1060.21004883434
 30
0.0
 10
758.1066974016192
 20
1065.733053661518
 30
0.0
 10
753.6294513089885
 20
1070.210299754149
 30
0.0
 10
748.1066187365844
 20
1070.210299754149
 30
0.0
  0
SPLINE
  5
1AC
330
3C
100
AcDbEntity
  8
Layer 1
 62
     7
370
    15
100
AcDbSpline
210
0.0
220
0.0
230
1.0
 70
     8
 71
     3
 72
     8
 73
     4
 74
     0
 42
0.0000000001
 43
0.0000000001
 40
0.0
 40
0.0
 40
0.0
 40
0.0
 40
1.0
 40
1.0
 40
1.0
 40
1.0
 10
733.1066729938067
 20
985.2103201204509
 30
0.0
 10
733.1066729938067
 20
990.7329804380807
 30
0.0
 10
728.630115920273
 20
995.2102265307113
 30
0.0
 10
723.1069388383205
 20
995.2102265307113
 30
0.0
  0
POLYLINE
  5
1AD
330
3C
100
AcDbEntity
  8
Layer 1
 62
     7
370
    15
100
AcDb2dPolyline
 66
     1
 10
0.0
 20
0.0
 30
0.0
  0
VERTEX
  5
1AE
330
1AD
100
AcDbEntity
  8
Layer 1
 62
     7
370
    15
100
AcDbVertex
100
AcDb2dVertex
 10
723.1069388383205
 20
995.2102265307113
 30
0.0
  0
VERTEX
  5
1AF
330
1AD
100
AcDbEntity
  8
Layer 1
 62
     7
370
    15
100
AcDbVertex
100
AcDb2dVertex
 10
243.1076415407856
 20
995.2102265307113
 30
0.0
  0
SEQEND
  5
1B0
330
1AD
100
AcDbEntity
  8
Layer 1
370
    15
  0
SPLINE
  5
1B1
330
3C
100
AcDbEntity
  8
Layer 1
 62
     7
370
    15
100
AcDbSpline
210
0.0
220
0.0
230
1.0
 70
     8
 71
     3
 72
     8
 73
     4
 74
     0
 42
0.0000000001
 43
0.0000000001
 40
0.0
 40
0.0
 40
0.0
 40
0.0
 40
1.0
 40
1.0
 40
1.0
 40
1.0
 10
243.1076415407856
 20
995.2102265307113
 30
0.0
 10
237.5846367136073
 20
995.2102265307113
 30
0.0
 10
233.1073906209766
 20
990.7329804380807
 30
0.0
 10
233.1073906209766
 20
985.2103201204509
 30
0.0
  0
POLYLINE
  5
1B2
330
3C
100
AcDbEntity
  8
Layer 1
 62
     7
370
    15
100
AcDb2dPolyline
 66
     1
 10
0.0
 20
0.0
 30
0.0
  0
VERTEX
  5
1B3
330
1B2
100
AcDbEntity
  8
Layer 1
 62
     7
370
    15
100
AcDbVertex
100
AcDb2dVertex
 10
733.1066729938067
 20
600.2107366121002
 30
0.0
  0
VERTEX
  5
1B4
330
1B2
100
AcDbEntity
  8
Layer 1
 62
     7
370
    15
100
AcDbVertex
100
AcDb2dVertex
 10
733.1066729938067
 20
985.2103201204509
 30
0.0
  0
SEQEND
  5
1B5
330
1B2
100
AcDbEntity
  8
Layer 1
370
    15
  0
POLYLINE
  5
1B6
330
3C
100
AcDbEntity
  8
Layer 1
 62
     7
370
    15
100
AcDb2dPolyline
 66
     1
 10
0.0
 20
0.0
 30
0.0
  0
VERTEX
  5
1B7
330
1B6
100
AcDbEntity
  8
Layer 1
 62
     7
370
    15
100
AcDbVertex
100
AcDb2dVertex
 10
233.1073906209766
 20
985.2103201204509
 30
0.0
  0
VERTEX
  5
1B8
330
1B6
100
AcDbEntity
  8
Layer 1
 62
     7
370
    15
100
AcDbVertex
100
AcDb2dVertex
 10
233.1073906209766
 20
600.2107366121002
 30
0.0
  0
SEQEND
  5
1B9
330
1B6
100
AcDbEntity
  8
Layer 1
370
    15
  0
SPLINE
  5
1BA
330
3C
100
AcDbEntity
  8
Layer 1
 62
     7
370
    15
100
AcDbSpline
210
0.0
220
0.0
230
1.0
 70
     8
 71
     3
 72
     8
 73
     4
 74
     0
 42
0.0000000001
 43
0.0000000001
 40
0.0
 40
0.0
 40
0.0
 40
0.0
 40
1.0
 40
1.0
 40
1.0
 40
1.0
 10
723.1069388383205
 20
590.211002456614
 30
0.0
 10
728.630115920273
 20
590.211002456614
 30
0.0
 10
733.1066729938067
 20
594.6879040396961
 30
0.0
 10
733.1066729938067
 20
600.2107366121002
 30
0.0
  0
SPLINE
  5
1BB
330
3C
100
AcDbEntity
  8
Layer 1
 62
     7
370
    15
100
AcDbSpline
210
0.0
220
0.0
230
1.0
 70
     8
 71
     3
 72
     8
 73
     4
 74
     0
 42
0.0000000001
 43
0.0000000001
 40
0.0
 40
0.0
 40
0.0
 40
0.0
 40
1.0
 40
1.0
 40
1.0
 40
1.0
 10
233.1073906209766
 20
600.2107366121002
 30
0.0
 10
233.1073906209766
 20
594.6879040396961
 30
0.0
 10
237.5846367136073
 20
590.211002456614
 30
0.0
 10
243.1076415407856
 20
590.211002456614
 30
0.0
  0
POLYLINE
  5
1BC
330
3C
100
AcDbEntity
  8
Layer 1
 62
     7
370
    15
100
AcDb2dPolyline
 66
     1
 10
0.0
 20
0.0
 30
0.0
  0
VERTEX
  5
1BD
330
1BC
100
AcDbEntity
  8
Layer 1
 62
     7
370
    15
100
AcDbVertex
100
AcDb2dVertex
 10
243.1076415407856
 20
590.211002456614
 30
0.0
  0
VERTEX
  5
1BE
330
1BC
100
AcDbEntity
  8
Layer 1
 62
     7
370
    15
100
AcDbVertex
100
AcDb2dVertex
 10
723.1069388383205
 20
590.211002456614
 30
0.0
  0
SEQEND
  5
1BF
330
1BC
100
AcDbEntity
  8
Layer 1
370
    15
  0
POLYLINE
  5
1C0
330
3C
100
AcDbEntity
  8
Layer 1
 62
     7
370
    15
100
AcDb2dPolyline
 66
     1
 10
0.0
 20
0.0
 30
0.0
  0
VERTEX
  5
1C1
330
1C0
100
AcDbEntity
  8
Layer 1
 62
     7
370
    15
100
AcDbVertex
100
AcDb2dVertex
 10
723.1069388383205
 20
995.2102265307113
 30
0.0
  0
VERTEX
  5
1C2
330
1C0
100
AcDbEntity
  8
Layer 1
 62
     7
370
    15
100
AcDbVertex
100
AcDb2dVertex
 10
723.1069388383205
 20
985.2103201204509
 30
0.0
  0
SEQEND
  5
1C3
330
1C0
100
AcDbEntity
  8
Layer 1
370
    15
  0
POLYLINE
  5
1C4
330
3C
100
AcDbEntity
  8
Layer 1
 62
     7
370
    15
100
AcDb2dPolyline
 66
     1
 10
0.0
 20
0.0
 30
0.0
  0
VERTEX
  5
1C5
330
1C4
100
AcDbEntity
  8
Layer 1
 62
     7
370
    15
100
AcDbVertex
100
AcDb2dVertex
 10
723.1069388383205
 20
985.2103201204509
 30
0.0
  0
VERTEX
  5
1C6
330
1C4
100
AcDbEntity
  8
Layer 1
 62
     7
370
    15
100
AcDbVertex
100
AcDb2dVertex
 10
733.1066729938067
 20
985.2103201204509
 30
0.0
  0
SEQEND
  5
1C7
330
1C4
100
AcDbEntity
  8
Layer 1
370
    15
  0
POLYLINE
  5
1C8
330
3C
100
AcDbEntity
  8
Layer 1
 62
     7
370
    15
100
AcDb2dPolyline
 66
     1
 10
0.0
 20
0.0
 30
0.0
  0
VERTEX
  5
1C9
330
1C8
100
AcDbEntity
  8
Layer 1
 62
     7
370
    15
100
AcDbVertex
100
AcDb2dVertex
 10
243.1076415407856
 20
995.2102265307113
 30
0.0
  0
VERTEX
  5
1CA
330
1C8
100
AcDbEntity
  8
Layer 1
 62
     7
370
    15
100
AcDbVertex
100
AcDb2dVertex
 10
243.1076415407856
 20
985.2103201204509
 30
0.0
  0
SEQEND
  5
1CB
330
1C8
100
AcDbEntity
  8
Layer 1
370
    15
  0
POLYLINE
  5
1CC
330
3C
100
AcDbEntity
  8
Layer 1
 62
     7
370
    15
100
AcDb2dPolyline
 66
     1
 10
0.0
 20
0.0
 30
0.0
  0
VERTEX
  5
1CD
330
1CC
100
AcDbEntity
  8
Layer 1
 62
     7
370
    15
100
AcDbVertex
100
AcDb2dVertex
 10
233.1073906209766
 20
985.2103201204509
 30
0.0
  0
VERTEX
  5
1CE
330
1CC
100
AcDbEntity
  8
Layer 1
 62
     7
370
    15
100
AcDbVertex
100
AcDb2dVertex
 10
243.1076415407856
 20
985.2103201204509
 30
0.0
  0
SEQEND
  5
1CF
330
1CC
100
AcDbEntity
  8
Layer 1
370
    15
  0
POLYLINE
  5
1D0
330
3C
100
AcDbEntity
  8
Layer 1
 62
     7
370
    15
100
AcDb2dPolyline
 66
     1
 10
0.0
 20
0.0
 30
0.0
  0
VERTEX
  5
1D1
330
1D0
100
AcDbEntity
  8
Layer 1
 62
     7
370
    15
100
AcDbVertex
100
AcDb2dVertex
 10
723.1069388383205
 20
985.2103201204509
 30
0.0
  0
VERTEX
  5
1D2
330
1D0
100
AcDbEntity
  8
Layer 1
 62
     7
370
    15
100
AcDbVertex
100
AcDb2dVertex
 10
243.1076415407856
 20
985.2103201204509
 30
0.0
  0
SEQEND
  5
1D3
330
1D0
100
AcDbEntity
  8
Layer 1
370
    15
  0
POLYLINE
  5
1D4
330
3C
100
AcDbEntity
  8
Layer 1
 62
     7
370
    15
100
AcDb2dPolyline
 66
     1
 10
0.0
 20
0.0
 30
0.0
  0
VERTEX
  5
1D5
330
1D4
100
AcDbEntity
  8
Layer 1
 62
     7
370
    15
100
AcDbVertex
100
AcDb2dVertex
 10
723.1069388383205
 20
600.2107366121002
 30
0.0
  0
VERTEX
  5
1D6
330
1D4
100
AcDbEntity
  8
Layer 1
 62
     7
370
    15
100
AcDbVertex
100
AcDb2dVertex
 10
723.1069388383205
 20
985.2103201204509
 30
0.0
  0
SEQEND
  5
1D7
330
1D4
100
AcDbEntity
  8
Layer 1
370
    15
  0
POLYLINE
  5
1D8
330
3C
100
AcDbEntity
  8
Layer 1
 62
     7
370
    15
100
AcDb2dPolyline
 66
     1
 10
0.0
 20
0.0
 30
0.0
  0
VERTEX
  5
1D9
330
1D8
100
AcDbEntity
  8
Layer 1
 62
     7
370
    15
100
AcDbVertex
100
AcDb2dVertex
 10
723.1069388383205
 20
600.2107366121002
 30
0.0
  0
VERTEX
  5
1DA
330
1D8
100
AcDbEntity
  8
Layer 1
 62
     7
370
    15
100
AcDbVertex
100
AcDb2dVertex
 10
733.1066729938067
 20
600.2107366121002
 30
0.0
  0
SEQEND
  5
1DB
330
1D8
100
AcDbEntity
  8
Layer 1
370
    15
  0
POLYLINE
  5
1DC
330
3C
100
AcDbEntity
  8
Layer 1
 62
     7
370
    15
100
AcDb2dPolyline
 66
     1
 10
0.0
 20
0.0
 30
0.0
  0
VERTEX
  5
1DD
330
1DC
100
AcDbEntity
  8
Layer 1
 62
     7
370
    15
100
AcDbVertex
100
AcDb2dVertex
 10
243.1076415407856
 20
985.2103201204509
 30
0.0
  0
VERTEX
  5
1DE
330
1DC
100
AcDbEntity
  8
Layer 1
 62
     7
370
    15
100
AcDbVertex
100
AcDb2dVertex
 10
243.1076415407856
 20
600.2107366121002
 30
0.0
  0
SEQEND
  5
1DF
330
1DC
100
AcDbEntity
  8
Layer 1
370
    15
  0
POLYLINE
  5
1E0
330
3C
100
AcDbEntity
  8
Layer 1
 62
     7
370
    15
100
AcDb2dPolyline
 66
     1
 10
0.0
 20
0.0
 30
0.0
  0
VERTEX
  5
1E1
330
1E0
100
AcDbEntity
  8
Layer 1
 62
     7
370
    15
100
AcDbVertex
100
AcDb2dVertex
 10
233.1073906209766
 20
600.2107366121002
 30
0.0
  0
VERTEX
  5
1E2
330
1E0
100
AcDbEntity
  8
Layer 1
 62
     7
370
    15
100
AcDbVertex
100
AcDb2dVertex
 10
243.1076415407856
 20
600.2107366121002
 30
0.0
  0
SEQEND
  5
1E3
330
1E0
100
AcDbEntity
  8
Layer 1
370
    15
  0
POLYLINE
  5
1E4
330
3C
100
AcDbEntity
  8
Layer 1
 62
     7
370
    15
100
AcDb2dPolyline
 66
     1
 10
0.0
 20
0.0
 30
0.0
  0
VERTEX
  5
1E5
330
1E4
100
AcDbEntity
  8
Layer 1
 62
     7
370
    15
100
AcDbVertex
100
AcDb2dVertex
 10
723.1069388383205
 20
600.2107366121002
 30
0.0
  0
VERTEX
  5
1E6
330
1E4
100
AcDbEntity
  8
Layer 1
 62
     7
370
    15
100
AcDbVertex
100
AcDb2dVertex
 10
723.1069388383205
 20
590.211002456614
 30
0.0
  0
SEQEND
  5
1E7
330
1E4
100
AcDbEntity
  8
Layer 1
370
    15
  0
POLYLINE
  5
1E8
330
3C
100
AcDbEntity
  8
Layer 1
 62
     7
370
    15
100
AcDb2dPolyline
 66
     1
 10
0.0
 20
0.0
 30
0.0
  0
VERTEX
  5
1E9
330
1E8
100
AcDbEntity
  8
Layer 1
 62
     7
370
    15
100
AcDbVertex
100
AcDb2dVertex
 10
243.1076415407856
 20
600.2107366121002
 30
0.0
  0
VERTEX
  5
1EA
330
1E8
100
AcDbEntity
  8
Layer 1
 62
     7
370
    15
100
AcDbVertex
100
AcDb2dVertex
 10
723.1069388383205
 20
600.2107366121002
 30
0.0
  0
SEQEND
  5
1EB
330
1E8
100
AcDbEntity
  8
Layer 1
370
    15
  0
POLYLINE
  5
1EC
330
3C
100
AcDbEntity
  8
Layer 1
 62
     7
370
    15
100
AcDb2dPolyline
 66
     1
 10
0.0
 20
0.0
 30
0.0
  0
VERTEX
  5
1ED
330
1EC
100
AcDbEntity
  8
Layer 1
 62
     7
370
    15
100
AcDbVertex
100
AcDb2dVertex
 10
243.1076415407856
 20
600.2107366121002
 30
0.0
  0
VERTEX
  5
1EE
330
1EC
100
AcDbEntity
  8
Layer 1
 62
     7
370
    15
100
AcDbVertex
100
AcDb2dVertex
 10
243.1076415407856
 20
590.211002456614
 30
0.0
  0
SEQEND
  5
1EF
330
1EC
100
AcDbEntity
  8
Layer 1
370
    15
  0
SPLINE
  5
1F0
330
3C
100
AcDbEntity
  8
Layer 1
 62
     7
370
    15
100
AcDbSpline
210
0.0
220
0.0
230
1.0
 70
     8
 71
     3
 72
     8
 73
     4
 74
     0
 42
0.0000000001
 43
0.0000000001
 40
0.0
 40
0.0
 40
0.0
 40
0.0
 40
1.0
 40
1.0
 40
1.0
 40
1.0
 10
427.6832830419507
 20
790.3986109135114
 30
0.0
 10
427.3528983849152
 20
790.7155596981545
 30
0.0
 10
427.0376721480149
 20
791.0509397436435
 30
0.0
 10
426.7407049171863
 20
791.4002724258479
 30
0.0
  0
SPLINE
  5
1F1
330
3C
100
AcDbEntity
  8
Layer 1
 62
     7
370
    15
100
AcDbSpline
210
0.0
220
0.0
230
1.0
 70
     8
 71
     3
 72
     8
 73
     4
 74
     0
 42
0.0000000001
 43
0.0000000001
 40
0.0
 40
0.0
 40
0.0
 40
0.0
 40
1.0
 40
1.0
 40
1.0
 40
1.0
 10
426.7407049171863
 20
791.4002724258479
 30
0.0
 10
426.4440821959063
 20
791.7497773628265
 30
0.0
 10
426.163651423407
 20
792.1158187581343
 30
0.0
 10
425.9042357333677
 20
792.4925399494464
 30
0.0
  0
SPLINE
  5
1F2
330
3C
100
AcDbEntity
  8
Layer 1
 62
     7
370
    15
100
AcDbSpline
210
0.0
220
0.0
230
1.0
 70
     8
 71
     3
 72
     8
 73
     4
 74
     0
 42
0.0000000001
 43
0.0000000001
 40
0.0
 40
0.0
 40
0.0
 40
0.0
 40
1.0
 40
1.0
 40
1.0
 40
1.0
 10
425.9042357333677
 20
792.4925399494464
 30
0.0
 10
425.3854043532891
 20
793.2466713511675
 30
0.0
 10
424.9487385005337
 20
794.0424884082603
 30
0.0
 10
424.5935491560044
 20
794.8784408277561
 30
0.0
  0
SPLINE
  5
1F3
330
3C
100
AcDbEntity
  8
Layer 1
 62
     7
370
    15
100
AcDbSpline
210
0.0
220
0.0
230
1.0
 70
     8
 71
     3
 72
     8
 73
     4
 74
     0
 42
0.0000000001
 43
0.0000000001
 40
0.0
 40
0.0
 40
0.0
 40
0.0
 40
1.0
 40
1.0
 40
1.0
 40
1.0
 10
424.5935491560044
 20
794.8784408277561
 30
0.0
 10
424.415437719417
 20
795.2961586553427
 30
0.0
 10
424.2583413652896
 20
795.7245562789335
 30
0.0
 10
424.1219155840737
 20
796.16328918898
 30
0.0
  0
SPLINE
  5
1F4
330
3C
100
AcDbEntity
  8
Layer 1
 62
     7
370
    15
100
AcDbSpline
210
0.0
220
0.0
230
1.0
 70
     8
 71
     3
 72
     8
 73
     4
 74
     0
 42
0.0000000001
 43
0.0000000001
 40
0.0
 40
0.0
 40
0.0
 40
0.0
 40
1.0
 40
1.0
 40
1.0
 40
1.0
 10
424.1219155840737
 20
796.16328918898
 30
0.0
 10
423.9853175480836
 20
796.6021943538009
 30
0.0
 10
423.8723184161673
 20
797.0455781427526
 30
0.0
 10
423.781540150131
 20
797.4918902628666
 30
0.0
  0
SPLINE
  5
1F5
330
3C
100
AcDbEntity
  8
Layer 1
 62
     7
370
    15
100
AcDbSpline
210
0.0
220
0.0
230
1.0
 70
     8
 71
     3
 72
     8
 73
     4
 74
     0
 42
0.0000000001
 43
0.0000000001
 40
0.0
 40
0.0
 40
0.0
 40
0.0
 40
1.0
 40
1.0
 40
1.0
 40
1.0
 10
423.781540150131
 20
797.4918902628666
 30
0.0
 10
423.6006726371554
 20
798.3848590126435
 30
0.0
 10
423.5104111354419
 20
799.2909191252642
 30
0.0
 10
423.5104111354419
 20
800.2105873650515
 30
0.0
  0
POLYLINE
  5
1F6
330
3C
100
AcDbEntity
  8
Layer 1
 62
     7
370
    15
100
AcDb2dPolyline
 66
     1
 10
0.0
 20
0.0
 30
0.0
  0
VERTEX
  5
1F7
330
1F6
100
AcDbEntity
  8
Layer 1
 62
     7
370
    15
100
AcDbVertex
100
AcDb2dVertex
 10
243.1076415407856
 20
600.2107366121002
 30
0.0
  0
VERTEX
  5
1F8
330
1F6
100
AcDbEntity
  8
Layer 1
 62
     7
370
    15
100
AcDbVertex
100
AcDb2dVertex
 10
427.6832830419507
 20
790.3986109135114
 30
0.0
  0
SEQEND
  5
1F9
330
1F6
100
AcDbEntity
  8
Layer 1
370
    15
  0
POLYLINE
  5
1FA
330
3C
100
AcDbEntity
  8
Layer 1
 62
     7
370
    15
100
AcDb2dPolyline
 66
     1
 10
0.0
 20
0.0
 30
0.0
  0
VERTEX
  5
1FB
330
1FA
100
AcDbEntity
  8
Layer 1
 62
     7
370
    15
100
AcDbVertex
100
AcDb2dVertex
 10
427.4543564469559
 20
901.7876774546746
 30
0.0
  0
VERTEX
  5
1FC
330
1FA
100
AcDbEntity
  8
Layer 1
 62
     7
370
    15
100
AcDbVertex
100
AcDb2dVertex
 10
243.1076415407856
 20
985.2103201204509
 30
0.0
  0
SEQEND
  5
1FD
330
1FA
100
AcDbEntity
  8
Layer 1
370
    15
  0
SPLINE
  5
1FE
330
3C
100
AcDbEntity
  8
Layer 1
 62
     7
370
    15
100
AcDbSpline
210
0.0
220
0.0
230
1.0
 70
     8
 71
     3
 72
     8
 73
     4
 74
     0
 42
0.0000000001
 43
0.0000000001
 40
0.0
 40
0.0
 40
0.0
 40
0.0
 40
1.0
 40
1.0
 40
1.0
 40
1.0
 10
423.5104111354419
 20
892.2101397509058
 30
0.0
 10
423.5104111354419
 20
892.65645187102
 30
0.0
 10
423.5319429822247
 20
893.1010414433914
 30
0.0
 10
423.5753511853388
 20
893.5435639584717
 30
0.0
  0
SPLINE
  5
1FF
330
3C
100
AcDbEntity
  8
Layer 1
 62
     7
370
    15
100
AcDbSpline
210
0.0
220
0.0
230
1.0
 70
     8
 71
     3
 72
     8
 73
     4
 74
     0
 42
0.0000000001
 43
0.0000000001
 40
0.0
 40
0.0
 40
0.0
 40
0.0
 40
1.0
 40
1.0
 40
1.0
 40
1.0
 10
423.5753511853388
 20
893.5435639584717
 30
0.0
 10
423.6185871336787
 20
893.9866032378749
 30
0.0
 10
423.6842162026727
 20
894.4291257529553
 30
0.0
 10
423.770343589804
 20
894.863380038871
 30
0.0
  0
SPLINE
  5
200
330
3C
100
AcDbEntity
  8
Layer 1
 62
     7
370
    15
100
AcDbSpline
210
0.0
220
0.0
230
1.0
 70
     8
 71
     3
 72
     8
 73
     4
 74
     0
 42
0.0000000001
 43
0.0000000001
 40
0.0
 40
0.0
 40
0.0
 40
0.0
 40
1.0
 40
1.0
 40
1.0
 40
1.0
 10
423.770343589804
 20
894.863380038871
 30
0.0
 10
423.942942873615
 20
895.7318886107025
 30
0.0
 10
424.1975354299749
 20
896.5742144568461
 30
0.0
 10
424.5332599850125
 20
897.3894963034304
 30
0.0
  0
SPLINE
  5
201
330
3C
100
AcDbEntity
  8
Layer 1
 62
     7
370
    15
100
AcDbSpline
210
0.0
220
0.0
230
1.0
 70
     8
 71
     3
 72
     8
 73
     4
 74
     0
 42
0.0000000001
 43
0.0000000001
 40
0.0
 40
0.0
 40
0.0
 40
0.0
 40
1.0
 40
1.0
 40
1.0
 40
1.0
 10
424.5332599850125
 20
897.3894963034304
 30
0.0
 10
424.8688122852759
 20
898.2047781500148
 30
0.0
 10
425.2906642274447
 20
898.9988726593649
 30
0.0
 10
425.7798677863502
 20
899.7342282906915
 30
0.0
  0
SPLINE
  5
202
330
3C
100
AcDbEntity
  8
Layer 1
 62
     7
370
    15
100
AcDbSpline
210
0.0
220
0.0
230
1.0
 70
     8
 71
     3
 72
     8
 73
     4
 74
     0
 42
0.0000000001
 43
0.0000000001
 40
0.0
 40
0.0
 40
0.0
 40
0.0
 40
1.0
 40
1.0
 40
1.0
 40
1.0
 10
425.7798677863502
 20
899.7342282906915
 30
0.0
 10
426.0239528014802
 20
900.1023367432904
 30
0.0
 10
426.2856078035849
 20
900.4571815782712
 30
0.0
 10
426.5646605378901
 20
900.7994518147308
 30
0.0
  0
SPLINE
  5
203
330
3C
100
AcDbEntity
  8
Layer 1
 62
     7
370
    15
100
AcDbSpline
210
0.0
220
0.0
230
1.0
 70
     8
 71
     3
 72
     8
 73
     4
 74
     0
 42
0.0000000001
 43
0.0000000001
 40
0.0
 40
0.0
 40
0.0
 40
0.0
 40
1.0
 40
1.0
 40
1.0
 40
1.0
 10
426.5646605378901
 20
900.7994518147308
 30
0.0
 10
426.8438855269696
 20
901.1417220511903
 30
0.0
 10
427.1408527577981
 20
901.4724512177743
 30
0.0
 10
427.4543564469559
 20
901.7881942189974
 30
0.0
  0
POLYLINE
  5
204
330
3C
100
AcDbEntity
  8
Layer 1
 62
     7
370
    15
100
AcDb2dPolyline
 66
     1
 10
0.0
 20
0.0
 30
0.0
  0
VERTEX
  5
205
330
204
100
AcDbEntity
  8
Layer 1
 62
     7
370
    15
100
AcDbVertex
100
AcDb2dVertex
 10
423.5104111354419
 20
800.2105873650515
 30
0.0
  0
VERTEX
  5
206
330
204
100
AcDbEntity
  8
Layer 1
 62
     7
370
    15
100
AcDbVertex
100
AcDb2dVertex
 10
423.5104111354419
 20
892.2104842604543
 30
0.0
  0
SEQEND
  5
207
330
204
100
AcDbEntity
  8
Layer 1
370
    15
  0
POLYLINE
  5
208
330
3C
100
AcDbEntity
  8
Layer 1
 62
     7
370
    15
100
AcDb2dPolyline
 66
     1
 10
0.0
 20
0.0
 30
0.0
  0
VERTEX
  5
209
330
208
100
AcDbEntity
  8
Layer 1
 62
     7
370
    15
100
AcDbVertex
100
AcDb2dVertex
 10
723.1069388383205
 20
985.2103201204509
 30
0.0
  0
VERTEX
  5
20A
330
208
100
AcDbEntity
  8
Layer 1
 62
     7
370
    15
100
AcDbVertex
100
AcDb2dVertex
 10
538.7595349130532
 20
901.7876774546746
 30
0.0
  0
SEQEND
  5
20B
330
208
100
AcDbEntity
  8
Layer 1
370
    15
  0
SPLINE
  5
20C
330
3C
100
AcDbEntity
  8
Layer 1
 62
     7
370
    15
100
AcDbSpline
210
0.0
220
0.0
230
1.0
 70
     8
 71
     3
 72
     8
 73
     4
 74
     0
 42
0.0000000001
 43
0.0000000001
 40
0.0
 40
0.0
 40
0.0
 40
0.0
 40
1.0
 40
1.0
 40
1.0
 40
1.0
 10
529.1070663824802
 20
905.7762367527226
 30
0.0
 10
529.5569958528538
 20
905.7762367527226
 30
0.0
 10
530.0052027754848
 20
905.7509153009061
 30
0.0
 10
530.4530651885673
 20
905.7100909194058
 30
0.0
  0
SPLINE
  5
20D
330
3C
100
AcDbEntity
  8
Layer 1
 62
     7
370
    15
100
AcDbSpline
210
0.0
220
0.0
230
1.0
 70
     8
 71
     3
 72
     8
 73
     4
 74
     0
 42
0.0000000001
 43
0.0000000001
 40
0.0
 40
0.0
 40
0.0
 40
0.0
 40
1.0
 40
1.0
 40
1.0
 40
1.0
 10
530.4530651885673
 20
905.7100909194058
 30
0.0
 10
530.8995495634557
 20
905.6697833022284
 30
0.0
 10
531.3463784478926
 20
905.6053600166542
 30
0.0
 10
531.785628122262
 20
905.5195771390715
 30
0.0
  0
SPLINE
  5
20E
330
3C
100
AcDbEntity
  8
Layer 1
 62
     7
370
    15
100
AcDbSpline
210
0.0
220
0.0
230
1.0
 70
     8
 71
     3
 72
     8
 73
     4
 74
     0
 42
0.0000000001
 43
0.0000000001
 40
0.0
 40
0.0
 40
0.0
 40
0.0
 40
1.0
 40
1.0
 40
1.0
 40
1.0
 10
531.785628122262
 20
905.5195771390715
 30
0.0
 10
532.6634384519036
 20
905.3483558934546
 30
0.0
 10
533.5126544890177
 20
905.0916962798035
 30
0.0
 10
534.3346542717983
 20
904.7521821197321
 30
0.0
  0
SPLINE
  5
20F
330
3C
100
AcDbEntity
  8
Layer 1
 62
     7
370
    15
100
AcDbSpline
210
0.0
220
0.0
230
1.0
 70
     8
 71
     3
 72
     8
 73
     4
 74
     0
 42
0.0000000001
 43
0.0000000001
 40
0.0
 40
0.0
 40
0.0
 40
0.0
 40
1.0
 40
1.0
 40
1.0
 40
1.0
 10
534.3346542717983
 20
904.7521821197321
 30
0.0
 10
535.1566540545789
 20
904.4123234501122
 30
0.0
 10
535.9559162071569
 20
903.9847871003927
 30
0.0
 10
536.696267226937
 20
903.4885210957425
 30
0.0
  0
SPLINE
  5
210
330
3C
100
AcDbEntity
  8
Layer 1
 62
     7
370
    15
100
AcDbSpline
210
0.0
220
0.0
230
1.0
 70
     8
 71
     3
 72
     8
 73
     4
 74
     0
 42
0.0000000001
 43
0.0000000001
 40
0.0
 40
0.0
 40
0.0
 40
0.0
 40
1.0
 40
1.0
 40
1.0
 40
1.0
 10
536.696267226937
 20
903.4885210957425
 30
0.0
 10
537.4366182467172
 20
902.9922550910923
 30
0.0
 10
538.1263263628642
 20
902.4245033551231
 30
0.0
 10
538.7595349130532
 20
901.7876774546746
 30
0.0
  0
POLYLINE
  5
211
330
3C
100
AcDbEntity
  8
Layer 1
 62
     7
370
    15
100
AcDb2dPolyline
 66
     1
 10
0.0
 20
0.0
 30
0.0
  0
VERTEX
  5
212
330
211
100
AcDbEntity
  8
Layer 1
 62
     7
370
    15
100
AcDbVertex
100
AcDb2dVertex
 10
437.1069972323031
 20
905.7762367527226
 30
0.0
  0
VERTEX
  5
213
330
211
100
AcDbEntity
  8
Layer 1
 62
     7
370
    15
100
AcDbVertex
100
AcDb2dVertex
 10
529.1070663824802
 20
905.7762367527226
 30
0.0
  0
SEQEND
  5
214
330
211
100
AcDbEntity
  8
Layer 1
370
    15
  0
SPLINE
  5
215
330
3C
100
AcDbEntity
  8
Layer 1
 62
     7
370
    15
100
AcDbSpline
210
0.0
220
0.0
230
1.0
 70
     8
 71
     3
 72
     8
 73
     4
 74
     0
 42
0.0000000001
 43
0.0000000001
 40
0.0
 40
0.0
 40
0.0
 40
0.0
 40
1.0
 40
1.0
 40
1.0
 40
1.0
 10
427.4548732112787
 20
901.7876774546746
 30
0.0
 10
427.7709607220503
 20
902.1060042775117
 30
0.0
 10
428.104101455474
 20
902.4091726802137
 30
0.0
 10
428.4501612969673
 20
902.6944265863924
 30
0.0
  0
SPLINE
  5
216
330
3C
100
AcDbEntity
  8
Layer 1
 62
     7
370
    15
100
AcDbSpline
210
0.0
220
0.0
230
1.0
 70
     8
 71
     3
 72
     8
 73
     4
 74
     0
 42
0.0000000001
 43
0.0000000001
 40
0.0
 40
0.0
 40
0.0
 40
0.0
 40
1.0
 40
1.0
 40
1.0
 40
1.0
 10
428.4501612969673
 20
902.6944265863924
 30
0.0
 10
428.7967379027835
 20
902.9795082377968
 30
0.0
 10
429.1589896930575
 20
903.2485701951948
 30
0.0
 10
429.5308877506902
 20
903.4973060892299
 30
0.0
  0
SPLINE
  5
217
330
3C
100
AcDbEntity
  8
Layer 1
 62
     7
370
    15
100
AcDbSpline
210
0.0
220
0.0
230
1.0
 70
     8
 71
     3
 72
     8
 73
     4
 74
     0
 42
0.0000000001
 43
0.0000000001
 40
0.0
 40
0.0
 40
0.0
 40
0.0
 40
1.0
 40
1.0
 40
1.0
 40
1.0
 10
429.5308877506902
 20
903.4973060892299
 30
0.0
 10
430.2745116111814
 20
903.9944333677514
 30
0.0
 10
431.0577540697529
 20
904.4123234501122
 30
0.0
 10
431.8800983620821
 20
904.7521821197321
 30
0.0
  0
SPLINE
  5
218
330
3C
100
AcDbEntity
  8
Layer 1
 62
     7
370
    15
100
AcDbSpline
210
0.0
220
0.0
230
1.0
 70
     8
 71
     3
 72
     8
 73
     4
 74
     0
 42
0.0000000001
 43
0.0000000001
 40
0.0
 40
0.0
 40
0.0
 40
0.0
 40
1.0
 40
1.0
 40
1.0
 40
1.0
 10
431.8800983620821
 20
904.7521821197321
 30
0.0
 10
432.7020981448627
 20
905.092040789352
 30
0.0
 10
433.5706067166942
 20
905.3533512819082
 30
0.0
 10
434.4456609699477
 20
905.5230222345568
 30
0.0
  0
SPLINE
  5
219
330
3C
100
AcDbEntity
  8
Layer 1
 62
     7
370
    15
100
AcDbSpline
210
0.0
220
0.0
230
1.0
 70
     8
 71
     3
 72
     8
 73
     4
 74
     0
 42
0.0000000001
 43
0.0000000001
 40
0.0
 40
0.0
 40
0.0
 40
0.0
 40
1.0
 40
1.0
 40
1.0
 40
1.0
 10
434.4456609699477
 20
905.5230222345568
 30
0.0
 10
434.8824990774773
 20
905.6077715834939
 30
0.0
 10
435.323299044815
 20
905.6706445760998
 30
0.0
 10
435.767544107638
 20
905.7109521932772
 30
0.0
  0
SPLINE
  5
21A
330
3C
100
AcDbEntity
  8
Layer 1
 62
     7
370
    15
100
AcDbSpline
210
0.0
220
0.0
230
1.0
 70
     8
 71
     3
 72
     8
 73
     4
 74
     0
 42
0.0000000001
 43
0.0000000001
 40
0.0
 40
0.0
 40
0.0
 40
0.0
 40
1.0
 40
1.0
 40
1.0
 40
1.0
 10
435.767544107638
 20
905.7109521932772
 30
0.0
 10
436.2111001513639
 20
905.7509153009061
 30
0.0
 10
436.6577567810265
 20
905.7762367527226
 30
0.0
 10
437.1069972323031
 20
905.7762367527226
 30
0.0
  0
POLYLINE
  5
21B
330
3C
100
AcDbEntity
  8
Layer 1
 62
     7
370
    15
100
AcDb2dPolyline
 66
     1
 10
0.0
 20
0.0
 30
0.0
  0
VERTEX
  5
21C
330
21B
100
AcDbEntity
  8
Layer 1
 62
     7
370
    15
100
AcDbVertex
100
AcDb2dVertex
 10
723.1069388383205
 20
600.2107366121002
 30
0.0
  0
VERTEX
  5
21D
330
21B
100
AcDbEntity
  8
Layer 1
 62
     7
370
    15
100
AcDbVertex
100
AcDb2dVertex
 10
538.5314695919296
 20
790.3986109135114
 30
0.0
  0
SEQEND
  5
21E
330
21B
100
AcDbEntity
  8
Layer 1
370
    15
  0
SPLINE
  5
21F
330
3C
100
AcDbEntity
  8
Layer 1
 62
     7
370
    15
100
AcDbSpline
210
0.0
220
0.0
230
1.0
 70
     8
 71
     3
 72
     8
 73
     4
 74
     0
 42
0.0000000001
 43
0.0000000001
 40
0.0
 40
0.0
 40
0.0
 40
0.0
 40
1.0
 40
1.0
 40
1.0
 40
1.0
 10
542.7041692436643
 20
800.2105873650515
 30
0.0
 10
542.7041692436643
 20
799.7504948629964
 30
0.0
 10
542.6810871039131
 20
799.2924694182325
 30
0.0
 10
542.6352673339593
 20
798.8366832855339
 30
0.0
  0
SPLINE
  5
220
330
3C
100
AcDbEntity
  8
Layer 1
 62
     7
370
    15
100
AcDbSpline
210
0.0
220
0.0
230
1.0
 70
     8
 71
     3
 72
     8
 73
     4
 74
     0
 42
0.0000000001
 43
0.0000000001
 40
0.0
 40
0.0
 40
0.0
 40
0.0
 40
1.0
 40
1.0
 40
1.0
 40
1.0
 10
542.6352673339593
 20
798.8366832855339
 30
0.0
 10
542.590481092651
 20
798.3807248980611
 30
0.0
 10
542.5205456543005
 20
797.9249387653625
 30
0.0
 10
542.4289061143928
 20
797.4765595879572
 30
0.0
  0
SPLINE
  5
221
330
3C
100
AcDbEntity
  8
Layer 1
 62
     7
370
    15
100
AcDbSpline
210
0.0
220
0.0
230
1.0
 70
     8
 71
     3
 72
     8
 73
     4
 74
     0
 42
0.0000000001
 43
0.0000000001
 40
0.0
 40
0.0
 40
0.0
 40
0.0
 40
1.0
 40
1.0
 40
1.0
 40
1.0
 10
542.4289061143928
 20
797.4765595879572
 30
0.0
 10
542.2459715441261
 20
796.5796289783725
 30
0.0
 10
541.9765650771795
 20
795.7133597186064
 30
0.0
 10
541.6203422040047
 20
794.8775795538849
 30
0.0
  0
SPLINE
  5
222
330
3C
100
AcDbEntity
  8
Layer 1
 62
     7
370
    15
100
AcDbSpline
210
0.0
220
0.0
230
1.0
 70
     8
 71
     3
 72
     8
 73
     4
 74
     0
 42
0.0000000001
 43
0.0000000001
 40
0.0
 40
0.0
 40
0.0
 40
0.0
 40
1.0
 40
1.0
 40
1.0
 40
1.0
 10
541.6203422040047
 20
794.8775795538849
 30
0.0
 10
541.4422307674173
 20
794.4591727072012
 30
0.0
 10
541.2434487579184
 20
794.0490340896822
 30
0.0
 10
541.0222736277653
 20
793.6464746822307
 30
0.0
  0
SPLINE
  5
223
330
3C
100
AcDbEntity
  8
Layer 1
 62
     7
370
    15
100
AcDbSpline
210
0.0
220
0.0
230
1.0
 70
     8
 71
     3
 72
     8
 73
     4
 74
     0
 42
0.0000000001
 43
0.0000000001
 40
0.0
 40
0.0
 40
0.0
 40
0.0
 40
1.0
 40
1.0
 40
1.0
 40
1.0
 10
541.0222736277653
 20
793.6464746822307
 30
0.0
 10
540.8000649689667
 20
793.2437430200051
 30
0.0
 10
540.5595973040962
 20
792.8544472301718
 30
0.0
 10
540.300870633154
 20
792.4796208413767
 30
0.0
  0
SPLINE
  5
224
330
3C
100
AcDbEntity
  8
Layer 1
 62
     7
370
    15
100
AcDbSpline
210
0.0
220
0.0
230
1.0
 70
     8
 71
     3
 72
     8
 73
     4
 74
     0
 42
0.0000000001
 43
0.0000000001
 40
0.0
 40
0.0
 40
0.0
 40
0.0
 40
1.0
 40
1.0
 40
1.0
 40
1.0
 10
540.300870633154
 20
792.4796208413767
 30
0.0
 10
540.0421439622118
 20
792.1049667073557
 30
0.0
 10
539.7651582851976
 20
791.7439207005016
 30
0.0
 10
539.4706026212087
 20
791.3969995851369
 30
0.0
  0
SPLINE
  5
225
330
3C
100
AcDbEntity
  8
Layer 1
 62
     7
370
    15
100
AcDbSpline
210
0.0
220
0.0
230
1.0
 70
     8
 71
     3
 72
     8
 73
     4
 74
     0
 42
0.0000000001
 43
0.0000000001
 40
0.0
 40
0.0
 40
0.0
 40
0.0
 40
1.0
 40
1.0
 40
1.0
 40
1.0
 10
539.4706026212087
 20
791.3969995851369
 30
0.0
 10
539.1753579381228
 20
791.0500784697722
 30
0.0
 10
538.8618542489651
 20
790.7155596981545
 30
0.0
 10
538.5314695919296
 20
790.3986109135114
 30
0.0
  0
POLYLINE
  5
226
330
3C
100
AcDbEntity
  8
Layer 1
 62
     7
370
    15
100
AcDb2dPolyline
 66
     1
 10
0.0
 20
0.0
 30
0.0
  0
VERTEX
  5
227
330
226
100
AcDbEntity
  8
Layer 1
 62
     7
370
    15
100
AcDbVertex
100
AcDb2dVertex
 10
542.7041692436643
 20
892.2104842604543
 30
0.0
  0
VERTEX
  5
228
330
226
100
AcDbEntity
  8
Layer 1
 62
     7
370
    15
100
AcDbVertex
100
AcDb2dVertex
 10
542.7041692436643
 20
800.2105873650515
 30
0.0
  0
SEQEND
  5
229
330
226
100
AcDbEntity
  8
Layer 1
370
    15
  0
SPLINE
  5
22A
330
3C
100
AcDbEntity
  8
Layer 1
 62
     7
370
    15
100
AcDbSpline
210
0.0
220
0.0
230
1.0
 70
     8
 71
     3
 72
     8
 73
     4
 74
     0
 42
0.0000000001
 43
0.0000000001
 40
0.0
 40
0.0
 40
0.0
 40
0.0
 40
1.0
 40
1.0
 40
1.0
 40
1.0
 10
538.7595349130532
 20
901.7881942189974
 30
0.0
 10
539.0730386022109
 20
901.4724512177743
 30
0.0
 10
539.3717283807821
 20
901.1405162677705
 30
0.0
 10
539.6528481723785
 20
900.795662209697
 30
0.0
  0
SPLINE
  5
22B
330
3C
100
AcDbEntity
  8
Layer 1
 62
     7
370
    15
100
AcDbSpline
210
0.0
220
0.0
230
1.0
 70
     8
 71
     3
 72
     8
 73
     4
 74
     0
 42
0.0000000001
 43
0.0000000001
 40
0.0
 40
0.0
 40
0.0
 40
0.0
 40
1.0
 40
1.0
 40
1.0
 40
1.0
 10
539.6528481723785
 20
900.795662209697
 30
0.0
 10
539.9332789448778
 20
900.4508081516235
 30
0.0
 10
540.198551297242
 20
900.090278909092
 30
0.0
 10
540.4431530766948
 20
899.7213091826218
 30
0.0
  0
SPLINE
  5
22C
330
3C
100
AcDbEntity
  8
Layer 1
 62
     7
370
    15
100
AcDbSpline
210
0.0
220
0.0
230
1.0
 70
     8
 71
     3
 72
     8
 73
     4
 74
     0
 42
0.0000000001
 43
0.0000000001
 40
0.0
 40
0.0
 40
0.0
 40
0.0
 40
1.0
 40
1.0
 40
1.0
 40
1.0
 10
540.4431530766948
 20
899.7213091826218
 30
0.0
 10
540.9323566356003
 20
898.9830252201327
 30
0.0
 10
541.3450790747332
 20
898.2056394238862
 30
0.0
 10
541.680286865448
 20
897.3903575773018
 30
0.0
  0
SPLINE
  5
22D
330
3C
100
AcDbEntity
  8
Layer 1
 62
     7
370
    15
100
AcDbSpline
210
0.0
220
0.0
230
1.0
 70
     8
 71
     3
 72
     8
 73
     4
 74
     0
 42
0.0000000001
 43
0.0000000001
 40
0.0
 40
0.0
 40
0.0
 40
0.0
 40
1.0
 40
1.0
 40
1.0
 40
1.0
 10
541.680286865448
 20
897.3903575773018
 30
0.0
 10
542.0161836752599
 20
896.5750757307173
 30
0.0
 10
542.2759438748477
 20
895.7144908785019
 30
0.0
 10
542.4471651204647
 20
894.8480493639616
 30
0.0
  0
SPLINE
  5
22E
330
3C
100
AcDbEntity
  8
Layer 1
 62
     7
370
    15
100
AcDbSpline
210
0.0
220
0.0
230
1.0
 70
     8
 71
     3
 72
     8
 73
     4
 74
     0
 42
0.0000000001
 43
0.0000000001
 40
0.0
 40
0.0
 40
0.0
 40
0.0
 40
1.0
 40
1.0
 40
1.0
 40
1.0
 10
542.4471651204647
 20
894.8480493639616
 30
0.0
 10
542.6176973469845
 20
893.9816078494213
 30
0.0
 10
542.7041692436643
 20
893.1022472268113
 30
0.0
 10
542.7041692436643
 20
892.2101397509058
 30
0.0
  0
SPLINE
  5
22F
330
3C
100
AcDbEntity
  8
Layer 1
 62
     7
370
    15
100
AcDbSpline
210
0.0
220
0.0
230
1.0
 70
     8
 71
     3
 72
     8
 73
     4
 74
     0
 42
0.0000000001
 43
0.0000000001
 40
0.0
 40
0.0
 40
0.0
 40
0.0
 40
1.0
 40
1.0
 40
1.0
 40
1.0
 10
437.1069972323031
 20
786.6126232299962
 30
0.0
 10
436.6701591247735
 20
786.6126232299962
 30
0.0
 10
436.2352158197606
 20
786.633466057682
 30
0.0
 10
435.8009615338449
 20
786.6746349487307
 30
0.0
  0
SPLINE
  5
230
330
3C
100
AcDbEntity
  8
Layer 1
 62
     7
370
    15
100
AcDbSpline
210
0.0
220
0.0
230
1.0
 70
     8
 71
     3
 72
     8
 73
     4
 74
     0
 42
0.0000000001
 43
0.0000000001
 40
0.0
 40
0.0
 40
0.0
 40
0.0
 40
1.0
 40
1.0
 40
1.0
 40
1.0
 10
435.8009615338449
 20
786.6746349487307
 30
0.0
 10
435.3667072479292
 20
786.7158038397794
 30
0.0
 10
434.9331419811105
 20
786.7783323228367
 30
0.0
 10
434.5081894530049
 20
786.8606701049342
 30
0.0
  0
SPLINE
  5
231
330
3C
100
AcDbEntity
  8
Layer 1
 62
     7
370
    15
100
AcDbSpline
210
0.0
220
0.0
230
1.0
 70
     8
 71
     3
 72
     8
 73
     4
 74
     0
 42
0.0000000001
 43
0.0000000001
 40
0.0
 40
0.0
 40
0.0
 40
0.0
 40
1.0
 40
1.0
 40
1.0
 40
1.0
 10
434.5081894530049
 20
786.8606701049342
 30
0.0
 10
433.6579398872453
 20
787.0253456691291
 30
0.0
 10
432.8314614803338
 20
787.2690861747105
 30
0.0
 10
432.0290987418192
 20
787.5913748573556
 30
0.0
  0
SPLINE
  5
232
330
3C
100
AcDbEntity
  8
Layer 1
 62
     7
370
    15
100
AcDbSpline
210
0.0
220
0.0
230
1.0
 70
     8
 71
     3
 72
     8
 73
     4
 74
     0
 42
0.0000000001
 43
0.0000000001
 40
0.0
 40
0.0
 40
0.0
 40
0.0
 40
1.0
 40
1.0
 40
1.0
 40
1.0
 10
432.0290987418192
 20
787.5913748573556
 30
0.0
 10
431.6280896273361
 20
787.7524330712911
 30
0.0
 10
431.2320759013066
 20
787.9338173485895
 30
0.0
 10
430.8448471687645
 20
788.134321905831
 30
0.0
  0
SPLINE
  5
233
330
3C
100
AcDbEntity
  8
Layer 1
 62
     7
370
    15
100
AcDbSpline
210
0.0
220
0.0
230
1.0
 70
     8
 71
     3
 72
     8
 73
     4
 74
     0
 42
0.0000000001
 43
0.0000000001
 40
0.0
 40
0.0
 40
0.0
 40
0.0
 40
1.0
 40
1.0
 40
1.0
 40
1.0
 10
430.8448471687645
 20
788.134321905831
 30
0.0
 10
430.4576184362224
 20
788.3348264630725
 30
0.0
 10
430.0824475378787
 20
788.5527287525147
 30
0.0
 10
429.7188177094106
 20
788.7876842646086
 30
0.0
  0
SPLINE
  5
234
330
3C
100
AcDbEntity
  8
Layer 1
 62
     7
370
    15
100
AcDbSpline
210
0.0
220
0.0
230
1.0
 70
     8
 71
     3
 72
     8
 73
     4
 74
     0
 42
0.0000000001
 43
0.0000000001
 40
0.0
 40
0.0
 40
0.0
 40
0.0
 40
1.0
 40
1.0
 40
1.0
 40
1.0
 10
429.7188177094106
 20
788.7876842646086
 30
0.0
 10
428.9925915811199
 20
789.2569062696997
 30
0.0
 10
428.3121852227831
 20
789.7946856749472
 30
0.0
 10
427.6832830419507
 20
790.3986109135114
 30
0.0
  0
POLYLINE
  5
235
330
3C
100
AcDbEntity
  8
Layer 1
 62
     7
370
    15
100
AcDb2dPolyline
 66
     1
 10
0.0
 20
0.0
 30
0.0
  0
VERTEX
  5
236
330
235
100
AcDbEntity
  8
Layer 1
 62
     7
370
    15
100
AcDbVertex
100
AcDb2dVertex
 10
529.1070663824802
 20
786.6126232299962
 30
0.0
  0
VERTEX
  5
237
330
235
100
AcDbEntity
  8
Layer 1
 62
     7
370
    15
100
AcDbVertex
100
AcDb2dVertex
 10
437.1069972323031
 20
786.6126232299962
 30
0.0
  0
SEQEND
  5
238
330
235
100
AcDbEntity
  8
Layer 1
370
    15
  0
SPLINE
  5
239
330
3C
100
AcDbEntity
  8
Layer 1
 62
     7
370
    15
100
AcDbSpline
210
0.0
220
0.0
230
1.0
 70
     8
 71
     3
 72
     8
 73
     4
 74
     0
 42
0.0000000001
 43
0.0000000001
 40
0.0
 40
0.0
 40
0.0
 40
0.0
 40
1.0
 40
1.0
 40
1.0
 40
1.0
 10
538.5314695919296
 20
790.3986109135114
 30
0.0
 10
538.2162433550293
 20
790.0966482942293
 30
0.0
 10
537.8875812457364
 20
789.8093273307595
 30
0.0
 10
537.5447942449541
 20
789.5388873351674
 30
0.0
  0
SPLINE
  5
23A
330
3C
100
AcDbEntity
  8
Layer 1
 62
     7
370
    15
100
AcDbSpline
210
0.0
220
0.0
230
1.0
 70
     8
 71
     3
 72
     8
 73
     4
 74
     0
 42
0.0000000001
 43
0.0000000001
 40
0.0
 40
0.0
 40
0.0
 40
0.0
 40
1.0
 40
1.0
 40
1.0
 40
1.0
 10
537.5447942449541
 20
789.5388873351674
 30
0.0
 10
537.2030407728173
 20
789.2686195943495
 30
0.0
 10
536.8468178996425
 20
789.0143715475381
 30
0.0
 10
536.4826713068516
 20
788.7794160354441
 30
0.0
  0
SPLINE
  5
23B
330
3C
100
AcDbEntity
  8
Layer 1
 62
     7
370
    15
100
AcDbSpline
210
0.0
220
0.0
230
1.0
 70
     8
 71
     3
 72
     8
 73
     4
 74
     0
 42
0.0000000001
 43
0.0000000001
 40
0.0
 40
0.0
 40
0.0
 40
0.0
 40
1.0
 40
1.0
 40
1.0
 40
1.0
 10
536.4826713068516
 20
788.7794160354441
 30
0.0
 10
535.7547226308183
 20
788.310194030353
 30
0.0
 10
534.9892224139958
 20
787.9146970686463
 30
0.0
 10
534.1872041850296
 20
787.592236131227
 30
0.0
  0
SPLINE
  5
23C
330
3C
100
AcDbEntity
  8
Layer 1
 62
     7
370
    15
100
AcDbSpline
210
0.0
220
0.0
230
1.0
 70
     8
 71
     3
 72
     8
 73
     4
 74
     0
 42
0.0000000001
 43
0.0000000001
 40
0.0
 40
0.0
 40
0.0
 40
0.0
 40
1.0
 40
1.0
 40
1.0
 40
1.0
 10
534.1872041850296
 20
787.592236131227
 30
0.0
 10
533.7861950705466
 20
787.4313501720658
 30
0.0
 10
533.3745061600591
 20
787.2882064546537
 30
0.0
 10
532.9562715681499
 20
787.165044291056
 30
0.0
  0
SPLINE
  5
23D
330
3C
100
AcDbEntity
  8
Layer 1
 62
     7
370
    15
100
AcDbSpline
210
0.0
220
0.0
230
1.0
 70
     8
 71
     3
 72
     8
 73
     4
 74
     0
 42
0.0000000001
 43
0.0000000001
 40
0.0
 40
0.0
 40
0.0
 40
0.0
 40
1.0
 40
1.0
 40
1.0
 40
1.0
 10
532.9562715681499
 20
787.165044291056
 30
0.0
 10
532.537692466692
 20
787.0420543822325
 30
0.0
 10
532.1160127792974
 20
786.9395627915465
 30
0.0
 10
531.6915770155147
 20
786.8580862833203
 30
0.0
  0
SPLINE
  5
23E
330
3C
100
AcDbEntity
  8
Layer 1
 62
     7
370
    15
100
AcDbSpline
210
0.0
220
0.0
230
1.0
 70
     8
 71
     3
 72
     8
 73
     4
 74
     0
 42
0.0000000001
 43
0.0000000001
 40
0.0
 40
0.0
 40
0.0
 40
0.0
 40
1.0
 40
1.0
 40
1.0
 40
1.0
 10
531.6915770155147
 20
786.8580862833203
 30
0.0
 10
530.8423609784005
 20
786.6946165025452
 30
0.0
 10
529.980398087991
 20
786.6126232299962
 30
0.0
 10
529.1070663824802
 20
786.6126232299962
 30
0.0
  0
SPLINE
  5
23F
330
3C
100
AcDbEntity
  8
Layer 1
 62
     7
370
    15
100
AcDbSpline
210
0.0
220
0.0
230
1.0
 70
     8
 71
     3
 72
     8
 73
     4
 74
     0
 42
0.0000000001
 43
0.0000000001
 40
0.0
 40
0.0
 40
0.0
 40
0.0
 40
1.0
 40
1.0
 40
1.0
 40
1.0
 10
518.1988605475336
 20
889.5829099338544
 30
0.0
 10
517.6724499573875
 20
889.6678315375657
 30
0.0
 10
517.1398381953678
 20
889.7102062120343
 30
0.0
 10
516.6068819237997
 20
889.7102062120343
 30
0.0
  0
POLYLINE
  5
240
330
3C
100
AcDbEntity
  8
Layer 1
 62
     7
370
    15
100
AcDb2dPolyline
 66
     1
 10
0.0
 20
0.0
 30
0.0
  0
VERTEX
  5
241
330
240
100
AcDbEntity
  8
Layer 1
 62
     7
370
    15
100
AcDbVertex
100
AcDb2dVertex
 10
516.6068819237997
 20
889.7102062120343
 30
0.0
  0
VERTEX
  5
242
330
240
100
AcDbEntity
  8
Layer 1
 62
     7
370
    15
100
AcDbVertex
100
AcDb2dVertex
 10
449.6071816909836
 20
889.7102062120343
 30
0.0
  0
SEQEND
  5
243
330
240
100
AcDbEntity
  8
Layer 1
370
    15
  0
SPLINE
  5
244
330
3C
100
AcDbEntity
  8
Layer 1
 62
     7
370
    15
100
AcDbSpline
210
0.0
220
0.0
230
1.0
 70
     8
 71
     3
 72
     8
 73
     4
 74
     0
 42
0.0000000001
 43
0.0000000001
 40
0.0
 40
0.0
 40
0.0
 40
0.0
 40
1.0
 40
1.0
 40
1.0
 40
1.0
 10
449.6071816909836
 20
889.7102062120343
 30
0.0
 10
449.0738809098669
 20
889.7102062120343
 30
0.0
 10
448.5414414026216
 20
889.6678315375657
 30
0.0
 10
448.0157198315725
 20
889.5829099338544
 30
0.0
  0
SPLINE
  5
245
330
3C
100
AcDbEntity
  8
Layer 1
 62
     7
370
    15
100
AcDbSpline
210
0.0
220
0.0
230
1.0
 70
     8
 71
     3
 72
     8
 73
     4
 74
     0
 42
0.0000000001
 43
0.0000000001
 40
0.0
 40
0.0
 40
0.0
 40
0.0
 40
1.0
 40
1.0
 40
1.0
 40
1.0
 10
526.4798365654286
 20
811.1187931999981
 30
0.0
 10
526.5645859143658
 20
811.64503153537
 30
0.0
 10
526.6069605888343
 20
812.1769542782926
 30
0.0
 10
526.6069605888343
 20
812.7102550594093
 30
0.0
  0
POLYLINE
  5
246
330
3C
100
AcDbEntity
  8
Layer 1
 62
     7
370
    15
100
AcDb2dPolyline
 66
     1
 10
0.0
 20
0.0
 30
0.0
  0
VERTEX
  5
247
330
246
100
AcDbEntity
  8
Layer 1
 62
     7
370
    15
100
AcDbVertex
100
AcDb2dVertex
 10
526.6069605888343
 20
812.7102550594093
 30
0.0
  0
VERTEX
  5
248
330
246
100
AcDbEntity
  8
Layer 1
 62
     7
370
    15
100
AcDbVertex
100
AcDb2dVertex
 10
526.6069605888343
 20
879.7102998017739
 30
0.0
  0
SEQEND
  5
249
330
246
100
AcDbEntity
  8
Layer 1
370
    15
  0
SPLINE
  5
24A
330
3C
100
AcDbEntity
  8
Layer 1
 62
     7
370
    15
100
AcDbSpline
210
0.0
220
0.0
230
1.0
 70
     8
 71
     3
 72
     8
 73
     4
 74
     0
 42
0.0000000001
 43
0.0000000001
 40
0.0
 40
0.0
 40
0.0
 40
0.0
 40
1.0
 40
1.0
 40
1.0
 40
1.0
 10
526.6069605888343
 20
879.7102998017739
 30
0.0
 10
526.6069605888343
 20
880.2436005828905
 30
0.0
 10
526.5645859143658
 20
880.7755233258131
 30
0.0
 10
526.4798365654286
 20
881.3021061707335
 30
0.0
  0
SPLINE
  5
24B
330
3C
100
AcDbEntity
  8
Layer 1
 62
     7
370
    15
100
AcDbSpline
210
0.0
220
0.0
230
1.0
 70
     8
 71
     3
 72
     8
 73
     4
 74
     0
 42
0.0000000001
 43
0.0000000001
 40
0.0
 40
0.0
 40
0.0
 40
0.0
 40
1.0
 40
1.0
 40
1.0
 40
1.0
 10
439.7349160684517
 20
881.3021061707335
 30
0.0
 10
439.6501667195146
 20
880.7755233258131
 30
0.0
 10
439.6067585164004
 20
880.2436005828905
 30
0.0
 10
439.6067585164004
 20
879.7102998017739
 30
0.0
  0
POLYLINE
  5
24C
330
3C
100
AcDbEntity
  8
Layer 1
 62
     7
370
    15
100
AcDb2dPolyline
 66
     1
 10
0.0
 20
0.0
 30
0.0
  0
VERTEX
  5
24D
330
24C
100
AcDbEntity
  8
Layer 1
 62
     7
370
    15
100
AcDbVertex
100
AcDb2dVertex
 10
439.6067585164004
 20
879.7102998017739
 30
0.0
  0
VERTEX
  5
24E
330
24C
100
AcDbEntity
  8
Layer 1
 62
     7
370
    15
100
AcDbVertex
100
AcDb2dVertex
 10
439.6067585164004
 20
812.7102550594093
 30
0.0
  0
SEQEND
  5
24F
330
24C
100
AcDbEntity
  8
Layer 1
370
    15
  0
SPLINE
  5
250
330
3C
100
AcDbEntity
  8
Layer 1
 62
     7
370
    15
100
AcDbSpline
210
0.0
220
0.0
230
1.0
 70
     8
 71
     3
 72
     8
 73
     4
 74
     0
 42
0.0000000001
 43
0.0000000001
 40
0.0
 40
0.0
 40
0.0
 40
0.0
 40
1.0
 40
1.0
 40
1.0
 40
1.0
 10
439.6067585164004
 20
812.7102550594093
 30
0.0
 10
439.6067585164004
 20
812.1769542782926
 30
0.0
 10
439.6501667195146
 20
811.64503153537
 30
0.0
 10
439.7349160684517
 20
811.1187931999981
 30
0.0
  0
SPLINE
  5
251
330
3C
100
AcDbEntity
  8
Layer 1
 62
     7
370
    15
100
AcDbSpline
210
0.0
220
0.0
230
1.0
 70
     8
 71
     3
 72
     8
 73
     4
 74
     0
 42
0.0000000001
 43
0.0000000001
 40
0.0
 40
0.0
 40
0.0
 40
0.0
 40
1.0
 40
1.0
 40
1.0
 40
1.0
 10
448.0157198315725
 20
802.8381616916516
 30
0.0
 10
448.5414414026216
 20
802.7532400879402
 30
0.0
 10
449.0738809098669
 20
802.7103486491488
 30
0.0
 10
449.6071816909836
 20
802.7103486491488
 30
0.0
  0
POLYLINE
  5
252
330
3C
100
AcDbEntity
  8
Layer 1
 62
     7
370
    15
100
AcDb2dPolyline
 66
     1
 10
0.0
 20
0.0
 30
0.0
  0
VERTEX
  5
253
330
252
100
AcDbEntity
  8
Layer 1
 62
     7
370
    15
100
AcDbVertex
100
AcDb2dVertex
 10
449.6071816909836
 20
802.7103486491488
 30
0.0
  0
VERTEX
  5
254
330
252
100
AcDbEntity
  8
Layer 1
 62
     7
370
    15
100
AcDbVertex
100
AcDb2dVertex
 10
516.6068819237997
 20
802.7103486491488
 30
0.0
  0
SEQEND
  5
255
330
252
100
AcDbEntity
  8
Layer 1
370
    15
  0
SPLINE
  5
256
330
3C
100
AcDbEntity
  8
Layer 1
 62
     7
370
    15
100
AcDbSpline
210
0.0
220
0.0
230
1.0
 70
     8
 71
     3
 72
     8
 73
     4
 74
     0
 42
0.0000000001
 43
0.0000000001
 40
0.0
 40
0.0
 40
0.0
 40
0.0
 40
1.0
 40
1.0
 40
1.0
 40
1.0
 10
516.6068819237997
 20
802.7103486491488
 30
0.0
 10
517.1398381953678
 20
802.7103486491488
 30
0.0
 10
517.6724499573875
 20
802.7532400879402
 30
0.0
 10
518.1988605475336
 20
802.8381616916516
 30
0.0
  0
SPLINE
  5
257
330
3C
100
AcDbEntity
  8
Layer 1
 62
     7
370
    15
100
AcDbSpline
210
0.0
220
0.0
230
1.0
 70
     8
 71
     3
 72
     8
 73
     4
 74
     0
 42
0.0000000001
 43
0.0000000001
 40
0.0
 40
0.0
 40
0.0
 40
0.0
 40
1.0
 40
1.0
 40
1.0
 40
1.0
 10
448.0157198315725
 20
889.5829099338544
 30
0.0
 10
443.7587875952235
 20
888.8966469131925
 30
0.0
 10
440.4213513438877
 20
885.5590384070825
 30
0.0
 10
439.7349160684517
 20
881.3021061707335
 30
0.0
  0
SPLINE
  5
258
330
3C
100
AcDbEntity
  8
Layer 1
 62
     7
370
    15
100
AcDbSpline
210
0.0
220
0.0
230
1.0
 70
     8
 71
     3
 72
     8
 73
     4
 74
     0
 42
0.0000000001
 43
0.0000000001
 40
0.0
 40
0.0
 40
0.0
 40
0.0
 40
1.0
 40
1.0
 40
1.0
 40
1.0
 10
526.4798365654286
 20
881.3021061707335
 30
0.0
 10
525.7935735447669
 20
885.5590384070825
 30
0.0
 10
522.4559650386568
 20
888.8966469131925
 30
0.0
 10
518.1988605475336
 20
889.5829099338544
 30
0.0
  0
SPLINE
  5
259
330
3C
100
AcDbEntity
  8
Layer 1
 62
     7
370
    15
100
AcDbSpline
210
0.0
220
0.0
230
1.0
 70
     8
 71
     3
 72
     8
 73
     4
 74
     0
 42
0.0000000001
 43
0.0000000001
 40
0.0
 40
0.0
 40
0.0
 40
0.0
 40
1.0
 40
1.0
 40
1.0
 40
1.0
 10
518.1988605475336
 20
802.8381616916516
 30
0.0
 10
522.4559650386568
 20
803.5244247123134
 30
0.0
 10
525.7935735447669
 20
806.8620332184234
 30
0.0
 10
526.4798365654286
 20
811.1187931999981
 30
0.0
  0
SPLINE
  5
25A
330
3C
100
AcDbEntity
  8
Layer 1
 62
     7
370
    15
100
AcDbSpline
210
0.0
220
0.0
230
1.0
 70
     8
 71
     3
 72
     8
 73
     4
 74
     0
 42
0.0000000001
 43
0.0000000001
 40
0.0
 40
0.0
 40
0.0
 40
0.0
 40
1.0
 40
1.0
 40
1.0
 40
1.0
 10
439.7349160684517
 20
811.1187931999981
 30
0.0
 10
440.4213513438877
 20
806.8620332184234
 30
0.0
 10
443.7587875952235
 20
803.5244247123134
 30
0.0
 10
448.0157198315725
 20
802.8381616916516
 30
0.0
  0
POLYLINE
  5
25B
330
3C
100
AcDbEntity
  8
Layer 1
370
     0
100
AcDb2dPolyline
 66
     1
 10
0.0
 20
0.0
 30
0.0
  0
VERTEX
  5
25C
330
25B
100
AcDbEntity
  8
Layer 1
370
     0
100
AcDbVertex
100
AcDb2dVertex
 10
38.10775145531682
 20
846.2105358127529
 30
0.0
  0
VERTEX
  5
25D
330
25B
100
AcDbEntity
  8
Layer 1
370
     0
100
AcDbVertex
100
AcDb2dVertex
 10
43.10779078783416
 20
816.2104720724232
 30
0.0
  0
VERTEX
  5
25E
330
25B
100
AcDbEntity
  8
Layer 1
370
     0
100
AcDbVertex
100
AcDb2dVertex
 10
33.1075398680252
 20
816.2104720724232
 30
0.0
  0
SEQEND
  5
25F
330
25B
100
AcDbEntity
  8
Layer 1
370
     0
  0
HATCH
  5
260
330
3C
100
AcDbEntity
  8
Layer 1
 62
     7
100
AcDbHatch
 10
0.0
 20
0.0
 30
0.0
210
0.0
220
0.0
230
1.0
  2
SOLID
 70
     1
 71
     0
 91
        1
 92
        1
 93
        3
 72
     1
 10
38.10775145531682
 20
846.2105358127529
 11
43.10779078783416
 21
816.2104720724232
 72
     1
 10
43.10779078783416
 20
816.2104720724232
 11
33.1075398680252
 21
816.2104720724232
 72
     1
 10
33.1075398680252
 20
816.2104720724232
 11
38.10775145531682
 21
846.2105358127529
 97
        0
 75
     2
 76
     1
 98
        0
  0
POLYLINE
  5
261
330
3C
100
AcDbEntity
  8
Layer 1
370
     0
100
AcDb2dPolyline
 66
     1
 10
0.0
 20
0.0
 30
0.0
  0
VERTEX
  5
262
330
261
100
AcDbEntity
  8
Layer 1
370
     0
100
AcDbVertex
100
AcDb2dVertex
 10
38.10775145531682
 20
1070.210299754149
 30
0.0
  0
VERTEX
  5
263
330
261
100
AcDbEntity
  8
Layer 1
370
     0
100
AcDbVertex
100
AcDb2dVertex
 10
33.1075398680252
 20
1100.210191239704
 30
0.0
  0
VERTEX
  5
264
330
261
100
AcDbEntity
  8
Layer 1
370
     0
100
AcDbVertex
100
AcDb2dVertex
 10
43.10779078783416
 20
1100.210191239704
 30
0.0
  0
SEQEND
  5
265
330
261
100
AcDbEntity
  8
Layer 1
370
     0
  0
HATCH
  5
266
330
3C
100
AcDbEntity
  8
Layer 1
 62
     7
100
AcDbHatch
 10
0.0
 20
0.0
 30
0.0
210
0.0
220
0.0
230
1.0
  2
SOLID
 70
     1
 71
     0
 91
        1
 92
        1
 93
        3
 72
     1
 10
38.10775145531682
 20
1070.210299754149
 11
33.1075398680252
 21
1100.210191239704
 72
     1
 10
33.1075398680252
 20
1100.210191239704
 11
43.10779078783416
 21
1100.210191239704
 72
     1
 10
43.10779078783416
 20
1100.210191239704
 11
38.10775145531682
 21
1070.210299754149
 97
        0
 75
     2
 76
     1
 98
        0
  0
POLYLINE
  5
267
330
3C
100
AcDbEntity
  8
Layer 1
 62
     7
370
    25
100
AcDb2dPolyline
 66
     1
 10
0.0
 20
0.0
 30
0.0
  0
VERTEX
  5
268
330
267
100
AcDbEntity
  8
Layer 1
 62
     7
370
    25
100
AcDbVertex
100
AcDb2dVertex
 10
167.9795830200711
 20
846.2105358127529
 30
0.0
  0
VERTEX
  5
269
330
267
100
AcDbEntity
  8
Layer 1
 62
     7
370
    25
100
AcDbVertex
100
AcDb2dVertex
 10
28.10784504505637
 20
846.2105358127529
 30
0.0
  0
SEQEND
  5
26A
330
267
100
AcDbEntity
  8
Layer 1
370
    25
  0
POLYLINE
  5
26B
330
3C
100
AcDbEntity
  8
Layer 1
 62
     7
370
    25
100
AcDb2dPolyline
 66
     1
 10
0.0
 20
0.0
 30
0.0
  0
VERTEX
  5
26C
330
26B
100
AcDbEntity
  8
Layer 1
 62
     7
370
    25
100
AcDbVertex
100
AcDb2dVertex
 10
167.3057223431562
 20
1070.210299754149
 30
0.0
  0
VERTEX
  5
26D
330
26B
100
AcDbEntity
  8
Layer 1
 62
     7
370
    25
100
AcDbVertex
100
AcDb2dVertex
 10
28.10784504505637
 20
1070.210299754149
 30
0.0
  0
SEQEND
  5
26E
330
26B
100
AcDbEntity
  8
Layer 1
370
    25
  0
POLYLINE
  5
26F
330
3C
100
AcDbEntity
  8
Layer 1
 62
     7
370
    25
100
AcDb2dPolyline
 66
     1
 10
0.0
 20
0.0
 30
0.0
  0
VERTEX
  5
270
330
26F
100
AcDbEntity
  8
Layer 1
 62
     7
370
    25
100
AcDbVertex
100
AcDb2dVertex
 10
38.10775145531682
 20
846.2105358127529
 30
0.0
  0
VERTEX
  5
271
330
26F
100
AcDbEntity
  8
Layer 1
 62
     7
370
    25
100
AcDbVertex
100
AcDb2dVertex
 10
38.10775145531682
 20
786.2104083320933
 30
0.0
  0
SEQEND
  5
272
330
26F
100
AcDbEntity
  8
Layer 1
370
    25
  0
POLYLINE
  5
273
330
3C
100
AcDbEntity
  8
Layer 1
 62
     7
370
    25
100
AcDb2dPolyline
 66
     1
 10
0.0
 20
0.0
 30
0.0
  0
VERTEX
  5
274
330
273
100
AcDbEntity
  8
Layer 1
 62
     7
370
    25
100
AcDbVertex
100
AcDb2dVertex
 10
38.10775145531682
 20
846.2105358127529
 30
0.0
  0
VERTEX
  5
275
330
273
100
AcDbEntity
  8
Layer 1
 62
     7
370
    25
100
AcDbVertex
100
AcDb2dVertex
 10
38.10775145531682
 20
1070.210299754149
 30
0.0
  0
SEQEND
  5
276
330
273
100
AcDbEntity
  8
Layer 1
370
    25
  0
POLYLINE
  5
277
330
3C
100
AcDbEntity
  8
Layer 1
 62
     7
370
    25
100
AcDb2dPolyline
 66
     1
 10
0.0
 20
0.0
 30
0.0
  0
VERTEX
  5
278
330
277
100
AcDbEntity
  8
Layer 1
 62
     7
370
    25
100
AcDbVertex
100
AcDb2dVertex
 10
38.10775145531682
 20
1070.210299754149
 30
0.0
  0
VERTEX
  5
279
330
277
100
AcDbEntity
  8
Layer 1
 62
     7
370
    25
100
AcDbVertex
100
AcDb2dVertex
 10
38.10775145531682
 20
1130.210254980034
 30
0.0
  0
SEQEND
  5
27A
330
277
100
AcDbEntity
  8
Layer 1
370
    25
  0
POLYLINE
  5
27B
330
3C
100
AcDbEntity
  8
Layer 1
 62
     7
370
    25
100
AcDb2dPolyline
 66
     1
 10
0.0
 20
0.0
 30
0.0
  0
VERTEX
  5
27C
330
27B
100
AcDbEntity
  8
Layer 1
 62
     7
370
    25
100
AcDbVertex
100
AcDb2dVertex
 10
-9.407177732023206
 20
894.1226845095423
 30
0.0
  0
VERTEX
  5
27D
330
27B
100
AcDbEntity
  8
Layer 1
 62
     7
370
    25
100
AcDbVertex
100
AcDb2dVertex
 10
-16.46290554058914
 20
899.4138344105633
 30
0.0
  0
SEQEND
  5
27E
330
27B
100
AcDbEntity
  8
Layer 1
370
    25
  0
POLYLINE
  5
27F
330
3C
100
AcDbEntity
  8
Layer 1
 62
     7
370
    25
100
AcDb2dPolyline
 66
     1
 10
0.0
 20
0.0
 30
0.0
  0
VERTEX
  5
280
330
27F
100
AcDbEntity
  8
Layer 1
 62
     7
370
    25
100
AcDbVertex
100
AcDb2dVertex
 10
-16.46290554058914
 20
899.4138344105633
 30
0.0
  0
VERTEX
  5
281
330
27F
100
AcDbEntity
  8
Layer 1
 62
     7
370
    25
100
AcDbVertex
100
AcDb2dVertex
 10
-16.46290554058914
 20
909.9973399960251
 30
0.0
  0
SEQEND
  5
282
330
27F
100
AcDbEntity
  8
Layer 1
370
    25
  0
POLYLINE
  5
283
330
3C
100
AcDbEntity
  8
Layer 1
 62
     7
370
    25
100
AcDb2dPolyline
 66
     1
 10
0.0
 20
0.0
 30
0.0
  0
VERTEX
  5
284
330
283
100
AcDbEntity
  8
Layer 1
 62
     7
370
    25
100
AcDbVertex
100
AcDb2dVertex
 10
-16.46290554058914
 20
909.9973399960251
 30
0.0
  0
VERTEX
  5
285
330
283
100
AcDbEntity
  8
Layer 1
 62
     7
370
    25
100
AcDbVertex
100
AcDb2dVertex
 10
-9.407177732023206
 20
915.2890066613687
 30
0.0
  0
SEQEND
  5
286
330
283
100
AcDbEntity
  8
Layer 1
370
    25
  0
POLYLINE
  5
287
330
3C
100
AcDbEntity
  8
Layer 1
 62
     7
370
    25
100
AcDb2dPolyline
 66
     1
 10
0.0
 20
0.0
 30
0.0
  0
VERTEX
  5
288
330
287
100
AcDbEntity
  8
Layer 1
 62
     7
370
    25
100
AcDbVertex
100
AcDb2dVertex
 10
-9.407177732023206
 20
915.2890066613687
 30
0.0
  0
VERTEX
  5
289
330
287
100
AcDbEntity
  8
Layer 1
 62
     7
370
    25
100
AcDbVertex
100
AcDb2dVertex
 10
-2.351794433005801
 20
915.2890066613687
 30
0.0
  0
SEQEND
  5
28A
330
287
100
AcDbEntity
  8
Layer 1
370
    25
  0
POLYLINE
  5
28B
330
3C
100
AcDbEntity
  8
Layer 1
 62
     7
370
    25
100
AcDb2dPolyline
 66
     1
 10
0.0
 20
0.0
 30
0.0
  0
VERTEX
  5
28C
330
28B
100
AcDbEntity
  8
Layer 1
 62
     7
370
    25
100
AcDbVertex
100
AcDb2dVertex
 10
-2.351794433005801
 20
915.2890066613687
 30
0.0
  0
VERTEX
  5
28D
330
28B
100
AcDbEntity
  8
Layer 1
 62
     7
370
    25
100
AcDbVertex
100
AcDb2dVertex
 10
4.703933375560128
 20
909.9973399960251
 30
0.0
  0
SEQEND
  5
28E
330
28B
100
AcDbEntity
  8
Layer 1
370
    25
  0
POLYLINE
  5
28F
330
3C
100
AcDbEntity
  8
Layer 1
 62
     7
370
    25
100
AcDb2dPolyline
 66
     1
 10
0.0
 20
0.0
 30
0.0
  0
VERTEX
  5
290
330
28F
100
AcDbEntity
  8
Layer 1
 62
     7
370
    25
100
AcDbVertex
100
AcDb2dVertex
 10
4.703933375560128
 20
909.9973399960251
 30
0.0
  0
VERTEX
  5
291
330
28F
100
AcDbEntity
  8
Layer 1
 62
     7
370
    25
100
AcDbVertex
100
AcDb2dVertex
 10
4.703933375560128
 20
899.4138344105633
 30
0.0
  0
SEQEND
  5
292
330
28F
100
AcDbEntity
  8
Layer 1
370
    25
  0
POLYLINE
  5
293
330
3C
100
AcDbEntity
  8
Layer 1
 62
     7
370
    25
100
AcDb2dPolyline
 66
     1
 10
0.0
 20
0.0
 30
0.0
  0
VERTEX
  5
294
330
293
100
AcDbEntity
  8
Layer 1
 62
     7
370
    25
100
AcDbVertex
100
AcDb2dVertex
 10
4.703933375560128
 20
899.4138344105633
 30
0.0
  0
VERTEX
  5
295
330
293
100
AcDbEntity
  8
Layer 1
 62
     7
370
    25
100
AcDbVertex
100
AcDb2dVertex
 10
11.75931667457753
 20
894.1226845095423
 30
0.0
  0
SEQEND
  5
296
330
293
100
AcDbEntity
  8
Layer 1
370
    25
  0
POLYLINE
  5
297
330
3C
100
AcDbEntity
  8
Layer 1
 62
     7
370
    25
100
AcDb2dPolyline
 66
     1
 10
0.0
 20
0.0
 30
0.0
  0
VERTEX
  5
298
330
297
100
AcDbEntity
  8
Layer 1
 62
     7
370
    25
100
AcDbVertex
100
AcDb2dVertex
 10
11.75931667457753
 20
894.1226845095423
 30
0.0
  0
VERTEX
  5
299
330
297
100
AcDbEntity
  8
Layer 1
 62
     7
370
    25
100
AcDbVertex
100
AcDb2dVertex
 10
25.87042778216087
 20
894.1226845095423
 30
0.0
  0
SEQEND
  5
29A
330
297
100
AcDbEntity
  8
Layer 1
370
    25
  0
POLYLINE
  5
29B
330
3C
100
AcDbEntity
  8
Layer 1
 62
     7
370
    25
100
AcDb2dPolyline
 66
     1
 10
0.0
 20
0.0
 30
0.0
  0
VERTEX
  5
29C
330
29B
100
AcDbEntity
  8
Layer 1
 62
     7
370
    25
100
AcDbVertex
100
AcDb2dVertex
 10
25.87042778216087
 20
894.1226845095423
 30
0.0
  0
VERTEX
  5
29D
330
29B
100
AcDbEntity
  8
Layer 1
 62
     7
370
    25
100
AcDbVertex
100
AcDb2dVertex
 10
25.87042778216087
 20
915.2890066613687
 30
0.0
  0
SEQEND
  5
29E
330
29B
100
AcDbEntity
  8
Layer 1
370
    25
  0
POLYLINE
  5
29F
330
3C
100
AcDbEntity
  8
Layer 1
 62
     7
370
    25
100
AcDb2dPolyline
 66
     1
 10
0.0
 20
0.0
 30
0.0
  0
VERTEX
  5
2A0
330
29F
100
AcDbEntity
  8
Layer 1
 62
     7
370
    25
100
AcDbVertex
100
AcDb2dVertex
 10
-9.407177732023206
 20
925.872167737282
 30
0.0
  0
VERTEX
  5
2A1
330
29F
100
AcDbEntity
  8
Layer 1
 62
     7
370
    25
100
AcDbVertex
100
AcDb2dVertex
 10
-16.46290554058914
 20
931.1638344026258
 30
0.0
  0
SEQEND
  5
2A2
330
29F
100
AcDbEntity
  8
Layer 1
370
    25
  0
POLYLINE
  5
2A3
330
3C
100
AcDbEntity
  8
Layer 1
 62
     7
370
    25
100
AcDb2dPolyline
 66
     1
 10
0.0
 20
0.0
 30
0.0
  0
VERTEX
  5
2A4
330
2A3
100
AcDbEntity
  8
Layer 1
 62
     7
370
    25
100
AcDbVertex
100
AcDb2dVertex
 10
-16.46290554058914
 20
931.1638344026258
 30
0.0
  0
VERTEX
  5
2A5
330
2A3
100
AcDbEntity
  8
Layer 1
 62
     7
370
    25
100
AcDbVertex
100
AcDb2dVertex
 10
-16.46290554058914
 20
941.7473399880876
 30
0.0
  0
SEQEND
  5
2A6
330
2A3
100
AcDbEntity
  8
Layer 1
370
    25
  0
POLYLINE
  5
2A7
330
3C
100
AcDbEntity
  8
Layer 1
 62
     7
370
    25
100
AcDb2dPolyline
 66
     1
 10
0.0
 20
0.0
 30
0.0
  0
VERTEX
  5
2A8
330
2A7
100
AcDbEntity
  8
Layer 1
 62
     7
370
    25
100
AcDbVertex
100
AcDb2dVertex
 10
-16.46290554058914
 20
941.7473399880876
 30
0.0
  0
VERTEX
  5
2A9
330
2A7
100
AcDbEntity
  8
Layer 1
 62
     7
370
    25
100
AcDbVertex
100
AcDb2dVertex
 10
-9.407177732023206
 20
947.0390066534312
 30
0.0
  0
SEQEND
  5
2AA
330
2A7
100
AcDbEntity
  8
Layer 1
370
    25
  0
POLYLINE
  5
2AB
330
3C
100
AcDbEntity
  8
Layer 1
 62
     7
370
    25
100
AcDb2dPolyline
 66
     1
 10
0.0
 20
0.0
 30
0.0
  0
VERTEX
  5
2AC
330
2AB
100
AcDbEntity
  8
Layer 1
 62
     7
370
    25
100
AcDbVertex
100
AcDb2dVertex
 10
-9.407177732023206
 20
947.0390066534312
 30
0.0
  0
VERTEX
  5
2AD
330
2AB
100
AcDbEntity
  8
Layer 1
 62
     7
370
    25
100
AcDbVertex
100
AcDb2dVertex
 10
-2.351794433005801
 20
947.0390066534312
 30
0.0
  0
SEQEND
  5
2AE
330
2AB
100
AcDbEntity
  8
Layer 1
370
    25
  0
POLYLINE
  5
2AF
330
3C
100
AcDbEntity
  8
Layer 1
 62
     7
370
    25
100
AcDb2dPolyline
 66
     1
 10
0.0
 20
0.0
 30
0.0
  0
VERTEX
  5
2B0
330
2AF
100
AcDbEntity
  8
Layer 1
 62
     7
370
    25
100
AcDbVertex
100
AcDb2dVertex
 10
-2.351794433005801
 20
947.0390066534312
 30
0.0
  0
VERTEX
  5
2B1
330
2AF
100
AcDbEntity
  8
Layer 1
 62
     7
370
    25
100
AcDbVertex
100
AcDb2dVertex
 10
4.703933375560128
 20
941.7473399880876
 30
0.0
  0
SEQEND
  5
2B2
330
2AF
100
AcDbEntity
  8
Layer 1
370
    25
  0
POLYLINE
  5
2B3
330
3C
100
AcDbEntity
  8
Layer 1
 62
     7
370
    25
100
AcDb2dPolyline
 66
     1
 10
0.0
 20
0.0
 30
0.0
  0
VERTEX
  5
2B4
330
2B3
100
AcDbEntity
  8
Layer 1
 62
     7
370
    25
100
AcDbVertex
100
AcDb2dVertex
 10
4.703933375560128
 20
941.7473399880876
 30
0.0
  0
VERTEX
  5
2B5
330
2B3
100
AcDbEntity
  8
Layer 1
 62
     7
370
    25
100
AcDbVertex
100
AcDb2dVertex
 10
4.703933375560128
 20
931.1638344026258
 30
0.0
  0
SEQEND
  5
2B6
330
2B3
100
AcDbEntity
  8
Layer 1
370
    25
  0
POLYLINE
  5
2B7
330
3C
100
AcDbEntity
  8
Layer 1
 62
     7
370
    25
100
AcDb2dPolyline
 66
     1
 10
0.0
 20
0.0
 30
0.0
  0
VERTEX
  5
2B8
330
2B7
100
AcDbEntity
  8
Layer 1
 62
     7
370
    25
100
AcDbVertex
100
AcDb2dVertex
 10
4.703933375560128
 20
931.1638344026258
 30
0.0
  0
VERTEX
  5
2B9
330
2B7
100
AcDbEntity
  8
Layer 1
 62
     7
370
    25
100
AcDbVertex
100
AcDb2dVertex
 10
11.75931667457753
 20
925.872167737282
 30
0.0
  0
SEQEND
  5
2BA
330
2B7
100
AcDbEntity
  8
Layer 1
370
    25
  0
POLYLINE
  5
2BB
330
3C
100
AcDbEntity
  8
Layer 1
 62
     7
370
    25
100
AcDb2dPolyline
 66
     1
 10
0.0
 20
0.0
 30
0.0
  0
VERTEX
  5
2BC
330
2BB
100
AcDbEntity
  8
Layer 1
 62
     7
370
    25
100
AcDbVertex
100
AcDb2dVertex
 10
11.75931667457753
 20
925.872167737282
 30
0.0
  0
VERTEX
  5
2BD
330
2BB
100
AcDbEntity
  8
Layer 1
 62
     7
370
    25
100
AcDbVertex
100
AcDb2dVertex
 10
25.87042778216087
 20
925.872167737282
 30
0.0
  0
SEQEND
  5
2BE
330
2BB
100
AcDbEntity
  8
Layer 1
370
    25
  0
POLYLINE
  5
2BF
330
3C
100
AcDbEntity
  8
Layer 1
 62
     7
370
    25
100
AcDb2dPolyline
 66
     1
 10
0.0
 20
0.0
 30
0.0
  0
VERTEX
  5
2C0
330
2BF
100
AcDbEntity
  8
Layer 1
 62
     7
370
    25
100
AcDbVertex
100
AcDb2dVertex
 10
25.87042778216087
 20
925.872167737282
 30
0.0
  0
VERTEX
  5
2C1
330
2BF
100
AcDbEntity
  8
Layer 1
 62
     7
370
    25
100
AcDbVertex
100
AcDb2dVertex
 10
25.87042778216087
 20
947.0390066534312
 30
0.0
  0
SEQEND
  5
2C2
330
2BF
100
AcDbEntity
  8
Layer 1
370
    25
  0
POLYLINE
  5
2C3
330
3C
100
AcDbEntity
  8
Layer 1
 62
     7
370
    25
100
AcDb2dPolyline
 66
     1
 10
0.0
 20
0.0
 30
0.0
  0
VERTEX
  5
2C4
330
2C3
100
AcDbEntity
  8
Layer 1
 62
     7
370
    25
100
AcDbVertex
100
AcDb2dVertex
 10
25.87042778216087
 20
973.4971677253758
 30
0.0
  0
VERTEX
  5
2C5
330
2C3
100
AcDbEntity
  8
Layer 1
 62
     7
370
    25
100
AcDbVertex
100
AcDb2dVertex
 10
-16.46290554058914
 20
973.4971677253758
 30
0.0
  0
SEQEND
  5
2C6
330
2C3
100
AcDbEntity
  8
Layer 1
370
    25
  0
POLYLINE
  5
2C7
330
3C
100
AcDbEntity
  8
Layer 1
 62
     7
370
    25
100
AcDb2dPolyline
 66
     1
 10
0.0
 20
0.0
 30
0.0
  0
VERTEX
  5
2C8
330
2C7
100
AcDbEntity
  8
Layer 1
 62
     7
370
    25
100
AcDbVertex
100
AcDb2dVertex
 10
-16.46290554058914
 20
973.4971677253758
 30
0.0
  0
VERTEX
  5
2C9
330
2C7
100
AcDbEntity
  8
Layer 1
 62
     7
370
    25
100
AcDbVertex
100
AcDb2dVertex
 10
11.75931667457753
 20
957.622512238893
 30
0.0
  0
SEQEND
  5
2CA
330
2C7
100
AcDbEntity
  8
Layer 1
370
    25
  0
POLYLINE
  5
2CB
330
3C
100
AcDbEntity
  8
Layer 1
 62
     7
370
    25
100
AcDb2dPolyline
 66
     1
 10
0.0
 20
0.0
 30
0.0
  0
VERTEX
  5
2CC
330
2CB
100
AcDbEntity
  8
Layer 1
 62
     7
370
    25
100
AcDbVertex
100
AcDb2dVertex
 10
11.75931667457753
 20
957.622512238893
 30
0.0
  0
VERTEX
  5
2CD
330
2CB
100
AcDbEntity
  8
Layer 1
 62
     7
370
    25
100
AcDbVertex
100
AcDb2dVertex
 10
11.75931667457753
 20
978.7888343907196
 30
0.0
  0
SEQEND
  5
2CE
330
2CB
100
AcDbEntity
  8
Layer 1
370
    25
  0
POLYLINE
  5
2CF
330
3C
100
AcDbEntity
  8
Layer 1
370
     0
100
AcDb2dPolyline
 66
     1
 10
0.0
 20
0.0
 30
0.0
  0
VERTEX
  5
2D0
330
2CF
100
AcDbEntity
  8
Layer 1
370
     0
100
AcDbVertex
100
AcDb2dVertex
 10
483.1067734252303
 20
448.0222655129945
 30
0.0
  0
VERTEX
  5
2D1
330
2CF
100
AcDbEntity
  8
Layer 1
370
     0
100
AcDbVertex
100
AcDb2dVertex
 10
453.1068819396747
 20
443.0227429447999
 30
0.0
  0
VERTEX
  5
2D2
330
2CF
100
AcDbEntity
  8
Layer 1
370
     0
100
AcDbVertex
100
AcDb2dVertex
 10
453.1068819396747
 20
453.0221325907376
 30
0.0
  0
SEQEND
  5
2D3
330
2CF
100
AcDbEntity
  8
Layer 1
370
     0
  0
HATCH
  5
2D4
330
3C
100
AcDbEntity
  8
Layer 1
 62
     7
100
AcDbHatch
 10
0.0
 20
0.0
 30
0.0
210
0.0
220
0.0
230
1.0
  2
SOLID
 70
     1
 71
     0
 91
        1
 92
        1
 93
        3
 72
     1
 10
483.1067734252303
 20
448.0222655129945
 11
453.1068819396747
 21
443.0227429447999
 72
     1
 10
453.1068819396747
 20
443.0227429447999
 11
453.1068819396747
 21
453.0221325907376
 72
     1
 10
453.1068819396747
 20
453.0221325907376
 11
483.1067734252303
 21
448.0222655129945
 97
        0
 75
     2
 76
     1
 98
        0
  0
POLYLINE
  5
2D5
330
3C
100
AcDbEntity
  8
Layer 1
370
     0
100
AcDb2dPolyline
 66
     1
 10
0.0
 20
0.0
 30
0.0
  0
VERTEX
  5
2D6
330
2D5
100
AcDbEntity
  8
Layer 1
370
     0
100
AcDbVertex
100
AcDb2dVertex
 10
208.1075384679384
 20
448.0222655129945
 30
0.0
  0
VERTEX
  5
2D7
330
2D5
100
AcDbEntity
  8
Layer 1
370
     0
100
AcDbVertex
100
AcDb2dVertex
 10
238.107429953494
 20
453.0221325907376
 30
0.0
  0
VERTEX
  5
2D8
330
2D5
100
AcDbEntity
  8
Layer 1
370
     0
100
AcDbVertex
100
AcDb2dVertex
 10
238.107429953494
 20
443.0227429447999
 30
0.0
  0
SEQEND
  5
2D9
330
2D5
100
AcDbEntity
  8
Layer 1
370
     0
  0
HATCH
  5
2DA
330
3C
100
AcDbEntity
  8
Layer 1
 62
     7
100
AcDbHatch
 10
0.0
 20
0.0
 30
0.0
210
0.0
220
0.0
230
1.0
  2
SOLID
 70
     1
 71
     0
 91
        1
 92
        1
 93
        3
 72
     1
 10
208.1075384679384
 20
448.0222655129945
 11
238.107429953494
 21
453.0221325907376
 72
     1
 10
238.107429953494
 20
453.0221325907376
 11
238.107429953494
 21
443.0227429447999
 72
     1
 10
238.107429953494
 20
443.0227429447999
 11
208.1075384679384
 21
448.0222655129945
 97
        0
 75
     2
 76
     1
 98
        0
  0
POLYLINE
  5
2DB
330
3C
100
AcDbEntity
  8
Layer 1
 62
     7
370
    25
100
AcDb2dPolyline
 66
     1
 10
0.0
 20
0.0
 30
0.0
  0
VERTEX
  5
2DC
330
2DB
100
AcDbEntity
  8
Layer 1
 62
     7
370
    25
100
AcDbVertex
100
AcDb2dVertex
 10
483.1067734252303
 20
524.347322460059
 30
0.0
  0
VERTEX
  5
2DD
330
2DB
100
AcDbEntity
  8
Layer 1
 62
     7
370
    25
100
AcDbVertex
100
AcDb2dVertex
 10
483.1067734252303
 20
438.0221868479597
 30
0.0
  0
SEQEND
  5
2DE
330
2DB
100
AcDbEntity
  8
Layer 1
370
    25
  0
POLYLINE
  5
2DF
330
3C
100
AcDbEntity
  8
Layer 1
 62
     7
370
    25
100
AcDb2dPolyline
 66
     1
 10
0.0
 20
0.0
 30
0.0
  0
VERTEX
  5
2E0
330
2DF
100
AcDbEntity
  8
Layer 1
 62
     7
370
    25
100
AcDbVertex
100
AcDb2dVertex
 10
208.1075384679384
 20
525.2030841785951
 30
0.0
  0
VERTEX
  5
2E1
330
2DF
100
AcDbEntity
  8
Layer 1
 62
     7
370
    25
100
AcDbVertex
100
AcDb2dVertex
 10
208.1075384679384
 20
438.0221868479597
 30
0.0
  0
SEQEND
  5
2E2
330
2DF
100
AcDbEntity
  8
Layer 1
370
    25
  0
POLYLINE
  5
2E3
330
3C
100
AcDbEntity
  8
Layer 1
 62
     7
370
    25
100
AcDb2dPolyline
 66
     1
 10
0.0
 20
0.0
 30
0.0
  0
VERTEX
  5
2E4
330
2E3
100
AcDbEntity
  8
Layer 1
 62
     7
370
    25
100
AcDbVertex
100
AcDb2dVertex
 10
483.1067734252303
 20
448.0222655129945
 30
0.0
  0
VERTEX
  5
2E5
330
2E3
100
AcDbEntity
  8
Layer 1
 62
     7
370
    25
100
AcDbVertex
100
AcDb2dVertex
 10
208.1075384679384
 20
448.0222655129945
 30
0.0
  0
SEQEND
  5
2E6
330
2E3
100
AcDbEntity
  8
Layer 1
370
    25
  0
POLYLINE
  5
2E7
330
3C
100
AcDbEntity
  8
Layer 1
 62
     7
370
    25
100
AcDb2dPolyline
 66
     1
 10
0.0
 20
0.0
 30
0.0
  0
VERTEX
  5
2E8
330
2E7
100
AcDbEntity
  8
Layer 1
 62
     7
370
    25
100
AcDbVertex
100
AcDb2dVertex
 10
281.5194226726757
 20
495.5373669551087
 30
0.0
  0
VERTEX
  5
2E9
330
2E7
100
AcDbEntity
  8
Layer 1
 62
     7
370
    25
100
AcDbVertex
100
AcDb2dVertex
 10
286.8110893380195
 20
502.5925779993519
 30
0.0
  0
SEQEND
  5
2EA
330
2E7
100
AcDbEntity
  8
Layer 1
370
    25
  0
POLYLINE
  5
2EB
330
3C
100
AcDbEntity
  8
Layer 1
 62
     7
370
    25
100
AcDb2dPolyline
 66
     1
 10
0.0
 20
0.0
 30
0.0
  0
VERTEX
  5
2EC
330
2EB
100
AcDbEntity
  8
Layer 1
 62
     7
370
    25
100
AcDbVertex
100
AcDb2dVertex
 10
286.8110893380195
 20
502.5925779993519
 30
0.0
  0
VERTEX
  5
2ED
330
2EB
100
AcDbEntity
  8
Layer 1
 62
     7
370
    25
100
AcDbVertex
100
AcDb2dVertex
 10
297.3942504139327
 20
502.5925779993519
 30
0.0
  0
SEQEND
  5
2EE
330
2EB
100
AcDbEntity
  8
Layer 1
370
    25
  0
POLYLINE
  5
2EF
330
3C
100
AcDbEntity
  8
Layer 1
 62
     7
370
    25
100
AcDb2dPolyline
 66
     1
 10
0.0
 20
0.0
 30
0.0
  0
VERTEX
  5
2F0
330
2EF
100
AcDbEntity
  8
Layer 1
 62
     7
370
    25
100
AcDbVertex
100
AcDb2dVertex
 10
297.3942504139327
 20
502.5925779993519
 30
0.0
  0
VERTEX
  5
2F1
330
2EF
100
AcDbEntity
  8
Layer 1
 62
     7
370
    25
100
AcDbVertex
100
AcDb2dVertex
 10
302.6859170792765
 20
495.5373669551087
 30
0.0
  0
SEQEND
  5
2F2
330
2EF
100
AcDbEntity
  8
Layer 1
370
    25
  0
POLYLINE
  5
2F3
330
3C
100
AcDbEntity
  8
Layer 1
 62
     7
370
    25
100
AcDb2dPolyline
 66
     1
 10
0.0
 20
0.0
 30
0.0
  0
VERTEX
  5
2F4
330
2F3
100
AcDbEntity
  8
Layer 1
 62
     7
370
    25
100
AcDbVertex
100
AcDb2dVertex
 10
302.6859170792765
 20
495.5373669551087
 30
0.0
  0
VERTEX
  5
2F5
330
2F3
100
AcDbEntity
  8
Layer 1
 62
     7
370
    25
100
AcDbVertex
100
AcDb2dVertex
 10
302.6859170792765
 20
488.4818114013171
 30
0.0
  0
SEQEND
  5
2F6
330
2F3
100
AcDbEntity
  8
Layer 1
370
    25
  0
POLYLINE
  5
2F7
330
3C
100
AcDbEntity
  8
Layer 1
 62
     7
370
    25
100
AcDb2dPolyline
 66
     1
 10
0.0
 20
0.0
 30
0.0
  0
VERTEX
  5
2F8
330
2F7
100
AcDbEntity
  8
Layer 1
 62
     7
370
    25
100
AcDbVertex
100
AcDb2dVertex
 10
302.6859170792765
 20
488.4818114013171
 30
0.0
  0
VERTEX
  5
2F9
330
2F7
100
AcDbEntity
  8
Layer 1
 62
     7
370
    25
100
AcDbVertex
100
AcDb2dVertex
 10
297.3942504139327
 20
481.4266003570739
 30
0.0
  0
SEQEND
  5
2FA
330
2F7
100
AcDbEntity
  8
Layer 1
370
    25
  0
POLYLINE
  5
2FB
330
3C
100
AcDbEntity
  8
Layer 1
 62
     7
370
    25
100
AcDb2dPolyline
 66
     1
 10
0.0
 20
0.0
 30
0.0
  0
VERTEX
  5
2FC
330
2FB
100
AcDbEntity
  8
Layer 1
 62
     7
370
    25
100
AcDbVertex
100
AcDb2dVertex
 10
297.3942504139327
 20
481.4266003570739
 30
0.0
  0
VERTEX
  5
2FD
330
2FB
100
AcDbEntity
  8
Layer 1
 62
     7
370
    25
100
AcDbVertex
100
AcDb2dVertex
 10
286.8110893380195
 20
481.4266003570739
 30
0.0
  0
SEQEND
  5
2FE
330
2FB
100
AcDbEntity
  8
Layer 1
370
    25
  0
POLYLINE
  5
2FF
330
3C
100
AcDbEntity
  8
Layer 1
 62
     7
370
    25
100
AcDb2dPolyline
 66
     1
 10
0.0
 20
0.0
 30
0.0
  0
VERTEX
  5
300
330
2FF
100
AcDbEntity
  8
Layer 1
 62
     7
370
    25
100
AcDbVertex
100
AcDb2dVertex
 10
286.8110893380195
 20
481.4266003570739
 30
0.0
  0
VERTEX
  5
301
330
2FF
100
AcDbEntity
  8
Layer 1
 62
     7
370
    25
100
AcDbVertex
100
AcDb2dVertex
 10
281.5194226726757
 20
474.3703557841852
 30
0.0
  0
SEQEND
  5
302
330
2FF
100
AcDbEntity
  8
Layer 1
370
    25
  0
POLYLINE
  5
303
330
3C
100
AcDbEntity
  8
Layer 1
 62
     7
370
    25
100
AcDb2dPolyline
 66
     1
 10
0.0
 20
0.0
 30
0.0
  0
VERTEX
  5
304
330
303
100
AcDbEntity
  8
Layer 1
 62
     7
370
    25
100
AcDbVertex
100
AcDb2dVertex
 10
281.5194226726757
 20
474.3703557841852
 30
0.0
  0
VERTEX
  5
305
330
303
100
AcDbEntity
  8
Layer 1
 62
     7
370
    25
100
AcDbVertex
100
AcDb2dVertex
 10
281.5194226726757
 20
460.2595891861504
 30
0.0
  0
SEQEND
  5
306
330
303
100
AcDbEntity
  8
Layer 1
370
    25
  0
POLYLINE
  5
307
330
3C
100
AcDbEntity
  8
Layer 1
 62
     7
370
    25
100
AcDb2dPolyline
 66
     1
 10
0.0
 20
0.0
 30
0.0
  0
VERTEX
  5
308
330
307
100
AcDbEntity
  8
Layer 1
 62
     7
370
    25
100
AcDbVertex
100
AcDb2dVertex
 10
281.5194226726757
 20
460.2595891861504
 30
0.0
  0
VERTEX
  5
309
330
307
100
AcDbEntity
  8
Layer 1
 62
     7
370
    25
100
AcDbVertex
100
AcDb2dVertex
 10
302.6859170792765
 20
460.2595891861504
 30
0.0
  0
SEQEND
  5
30A
330
307
100
AcDbEntity
  8
Layer 1
370
    25
  0
POLYLINE
  5
30B
330
3C
100
AcDbEntity
  8
Layer 1
 62
     7
370
    25
100
AcDb2dPolyline
 66
     1
 10
0.0
 20
0.0
 30
0.0
  0
VERTEX
  5
30C
330
30B
100
AcDbEntity
  8
Layer 1
 62
     7
370
    25
100
AcDbVertex
100
AcDb2dVertex
 10
313.2694226647382
 20
502.5925779993519
 30
0.0
  0
VERTEX
  5
30D
330
30B
100
AcDbEntity
  8
Layer 1
 62
     7
370
    25
100
AcDbVertex
100
AcDb2dVertex
 10
334.4362615808875
 20
502.5925779993519
 30
0.0
  0
SEQEND
  5
30E
330
30B
100
AcDbEntity
  8
Layer 1
370
    25
  0
POLYLINE
  5
30F
330
3C
100
AcDbEntity
  8
Layer 1
 62
     7
370
    25
100
AcDb2dPolyline
 66
     1
 10
0.0
 20
0.0
 30
0.0
  0
VERTEX
  5
310
330
30F
100
AcDbEntity
  8
Layer 1
 62
     7
370
    25
100
AcDbVertex
100
AcDb2dVertex
 10
334.4362615808875
 20
502.5925779993519
 30
0.0
  0
VERTEX
  5
311
330
30F
100
AcDbEntity
  8
Layer 1
 62
     7
370
    25
100
AcDbVertex
100
AcDb2dVertex
 10
318.561089330082
 20
460.2595891861504
 30
0.0
  0
SEQEND
  5
312
330
30F
100
AcDbEntity
  8
Layer 1
370
    25
  0
POLYLINE
  5
313
330
3C
100
AcDbEntity
  8
Layer 1
 62
     7
370
    25
100
AcDb2dPolyline
 66
     1
 10
0.0
 20
0.0
 30
0.0
  0
VERTEX
  5
314
330
313
100
AcDbEntity
  8
Layer 1
 62
     7
370
    25
100
AcDbVertex
100
AcDb2dVertex
 10
345.0192504020264
 20
467.3148002303935
 30
0.0
  0
VERTEX
  5
315
330
313
100
AcDbEntity
  8
Layer 1
 62
     7
370
    25
100
AcDbVertex
100
AcDb2dVertex
 10
350.3109170673702
 20
460.2595891861504
 30
0.0
  0
SEQEND
  5
316
330
313
100
AcDbEntity
  8
Layer 1
370
    25
  0
POLYLINE
  5
317
330
3C
100
AcDbEntity
  8
Layer 1
 62
     7
370
    25
100
AcDb2dPolyline
 66
     1
 10
0.0
 20
0.0
 30
0.0
  0
VERTEX
  5
318
330
317
100
AcDbEntity
  8
Layer 1
 62
     7
370
    25
100
AcDbVertex
100
AcDb2dVertex
 10
350.3109170673702
 20
460.2595891861504
 30
0.0
  0
VERTEX
  5
319
330
317
100
AcDbEntity
  8
Layer 1
 62
     7
370
    25
100
AcDbVertex
100
AcDb2dVertex
 10
360.894422652832
 20
460.2595891861504
 30
0.0
  0
SEQEND
  5
31A
330
317
100
AcDbEntity
  8
Layer 1
370
    25
  0
POLYLINE
  5
31B
330
3C
100
AcDbEntity
  8
Layer 1
 62
     7
370
    25
100
AcDb2dPolyline
 66
     1
 10
0.0
 20
0.0
 30
0.0
  0
VERTEX
  5
31C
330
31B
100
AcDbEntity
  8
Layer 1
 62
     7
370
    25
100
AcDbVertex
100
AcDb2dVertex
 10
360.894422652832
 20
460.2595891861504
 30
0.0
  0
VERTEX
  5
31D
330
31B
100
AcDbEntity
  8
Layer 1
 62
     7
370
    25
100
AcDbVertex
100
AcDb2dVertex
 10
366.1857448086272
 20
467.3148002303935
 30
0.0
  0
SEQEND
  5
31E
330
31B
100
AcDbEntity
  8
Layer 1
370
    25
  0
POLYLINE
  5
31F
330
3C
100
AcDbEntity
  8
Layer 1
 62
     7
370
    25
100
AcDb2dPolyline
 66
     1
 10
0.0
 20
0.0
 30
0.0
  0
VERTEX
  5
320
330
31F
100
AcDbEntity
  8
Layer 1
 62
     7
370
    25
100
AcDbVertex
100
AcDb2dVertex
 10
366.1857448086272
 20
467.3148002303935
 30
0.0
  0
VERTEX
  5
321
330
31F
100
AcDbEntity
  8
Layer 1
 62
     7
370
    25
100
AcDbVertex
100
AcDb2dVertex
 10
366.1857448086272
 20
481.4266003570739
 30
0.0
  0
SEQEND
  5
322
330
31F
100
AcDbEntity
  8
Layer 1
370
    25
  0
POLYLINE
  5
323
330
3C
100
AcDbEntity
  8
Layer 1
 62
     7
370
    25
100
AcDb2dPolyline
 66
     1
 10
0.0
 20
0.0
 30
0.0
  0
VERTEX
  5
324
330
323
100
AcDbEntity
  8
Layer 1
 62
     7
370
    25
100
AcDbVertex
100
AcDb2dVertex
 10
366.1857448086272
 20
481.4266003570739
 30
0.0
  0
VERTEX
  5
325
330
323
100
AcDbEntity
  8
Layer 1
 62
     7
370
    25
100
AcDbVertex
100
AcDb2dVertex
 10
360.894422652832
 20
488.4818114013171
 30
0.0
  0
SEQEND
  5
326
330
323
100
AcDbEntity
  8
Layer 1
370
    25
  0
POLYLINE
  5
327
330
3C
100
AcDbEntity
  8
Layer 1
 62
     7
370
    25
100
AcDb2dPolyline
 66
     1
 10
0.0
 20
0.0
 30
0.0
  0
VERTEX
  5
328
330
327
100
AcDbEntity
  8
Layer 1
 62
     7
370
    25
100
AcDbVertex
100
AcDb2dVertex
 10
360.894422652832
 20
488.4818114013171
 30
0.0
  0
VERTEX
  5
329
330
327
100
AcDbEntity
  8
Layer 1
 62
     7
370
    25
100
AcDbVertex
100
AcDb2dVertex
 10
345.0192504020264
 20
488.4818114013171
 30
0.0
  0
SEQEND
  5
32A
330
327
100
AcDbEntity
  8
Layer 1
370
    25
  0
POLYLINE
  5
32B
330
3C
100
AcDbEntity
  8
Layer 1
 62
     7
370
    25
100
AcDb2dPolyline
 66
     1
 10
0.0
 20
0.0
 30
0.0
  0
VERTEX
  5
32C
330
32B
100
AcDbEntity
  8
Layer 1
 62
     7
370
    25
100
AcDbVertex
100
AcDb2dVertex
 10
345.0192504020264
 20
488.4818114013171
 30
0.0
  0
VERTEX
  5
32D
330
32B
100
AcDbEntity
  8
Layer 1
 62
     7
370
    25
100
AcDbVertex
100
AcDb2dVertex
 10
345.0192504020264
 20
502.5925779993519
 30
0.0
  0
SEQEND
  5
32E
330
32B
100
AcDbEntity
  8
Layer 1
370
    25
  0
POLYLINE
  5
32F
330
3C
100
AcDbEntity
  8
Layer 1
 62
     7
370
    25
100
AcDb2dPolyline
 66
     1
 10
0.0
 20
0.0
 30
0.0
  0
VERTEX
  5
330
330
32F
100
AcDbEntity
  8
Layer 1
 62
     7
370
    25
100
AcDbVertex
100
AcDb2dVertex
 10
345.0192504020264
 20
502.5925779993519
 30
0.0
  0
VERTEX
  5
331
330
32F
100
AcDbEntity
  8
Layer 1
 62
     7
370
    25
100
AcDbVertex
100
AcDb2dVertex
 10
366.1857448086272
 20
502.5925779993519
 30
0.0
  0
SEQEND
  5
332
330
32F
100
AcDbEntity
  8
Layer 1
370
    25
  0
POLYLINE
  5
333
330
3C
100
AcDbEntity
  8
Layer 1
370
     0
100
AcDb2dPolyline
 66
     1
 10
0.0
 20
0.0
 30
0.0
  0
VERTEX
  5
334
330
333
100
AcDbEntity
  8
Layer 1
370
     0
100
AcDbVertex
100
AcDb2dVertex
 10
998.1061737956123
 20
565.210633539253
 30
0.0
  0
VERTEX
  5
335
330
333
100
AcDbEntity
  8
Layer 1
370
     0
100
AcDbVertex
100
AcDb2dVertex
 10
993.1063067178693
 20
595.2105250248085
 30
0.0
  0
VERTEX
  5
336
330
333
100
AcDbEntity
  8
Layer 1
370
     0
100
AcDbVertex
100
AcDb2dVertex
 10
1003.106729892453
 20
595.2105250248085
 30
0.0
  0
SEQEND
  5
337
330
333
100
AcDbEntity
  8
Layer 1
370
     0
  0
HATCH
  5
338
330
3C
100
AcDbEntity
  8
Layer 1
 62
     7
100
AcDbHatch
 10
0.0
 20
0.0
 30
0.0
210
0.0
220
0.0
230
1.0
  2
SOLID
 70
     1
 71
     0
 91
        1
 92
        1
 93
        3
 72
     1
 10
998.1061737956123
 20
565.210633539253
 11
993.1063067178693
 21
595.2105250248085
 72
     1
 10
993.1063067178693
 20
595.2105250248085
 11
1003.106729892453
 21
595.2105250248085
 72
     1
 10
1003.106729892453
 20
595.2105250248085
 11
998.1061737956123
 21
565.210633539253
 97
        0
 75
     2
 76
     1
 98
        0
  0
POLYLINE
  5
339
330
3C
100
AcDbEntity
  8
Layer 1
370
     0
100
AcDb2dPolyline
 66
     1
 10
0.0
 20
0.0
 30
0.0
  0
VERTEX
  5
33A
330
339
100
AcDbEntity
  8
Layer 1
370
     0
100
AcDbVertex
100
AcDb2dVertex
 10
998.1061737956123
 20
1070.210299754149
 30
0.0
  0
VERTEX
  5
33B
330
339
100
AcDbEntity
  8
Layer 1
370
     0
100
AcDbVertex
100
AcDb2dVertex
 10
1003.106729892453
 20
1040.210236013819
 30
0.0
  0
VERTEX
  5
33C
330
339
100
AcDbEntity
  8
Layer 1
370
     0
100
AcDbVertex
100
AcDb2dVertex
 10
993.1063067178693
 20
1040.210236013819
 30
0.0
  0
SEQEND
  5
33D
330
339
100
AcDbEntity
  8
Layer 1
370
     0
  0
HATCH
  5
33E
330
3C
100
AcDbEntity
  8
Layer 1
 62
     7
100
AcDbHatch
 10
0.0
 20
0.0
 30
0.0
210
0.0
220
0.0
230
1.0
  2
SOLID
 70
     1
 71
     0
 91
        1
 92
        1
 93
        3
 72
     1
 10
998.1061737956123
 20
1070.210299754149
 11
1003.106729892453
 21
1040.210236013819
 72
     1
 10
1003.106729892453
 20
1040.210236013819
 11
993.1063067178693
 21
1040.210236013819
 72
     1
 10
993.1063067178693
 20
1040.210236013819
 11
998.1061737956123
 21
1070.210299754149
 97
        0
 75
     2
 76
     1
 98
        0
  0
POLYLINE
  5
33F
330
3C
100
AcDbEntity
  8
Layer 1
 62
     7
370
    25
100
AcDb2dPolyline
 66
     1
 10
0.0
 20
0.0
 30
0.0
  0
VERTEX
  5
340
330
33F
100
AcDbEntity
  8
Layer 1
 62
     7
370
    25
100
AcDbVertex
100
AcDb2dVertex
 10
798.271687625953
 20
565.210633539253
 30
0.0
  0
VERTEX
  5
341
330
33F
100
AcDbEntity
  8
Layer 1
 62
     7
370
    25
100
AcDbVertex
100
AcDb2dVertex
 10
1008.106252460647
 20
565.210633539253
 30
0.0
  0
SEQEND
  5
342
330
33F
100
AcDbEntity
  8
Layer 1
370
    25
  0
POLYLINE
  5
343
330
3C
100
AcDbEntity
  8
Layer 1
 62
     7
370
    25
100
AcDb2dPolyline
 66
     1
 10
0.0
 20
0.0
 30
0.0
  0
VERTEX
  5
344
330
343
100
AcDbEntity
  8
Layer 1
 62
     7
370
    25
100
AcDbVertex
100
AcDb2dVertex
 10
798.271687625953
 20
1070.210299754149
 30
0.0
  0
VERTEX
  5
345
330
343
100
AcDbEntity
  8
Layer 1
 62
     7
370
    25
100
AcDbVertex
100
AcDb2dVertex
 10
1008.106252460647
 20
1070.210299754149
 30
0.0
  0
SEQEND
  5
346
330
343
100
AcDbEntity
  8
Layer 1
370
    25
  0
POLYLINE
  5
347
330
3C
100
AcDbEntity
  8
Layer 1
 62
     7
370
    25
100
AcDb2dPolyline
 66
     1
 10
0.0
 20
0.0
 30
0.0
  0
VERTEX
  5
348
330
347
100
AcDbEntity
  8
Layer 1
 62
     7
370
    25
100
AcDbVertex
100
AcDb2dVertex
 10
998.1061737956123
 20
565.210633539253
 30
0.0
  0
VERTEX
  5
349
330
347
100
AcDbEntity
  8
Layer 1
 62
     7
370
    25
100
AcDbVertex
100
AcDb2dVertex
 10
998.1061737956123
 20
1070.210299754149
 30
0.0
  0
SEQEND
  5
34A
330
347
100
AcDbEntity
  8
Layer 1
370
    25
  0
POLYLINE
  5
34B
330
3C
100
AcDbEntity
  8
Layer 1
 62
     7
370
    25
100
AcDb2dPolyline
 66
     1
 10
0.0
 20
0.0
 30
0.0
  0
VERTEX
  5
34C
330
34B
100
AcDbEntity
  8
Layer 1
 62
     7
370
    25
100
AcDbVertex
100
AcDb2dVertex
 10
978.8143280973104
 20
753.6223888632437
 30
0.0
  0
VERTEX
  5
34D
330
34B
100
AcDbEntity
  8
Layer 1
 62
     7
370
    25
100
AcDbVertex
100
AcDb2dVertex
 10
985.8695391415534
 20
758.9142277833618
 30
0.0
  0
SEQEND
  5
34E
330
34B
100
AcDbEntity
  8
Layer 1
370
    25
  0
POLYLINE
  5
34F
330
3C
100
AcDbEntity
  8
Layer 1
 62
     7
370
    25
100
AcDb2dPolyline
 66
     1
 10
0.0
 20
0.0
 30
0.0
  0
VERTEX
  5
350
330
34F
100
AcDbEntity
  8
Layer 1
 62
     7
370
    25
100
AcDbVertex
100
AcDb2dVertex
 10
985.8695391415534
 20
758.9142277833618
 30
0.0
  0
VERTEX
  5
351
330
34F
100
AcDbEntity
  8
Layer 1
 62
     7
370
    25
100
AcDbVertex
100
AcDb2dVertex
 10
985.8695391415534
 20
769.4975611140493
 30
0.0
  0
SEQEND
  5
352
330
34F
100
AcDbEntity
  8
Layer 1
370
    25
  0
POLYLINE
  5
353
330
3C
100
AcDbEntity
  8
Layer 1
 62
     7
370
    25
100
AcDb2dPolyline
 66
     1
 10
0.0
 20
0.0
 30
0.0
  0
VERTEX
  5
354
330
353
100
AcDbEntity
  8
Layer 1
 62
     7
370
    25
100
AcDbVertex
100
AcDb2dVertex
 10
985.8695391415534
 20
769.4975611140493
 30
0.0
  0
VERTEX
  5
355
330
353
100
AcDbEntity
  8
Layer 1
 62
     7
370
    25
100
AcDbVertex
100
AcDb2dVertex
 10
978.8143280973104
 20
774.7894000341672
 30
0.0
  0
SEQEND
  5
356
330
353
100
AcDbEntity
  8
Layer 1
370
    25
  0
POLYLINE
  5
357
330
3C
100
AcDbEntity
  8
Layer 1
 62
     7
370
    25
100
AcDb2dPolyline
 66
     1
 10
0.0
 20
0.0
 30
0.0
  0
VERTEX
  5
358
330
357
100
AcDbEntity
  8
Layer 1
 62
     7
370
    25
100
AcDbVertex
100
AcDb2dVertex
 10
978.8143280973104
 20
774.7894000341672
 30
0.0
  0
VERTEX
  5
359
330
357
100
AcDbEntity
  8
Layer 1
 62
     7
370
    25
100
AcDbVertex
100
AcDb2dVertex
 10
964.7028724801785
 20
774.7894000341672
 30
0.0
  0
SEQEND
  5
35A
330
357
100
AcDbEntity
  8
Layer 1
370
    25
  0
POLYLINE
  5
35B
330
3C
100
AcDbEntity
  8
Layer 1
 62
     7
370
    25
100
AcDb2dPolyline
 66
     1
 10
0.0
 20
0.0
 30
0.0
  0
VERTEX
  5
35C
330
35B
100
AcDbEntity
  8
Layer 1
 62
     7
370
    25
100
AcDbVertex
100
AcDb2dVertex
 10
964.7028724801785
 20
774.7894000341672
 30
0.0
  0
VERTEX
  5
35D
330
35B
100
AcDbEntity
  8
Layer 1
 62
     7
370
    25
100
AcDbVertex
100
AcDb2dVertex
 10
957.6473169263868
 20
769.4975611140493
 30
0.0
  0
SEQEND
  5
35E
330
35B
100
AcDbEntity
  8
Layer 1
370
    25
  0
POLYLINE
  5
35F
330
3C
100
AcDbEntity
  8
Layer 1
 62
     7
370
    25
100
AcDb2dPolyline
 66
     1
 10
0.0
 20
0.0
 30
0.0
  0
VERTEX
  5
360
330
35F
100
AcDbEntity
  8
Layer 1
 62
     7
370
    25
100
AcDbVertex
100
AcDb2dVertex
 10
957.6473169263868
 20
769.4975611140493
 30
0.0
  0
VERTEX
  5
361
330
35F
100
AcDbEntity
  8
Layer 1
 62
     7
370
    25
100
AcDbVertex
100
AcDb2dVertex
 10
957.6473169263868
 20
753.6223888632437
 30
0.0
  0
SEQEND
  5
362
330
35F
100
AcDbEntity
  8
Layer 1
370
    25
  0
POLYLINE
  5
363
330
3C
100
AcDbEntity
  8
Layer 1
 62
     7
370
    25
100
AcDb2dPolyline
 66
     1
 10
0.0
 20
0.0
 30
0.0
  0
VERTEX
  5
364
330
363
100
AcDbEntity
  8
Layer 1
 62
     7
370
    25
100
AcDbVertex
100
AcDb2dVertex
 10
957.6473169263868
 20
753.6223888632437
 30
0.0
  0
VERTEX
  5
365
330
363
100
AcDbEntity
  8
Layer 1
 62
     7
370
    25
100
AcDbVertex
100
AcDb2dVertex
 10
943.535861309255
 20
753.6223888632437
 30
0.0
  0
SEQEND
  5
366
330
363
100
AcDbEntity
  8
Layer 1
370
    25
  0
POLYLINE
  5
367
330
3C
100
AcDbEntity
  8
Layer 1
 62
     7
370
    25
100
AcDb2dPolyline
 66
     1
 10
0.0
 20
0.0
 30
0.0
  0
VERTEX
  5
368
330
367
100
AcDbEntity
  8
Layer 1
 62
     7
370
    25
100
AcDbVertex
100
AcDb2dVertex
 10
943.535861309255
 20
753.6223888632437
 30
0.0
  0
VERTEX
  5
369
330
367
100
AcDbEntity
  8
Layer 1
 62
     7
370
    25
100
AcDbVertex
100
AcDb2dVertex
 10
943.535861309255
 20
774.7894000341672
 30
0.0
  0
SEQEND
  5
36A
330
367
100
AcDbEntity
  8
Layer 1
370
    25
  0
POLYLINE
  5
36B
330
3C
100
AcDbEntity
  8
Layer 1
 62
     7
370
    25
100
AcDb2dPolyline
 66
     1
 10
0.0
 20
0.0
 30
0.0
  0
VERTEX
  5
36C
330
36B
100
AcDbEntity
  8
Layer 1
 62
     7
370
    25
100
AcDbVertex
100
AcDb2dVertex
 10
985.8695391415534
 20
790.66405552065
 30
0.0
  0
VERTEX
  5
36D
330
36B
100
AcDbEntity
  8
Layer 1
 62
     7
370
    25
100
AcDbVertex
100
AcDb2dVertex
 10
978.8143280973104
 20
785.3723888553062
 30
0.0
  0
SEQEND
  5
36E
330
36B
100
AcDbEntity
  8
Layer 1
370
    25
  0
POLYLINE
  5
36F
330
3C
100
AcDbEntity
  8
Layer 1
 62
     7
370
    25
100
AcDb2dPolyline
 66
     1
 10
0.0
 20
0.0
 30
0.0
  0
VERTEX
  5
370
330
36F
100
AcDbEntity
  8
Layer 1
 62
     7
370
    25
100
AcDbVertex
100
AcDb2dVertex
 10
978.8143280973104
 20
785.3723888553062
 30
0.0
  0
VERTEX
  5
371
330
36F
100
AcDbEntity
  8
Layer 1
 62
     7
370
    25
100
AcDbVertex
100
AcDb2dVertex
 10
950.5910723534981
 20
785.3723888553062
 30
0.0
  0
SEQEND
  5
372
330
36F
100
AcDbEntity
  8
Layer 1
370
    25
  0
POLYLINE
  5
373
330
3C
100
AcDbEntity
  8
Layer 1
 62
     7
370
    25
100
AcDb2dPolyline
 66
     1
 10
0.0
 20
0.0
 30
0.0
  0
VERTEX
  5
374
330
373
100
AcDbEntity
  8
Layer 1
 62
     7
370
    25
100
AcDbVertex
100
AcDb2dVertex
 10
950.5910723534981
 20
785.3723888553062
 30
0.0
  0
VERTEX
  5
375
330
373
100
AcDbEntity
  8
Layer 1
 62
     7
370
    25
100
AcDbVertex
100
AcDb2dVertex
 10
943.535861309255
 20
790.66405552065
 30
0.0
  0
SEQEND
  5
376
330
373
100
AcDbEntity
  8
Layer 1
370
    25
  0
POLYLINE
  5
377
330
3C
100
AcDbEntity
  8
Layer 1
 62
     7
370
    25
100
AcDb2dPolyline
 66
     1
 10
0.0
 20
0.0
 30
0.0
  0
VERTEX
  5
378
330
377
100
AcDbEntity
  8
Layer 1
 62
     7
370
    25
100
AcDbVertex
100
AcDb2dVertex
 10
943.535861309255
 20
790.66405552065
 30
0.0
  0
VERTEX
  5
379
330
377
100
AcDbEntity
  8
Layer 1
 62
     7
370
    25
100
AcDbVertex
100
AcDb2dVertex
 10
943.535861309255
 20
795.9557221859937
 30
0.0
  0
SEQEND
  5
37A
330
377
100
AcDbEntity
  8
Layer 1
370
    25
  0
POLYLINE
  5
37B
330
3C
100
AcDbEntity
  8
Layer 1
 62
     7
370
    25
100
AcDb2dPolyline
 66
     1
 10
0.0
 20
0.0
 30
0.0
  0
VERTEX
  5
37C
330
37B
100
AcDbEntity
  8
Layer 1
 62
     7
370
    25
100
AcDbVertex
100
AcDb2dVertex
 10
943.535861309255
 20
795.9557221859937
 30
0.0
  0
VERTEX
  5
37D
330
37B
100
AcDbEntity
  8
Layer 1
 62
     7
370
    25
100
AcDbVertex
100
AcDb2dVertex
 10
950.5910723534981
 20
801.2475611061118
 30
0.0
  0
SEQEND
  5
37E
330
37B
100
AcDbEntity
  8
Layer 1
370
    25
  0
POLYLINE
  5
37F
330
3C
100
AcDbEntity
  8
Layer 1
 62
     7
370
    25
100
AcDb2dPolyline
 66
     1
 10
0.0
 20
0.0
 30
0.0
  0
VERTEX
  5
380
330
37F
100
AcDbEntity
  8
Layer 1
 62
     7
370
    25
100
AcDbVertex
100
AcDb2dVertex
 10
950.5910723534981
 20
801.2475611061118
 30
0.0
  0
VERTEX
  5
381
330
37F
100
AcDbEntity
  8
Layer 1
 62
     7
370
    25
100
AcDbVertex
100
AcDb2dVertex
 10
978.8143280973104
 20
801.2475611061118
 30
0.0
  0
SEQEND
  5
382
330
37F
100
AcDbEntity
  8
Layer 1
370
    25
  0
POLYLINE
  5
383
330
3C
100
AcDbEntity
  8
Layer 1
 62
     7
370
    25
100
AcDb2dPolyline
 66
     1
 10
0.0
 20
0.0
 30
0.0
  0
VERTEX
  5
384
330
383
100
AcDbEntity
  8
Layer 1
 62
     7
370
    25
100
AcDbVertex
100
AcDb2dVertex
 10
978.8143280973104
 20
801.2475611061118
 30
0.0
  0
VERTEX
  5
385
330
383
100
AcDbEntity
  8
Layer 1
 62
     7
370
    25
100
AcDbVertex
100
AcDb2dVertex
 10
985.8695391415534
 20
795.9557221859937
 30
0.0
  0
SEQEND
  5
386
330
383
100
AcDbEntity
  8
Layer 1
370
    25
  0
POLYLINE
  5
387
330
3C
100
AcDbEntity
  8
Layer 1
 62
     7
370
    25
100
AcDb2dPolyline
 66
     1
 10
0.0
 20
0.0
 30
0.0
  0
VERTEX
  5
388
330
387
100
AcDbEntity
  8
Layer 1
 62
     7
370
    25
100
AcDbVertex
100
AcDb2dVertex
 10
985.8695391415534
 20
795.9557221859937
 30
0.0
  0
VERTEX
  5
389
330
387
100
AcDbEntity
  8
Layer 1
 62
     7
370
    25
100
AcDbVertex
100
AcDb2dVertex
 10
985.8695391415534
 20
790.66405552065
 30
0.0
  0
SEQEND
  5
38A
330
387
100
AcDbEntity
  8
Layer 1
370
    25
  0
POLYLINE
  5
38B
330
3C
100
AcDbEntity
  8
Layer 1
 62
     7
370
    25
100
AcDb2dPolyline
 66
     1
 10
0.0
 20
0.0
 30
0.0
  0
VERTEX
  5
38C
330
38B
100
AcDbEntity
  8
Layer 1
 62
     7
370
    25
100
AcDbVertex
100
AcDb2dVertex
 10
978.8143280973104
 20
811.8308944367992
 30
0.0
  0
VERTEX
  5
38D
330
38B
100
AcDbEntity
  8
Layer 1
 62
     7
370
    25
100
AcDbVertex
100
AcDb2dVertex
 10
985.8695391415534
 20
817.1227333569173
 30
0.0
  0
SEQEND
  5
38E
330
38B
100
AcDbEntity
  8
Layer 1
370
    25
  0
POLYLINE
  5
38F
330
3C
100
AcDbEntity
  8
Layer 1
 62
     7
370
    25
100
AcDb2dPolyline
 66
     1
 10
0.0
 20
0.0
 30
0.0
  0
VERTEX
  5
390
330
38F
100
AcDbEntity
  8
Layer 1
 62
     7
370
    25
100
AcDbVertex
100
AcDb2dVertex
 10
985.8695391415534
 20
817.1227333569173
 30
0.0
  0
VERTEX
  5
391
330
38F
100
AcDbEntity
  8
Layer 1
 62
     7
370
    25
100
AcDbVertex
100
AcDb2dVertex
 10
985.8695391415534
 20
827.7057221780562
 30
0.0
  0
SEQEND
  5
392
330
38F
100
AcDbEntity
  8
Layer 1
370
    25
  0
POLYLINE
  5
393
330
3C
100
AcDbEntity
  8
Layer 1
 62
     7
370
    25
100
AcDb2dPolyline
 66
     1
 10
0.0
 20
0.0
 30
0.0
  0
VERTEX
  5
394
330
393
100
AcDbEntity
  8
Layer 1
 62
     7
370
    25
100
AcDbVertex
100
AcDb2dVertex
 10
985.8695391415534
 20
827.7057221780562
 30
0.0
  0
VERTEX
  5
395
330
393
100
AcDbEntity
  8
Layer 1
 62
     7
370
    25
100
AcDbVertex
100
AcDb2dVertex
 10
978.8143280973104
 20
832.9973888434
 30
0.0
  0
SEQEND
  5
396
330
393
100
AcDbEntity
  8
Layer 1
370
    25
  0
POLYLINE
  5
397
330
3C
100
AcDbEntity
  8
Layer 1
 62
     7
370
    25
100
AcDb2dPolyline
 66
     1
 10
0.0
 20
0.0
 30
0.0
  0
VERTEX
  5
398
330
397
100
AcDbEntity
  8
Layer 1
 62
     7
370
    25
100
AcDbVertex
100
AcDb2dVertex
 10
978.8143280973104
 20
832.9973888434
 30
0.0
  0
VERTEX
  5
399
330
397
100
AcDbEntity
  8
Layer 1
 62
     7
370
    25
100
AcDbVertex
100
AcDb2dVertex
 10
964.7028724801785
 20
832.9973888434
 30
0.0
  0
SEQEND
  5
39A
330
397
100
AcDbEntity
  8
Layer 1
370
    25
  0
POLYLINE
  5
39B
330
3C
100
AcDbEntity
  8
Layer 1
 62
     7
370
    25
100
AcDb2dPolyline
 66
     1
 10
0.0
 20
0.0
 30
0.0
  0
VERTEX
  5
39C
330
39B
100
AcDbEntity
  8
Layer 1
 62
     7
370
    25
100
AcDbVertex
100
AcDb2dVertex
 10
964.7028724801785
 20
832.9973888434
 30
0.0
  0
VERTEX
  5
39D
330
39B
100
AcDbEntity
  8
Layer 1
 62
     7
370
    25
100
AcDbVertex
100
AcDb2dVertex
 10
957.6473169263868
 20
827.7057221780562
 30
0.0
  0
SEQEND
  5
39E
330
39B
100
AcDbEntity
  8
Layer 1
370
    25
  0
POLYLINE
  5
39F
330
3C
100
AcDbEntity
  8
Layer 1
 62
     7
370
    25
100
AcDb2dPolyline
 66
     1
 10
0.0
 20
0.0
 30
0.0
  0
VERTEX
  5
3A0
330
39F
100
AcDbEntity
  8
Layer 1
 62
     7
370
    25
100
AcDbVertex
100
AcDb2dVertex
 10
957.6473169263868
 20
827.7057221780562
 30
0.0
  0
VERTEX
  5
3A1
330
39F
100
AcDbEntity
  8
Layer 1
 62
     7
370
    25
100
AcDbVertex
100
AcDb2dVertex
 10
957.6473169263868
 20
811.8308944367992
 30
0.0
  0
SEQEND
  5
3A2
330
39F
100
AcDbEntity
  8
Layer 1
370
    25
  0
POLYLINE
  5
3A3
330
3C
100
AcDbEntity
  8
Layer 1
 62
     7
370
    25
100
AcDb2dPolyline
 66
     1
 10
0.0
 20
0.0
 30
0.0
  0
VERTEX
  5
3A4
330
3A3
100
AcDbEntity
  8
Layer 1
 62
     7
370
    25
100
AcDbVertex
100
AcDb2dVertex
 10
957.6473169263868
 20
811.8308944367992
 30
0.0
  0
VERTEX
  5
3A5
330
3A3
100
AcDbEntity
  8
Layer 1
 62
     7
370
    25
100
AcDbVertex
100
AcDb2dVertex
 10
943.535861309255
 20
811.8308944367992
 30
0.0
  0
SEQEND
  5
3A6
330
3A3
100
AcDbEntity
  8
Layer 1
370
    25
  0
POLYLINE
  5
3A7
330
3C
100
AcDbEntity
  8
Layer 1
 62
     7
370
    25
100
AcDb2dPolyline
 66
     1
 10
0.0
 20
0.0
 30
0.0
  0
VERTEX
  5
3A8
330
3A7
100
AcDbEntity
  8
Layer 1
 62
     7
370
    25
100
AcDbVertex
100
AcDb2dVertex
 10
943.535861309255
 20
811.8308944367992
 30
0.0
  0
VERTEX
  5
3A9
330
3A7
100
AcDbEntity
  8
Layer 1
 62
     7
370
    25
100
AcDbVertex
100
AcDb2dVertex
 10
943.535861309255
 20
832.9973888434
 30
0.0
  0
SEQEND
  5
3AA
330
3A7
100
AcDbEntity
  8
Layer 1
370
    25
  0
POLYLINE
  5
3AB
330
3C
100
AcDbEntity
  8
Layer 1
370
     0
100
AcDb2dPolyline
 66
     1
 10
0.0
 20
0.0
 30
0.0
  0
VERTEX
  5
3AC
330
3AB
100
AcDbEntity
  8
Layer 1
370
     0
100
AcDbVertex
100
AcDb2dVertex
 10
208.1075384679384
 20
1240.21008676677
 30
0.0
  0
VERTEX
  5
3AD
330
3AB
100
AcDbEntity
  8
Layer 1
370
     0
100
AcDbVertex
100
AcDb2dVertex
 10
238.107429953494
 20
1245.209781589739
 30
0.0
  0
VERTEX
  5
3AE
330
3AB
100
AcDbEntity
  8
Layer 1
370
     0
100
AcDbVertex
100
AcDb2dVertex
 10
238.107429953494
 20
1235.209875179479
 30
0.0
  0
SEQEND
  5
3AF
330
3AB
100
AcDbEntity
  8
Layer 1
370
     0
  0
HATCH
  5
3B0
330
3C
100
AcDbEntity
  8
Layer 1
 62
     7
100
AcDbHatch
 10
0.0
 20
0.0
 30
0.0
210
0.0
220
0.0
230
1.0
  2
SOLID
 70
     1
 71
     0
 91
        1
 92
        1
 93
        3
 72
     1
 10
208.1075384679384
 20
1240.21008676677
 11
238.107429953494
 21
1245.209781589739
 72
     1
 10
238.107429953494
 20
1245.209781589739
 11
238.107429953494
 21
1235.209875179479
 72
     1
 10
238.107429953494
 20
1235.209875179479
 11
208.1075384679384
 21
1240.21008676677
 97
        0
 75
     2
 76
     1
 98
        0
  0
POLYLINE
  5
3B1
330
3C
100
AcDbEntity
  8
Layer 1
370
     0
100
AcDb2dPolyline
 66
     1
 10
0.0
 20
0.0
 30
0.0
  0
VERTEX
  5
3B2
330
3B1
100
AcDbEntity
  8
Layer 1
370
     0
100
AcDbVertex
100
AcDb2dVertex
 10
758.1066974016192
 20
1240.21008676677
 30
0.0
  0
VERTEX
  5
3B3
330
3B1
100
AcDbEntity
  8
Layer 1
370
     0
100
AcDbVertex
100
AcDb2dVertex
 10
728.1068059160636
 20
1235.209875179479
 30
0.0
  0
VERTEX
  5
3B4
330
3B1
100
AcDbEntity
  8
Layer 1
370
     0
100
AcDbVertex
100
AcDb2dVertex
 10
728.1068059160636
 20
1245.209781589739
 30
0.0
  0
SEQEND
  5
3B5
330
3B1
100
AcDbEntity
  8
Layer 1
370
     0
  0
HATCH
  5
3B6
330
3C
100
AcDbEntity
  8
Layer 1
 62
     7
100
AcDbHatch
 10
0.0
 20
0.0
 30
0.0
210
0.0
220
0.0
230
1.0
  2
SOLID
 70
     1
 71
     0
 91
        1
 92
        1
 93
        3
 72
     1
 10
758.1066974016192
 20
1240.21008676677
 11
728.1068059160636
 21
1235.209875179479
 72
     1
 10
728.1068059160636
 20
1235.209875179479
 11
728.1068059160636
 21
1245.209781589739
 72
     1
 10
728.1068059160636
 20
1245.209781589739
 11
758.1066974016192
 21
1240.21008676677
 97
        0
 75
     2
 76
     1
 98
        0
  0
POLYLINE
  5
3B7
330
3C
100
AcDbEntity
  8
Layer 1
 62
     7
370
    25
100
AcDb2dPolyline
 66
     1
 10
0.0
 20
0.0
 30
0.0
  0
VERTEX
  5
3B8
330
3B7
100
AcDbEntity
  8
Layer 1
 62
     7
370
    25
100
AcDbVertex
100
AcDb2dVertex
 10
208.1075384679384
 20
1110.169790032787
 30
0.0
  0
VERTEX
  5
3B9
330
3B7
100
AcDbEntity
  8
Layer 1
 62
     7
370
    25
100
AcDbVertex
100
AcDb2dVertex
 10
208.1075384679384
 20
1250.209993177031
 30
0.0
  0
SEQEND
  5
3BA
330
3B7
100
AcDbEntity
  8
Layer 1
370
    25
  0
POLYLINE
  5
3BB
330
3C
100
AcDbEntity
  8
Layer 1
 62
     7
370
    25
100
AcDb2dPolyline
 66
     1
 10
0.0
 20
0.0
 30
0.0
  0
VERTEX
  5
3BC
330
3BB
100
AcDbEntity
  8
Layer 1
 62
     7
370
    25
100
AcDbVertex
100
AcDb2dVertex
 10
758.1066974016192
 20
1110.169790032787
 30
0.0
  0
VERTEX
  5
3BD
330
3BB
100
AcDbEntity
  8
Layer 1
 62
     7
370
    25
100
AcDbVertex
100
AcDb2dVertex
 10
758.1066974016192
 20
1250.209993177031
 30
0.0
  0
SEQEND
  5
3BE
330
3BB
100
AcDbEntity
  8
Layer 1
370
    25
  0
POLYLINE
  5
3BF
330
3C
100
AcDbEntity
  8
Layer 1
 62
     7
370
    25
100
AcDb2dPolyline
 66
     1
 10
0.0
 20
0.0
 30
0.0
  0
VERTEX
  5
3C0
330
3BF
100
AcDbEntity
  8
Layer 1
 62
     7
370
    25
100
AcDbVertex
100
AcDb2dVertex
 10
208.1075384679384
 20
1240.21008676677
 30
0.0
  0
VERTEX
  5
3C1
330
3BF
100
AcDbEntity
  8
Layer 1
 62
     7
370
    25
100
AcDbVertex
100
AcDb2dVertex
 10
758.1066974016192
 20
1240.21008676677
 30
0.0
  0
SEQEND
  5
3C2
330
3BF
100
AcDbEntity
  8
Layer 1
370
    25
  0
POLYLINE
  5
3C3
330
3C
100
AcDbEntity
  8
Layer 1
 62
     7
370
    25
100
AcDb2dPolyline
 66
     1
 10
0.0
 20
0.0
 30
0.0
  0
VERTEX
  5
3C4
330
3C3
100
AcDbEntity
  8
Layer 1
 62
     7
370
    25
100
AcDbVertex
100
AcDb2dVertex
 10
419.0193846608702
 20
1259.50262148417
 30
0.0
  0
VERTEX
  5
3C5
330
3C3
100
AcDbEntity
  8
Layer 1
 62
     7
370
    25
100
AcDbVertex
100
AcDb2dVertex
 10
424.3107068166654
 20
1252.447410439926
 30
0.0
  0
SEQEND
  5
3C6
330
3C3
100
AcDbEntity
  8
Layer 1
370
    25
  0
POLYLINE
  5
3C7
330
3C
100
AcDbEntity
  8
Layer 1
 62
     7
370
    25
100
AcDb2dPolyline
 66
     1
 10
0.0
 20
0.0
 30
0.0
  0
VERTEX
  5
3C8
330
3C7
100
AcDbEntity
  8
Layer 1
 62
     7
370
    25
100
AcDbVertex
100
AcDb2dVertex
 10
424.3107068166654
 20
1252.447410439926
 30
0.0
  0
VERTEX
  5
3C9
330
3C7
100
AcDbEntity
  8
Layer 1
 62
     7
370
    25
100
AcDbVertex
100
AcDb2dVertex
 10
434.8940401473529
 20
1252.447410439926
 30
0.0
  0
SEQEND
  5
3CA
330
3C7
100
AcDbEntity
  8
Layer 1
370
    25
  0
POLYLINE
  5
3CB
330
3C
100
AcDbEntity
  8
Layer 1
 62
     7
370
    25
100
AcDb2dPolyline
 66
     1
 10
0.0
 20
0.0
 30
0.0
  0
VERTEX
  5
3CC
330
3CB
100
AcDbEntity
  8
Layer 1
 62
     7
370
    25
100
AcDbVertex
100
AcDb2dVertex
 10
434.8940401473529
 20
1252.447410439926
 30
0.0
  0
VERTEX
  5
3CD
330
3CB
100
AcDbEntity
  8
Layer 1
 62
     7
370
    25
100
AcDbVertex
100
AcDb2dVertex
 10
440.1858790674709
 20
1259.50262148417
 30
0.0
  0
SEQEND
  5
3CE
330
3CB
100
AcDbEntity
  8
Layer 1
370
    25
  0
POLYLINE
  5
3CF
330
3C
100
AcDbEntity
  8
Layer 1
 62
     7
370
    25
100
AcDb2dPolyline
 66
     1
 10
0.0
 20
0.0
 30
0.0
  0
VERTEX
  5
3D0
330
3CF
100
AcDbEntity
  8
Layer 1
 62
     7
370
    25
100
AcDbVertex
100
AcDb2dVertex
 10
440.1858790674709
 20
1259.50262148417
 30
0.0
  0
VERTEX
  5
3D1
330
3CF
100
AcDbEntity
  8
Layer 1
 62
     7
370
    25
100
AcDbVertex
100
AcDb2dVertex
 10
440.1858790674709
 20
1273.613732591753
 30
0.0
  0
SEQEND
  5
3D2
330
3CF
100
AcDbEntity
  8
Layer 1
370
    25
  0
POLYLINE
  5
3D3
330
3C
100
AcDbEntity
  8
Layer 1
 62
     7
370
    25
100
AcDb2dPolyline
 66
     1
 10
0.0
 20
0.0
 30
0.0
  0
VERTEX
  5
3D4
330
3D3
100
AcDbEntity
  8
Layer 1
 62
     7
370
    25
100
AcDbVertex
100
AcDb2dVertex
 10
440.1858790674709
 20
1273.613732591753
 30
0.0
  0
VERTEX
  5
3D5
330
3D3
100
AcDbEntity
  8
Layer 1
 62
     7
370
    25
100
AcDbVertex
100
AcDb2dVertex
 10
434.8940401473529
 20
1280.669632655093
 30
0.0
  0
SEQEND
  5
3D6
330
3D3
100
AcDbEntity
  8
Layer 1
370
    25
  0
POLYLINE
  5
3D7
330
3C
100
AcDbEntity
  8
Layer 1
 62
     7
370
    25
100
AcDb2dPolyline
 66
     1
 10
0.0
 20
0.0
 30
0.0
  0
VERTEX
  5
3D8
330
3D7
100
AcDbEntity
  8
Layer 1
 62
     7
370
    25
100
AcDbVertex
100
AcDb2dVertex
 10
434.8940401473529
 20
1280.669632655093
 30
0.0
  0
VERTEX
  5
3D9
330
3D7
100
AcDbEntity
  8
Layer 1
 62
     7
370
    25
100
AcDbVertex
100
AcDb2dVertex
 10
419.0193846608702
 20
1280.669632655093
 30
0.0
  0
SEQEND
  5
3DA
330
3D7
100
AcDbEntity
  8
Layer 1
370
    25
  0
POLYLINE
  5
3DB
330
3C
100
AcDbEntity
  8
Layer 1
 62
     7
370
    25
100
AcDb2dPolyline
 66
     1
 10
0.0
 20
0.0
 30
0.0
  0
VERTEX
  5
3DC
330
3DB
100
AcDbEntity
  8
Layer 1
 62
     7
370
    25
100
AcDbVertex
100
AcDb2dVertex
 10
419.0193846608702
 20
1280.669632655093
 30
0.0
  0
VERTEX
  5
3DD
330
3DB
100
AcDbEntity
  8
Layer 1
 62
     7
370
    25
100
AcDbVertex
100
AcDb2dVertex
 10
419.0193846608702
 20
1294.780226998354
 30
0.0
  0
SEQEND
  5
3DE
330
3DB
100
AcDbEntity
  8
Layer 1
370
    25
  0
POLYLINE
  5
3DF
330
3C
100
AcDbEntity
  8
Layer 1
 62
     7
370
    25
100
AcDb2dPolyline
 66
     1
 10
0.0
 20
0.0
 30
0.0
  0
VERTEX
  5
3E0
330
3DF
100
AcDbEntity
  8
Layer 1
 62
     7
370
    25
100
AcDbVertex
100
AcDb2dVertex
 10
419.0193846608702
 20
1294.780226998354
 30
0.0
  0
VERTEX
  5
3E1
330
3DF
100
AcDbEntity
  8
Layer 1
 62
     7
370
    25
100
AcDbVertex
100
AcDb2dVertex
 10
440.1858790674709
 20
1294.780226998354
 30
0.0
  0
SEQEND
  5
3E2
330
3DF
100
AcDbEntity
  8
Layer 1
370
    25
  0
POLYLINE
  5
3E3
330
3C
100
AcDbEntity
  8
Layer 1
 62
     7
370
    25
100
AcDb2dPolyline
 66
     1
 10
0.0
 20
0.0
 30
0.0
  0
VERTEX
  5
3E4
330
3E3
100
AcDbEntity
  8
Layer 1
 62
     7
370
    25
100
AcDbVertex
100
AcDb2dVertex
 10
450.7692123981584
 20
1259.50262148417
 30
0.0
  0
VERTEX
  5
3E5
330
3E3
100
AcDbEntity
  8
Layer 1
 62
     7
370
    25
100
AcDbVertex
100
AcDb2dVertex
 10
456.0610513182764
 20
1252.447410439926
 30
0.0
  0
SEQEND
  5
3E6
330
3E3
100
AcDbEntity
  8
Layer 1
370
    25
  0
POLYLINE
  5
3E7
330
3C
100
AcDbEntity
  8
Layer 1
 62
     7
370
    25
100
AcDb2dPolyline
 66
     1
 10
0.0
 20
0.0
 30
0.0
  0
VERTEX
  5
3E8
330
3E7
100
AcDbEntity
  8
Layer 1
 62
     7
370
    25
100
AcDbVertex
100
AcDb2dVertex
 10
456.0610513182764
 20
1252.447410439926
 30
0.0
  0
VERTEX
  5
3E9
330
3E7
100
AcDbEntity
  8
Layer 1
 62
     7
370
    25
100
AcDbVertex
100
AcDb2dVertex
 10
466.6443846489639
 20
1252.447410439926
 30
0.0
  0
SEQEND
  5
3EA
330
3E7
100
AcDbEntity
  8
Layer 1
370
    25
  0
POLYLINE
  5
3EB
330
3C
100
AcDbEntity
  8
Layer 1
 62
     7
370
    25
100
AcDb2dPolyline
 66
     1
 10
0.0
 20
0.0
 30
0.0
  0
VERTEX
  5
3EC
330
3EB
100
AcDbEntity
  8
Layer 1
 62
     7
370
    25
100
AcDbVertex
100
AcDb2dVertex
 10
466.6443846489639
 20
1252.447410439926
 30
0.0
  0
VERTEX
  5
3ED
330
3EB
100
AcDbEntity
  8
Layer 1
 62
     7
370
    25
100
AcDbVertex
100
AcDb2dVertex
 10
471.9360513143077
 20
1259.50262148417
 30
0.0
  0
SEQEND
  5
3EE
330
3EB
100
AcDbEntity
  8
Layer 1
370
    25
  0
POLYLINE
  5
3EF
330
3C
100
AcDbEntity
  8
Layer 1
 62
     7
370
    25
100
AcDb2dPolyline
 66
     1
 10
0.0
 20
0.0
 30
0.0
  0
VERTEX
  5
3F0
330
3EF
100
AcDbEntity
  8
Layer 1
 62
     7
370
    25
100
AcDbVertex
100
AcDb2dVertex
 10
471.9360513143077
 20
1259.50262148417
 30
0.0
  0
VERTEX
  5
3F1
330
3EF
100
AcDbEntity
  8
Layer 1
 62
     7
370
    25
100
AcDbVertex
100
AcDb2dVertex
 10
471.9360513143077
 20
1273.613732591753
 30
0.0
  0
SEQEND
  5
3F2
330
3EF
100
AcDbEntity
  8
Layer 1
370
    25
  0
POLYLINE
  5
3F3
330
3C
100
AcDbEntity
  8
Layer 1
 62
     7
370
    25
100
AcDb2dPolyline
 66
     1
 10
0.0
 20
0.0
 30
0.0
  0
VERTEX
  5
3F4
330
3F3
100
AcDbEntity
  8
Layer 1
 62
     7
370
    25
100
AcDbVertex
100
AcDb2dVertex
 10
471.9360513143077
 20
1273.613732591753
 30
0.0
  0
VERTEX
  5
3F5
330
3F3
100
AcDbEntity
  8
Layer 1
 62
     7
370
    25
100
AcDbVertex
100
AcDb2dVertex
 10
466.6443846489639
 20
1280.669632655093
 30
0.0
  0
SEQEND
  5
3F6
330
3F3
100
AcDbEntity
  8
Layer 1
370
    25
  0
POLYLINE
  5
3F7
330
3C
100
AcDbEntity
  8
Layer 1
 62
     7
370
    25
100
AcDb2dPolyline
 66
     1
 10
0.0
 20
0.0
 30
0.0
  0
VERTEX
  5
3F8
330
3F7
100
AcDbEntity
  8
Layer 1
 62
     7
370
    25
100
AcDbVertex
100
AcDb2dVertex
 10
466.6443846489639
 20
1280.669632655093
 30
0.0
  0
VERTEX
  5
3F9
330
3F7
100
AcDbEntity
  8
Layer 1
 62
     7
370
    25
100
AcDbVertex
100
AcDb2dVertex
 10
450.7692123981584
 20
1280.669632655093
 30
0.0
  0
SEQEND
  5
3FA
330
3F7
100
AcDbEntity
  8
Layer 1
370
    25
  0
POLYLINE
  5
3FB
330
3C
100
AcDbEntity
  8
Layer 1
 62
     7
370
    25
100
AcDb2dPolyline
 66
     1
 10
0.0
 20
0.0
 30
0.0
  0
VERTEX
  5
3FC
330
3FB
100
AcDbEntity
  8
Layer 1
 62
     7
370
    25
100
AcDbVertex
100
AcDb2dVertex
 10
450.7692123981584
 20
1280.669632655093
 30
0.0
  0
VERTEX
  5
3FD
330
3FB
100
AcDbEntity
  8
Layer 1
 62
     7
370
    25
100
AcDbVertex
100
AcDb2dVertex
 10
450.7692123981584
 20
1294.780226998354
 30
0.0
  0
SEQEND
  5
3FE
330
3FB
100
AcDbEntity
  8
Layer 1
370
    25
  0
POLYLINE
  5
3FF
330
3C
100
AcDbEntity
  8
Layer 1
 62
     7
370
    25
100
AcDb2dPolyline
 66
     1
 10
0.0
 20
0.0
 30
0.0
  0
VERTEX
  5
400
330
3FF
100
AcDbEntity
  8
Layer 1
 62
     7
370
    25
100
AcDbVertex
100
AcDb2dVertex
 10
450.7692123981584
 20
1294.780226998354
 30
0.0
  0
VERTEX
  5
401
330
3FF
100
AcDbEntity
  8
Layer 1
 62
     7
370
    25
100
AcDbVertex
100
AcDb2dVertex
 10
471.9360513143077
 20
1294.780226998354
 30
0.0
  0
SEQEND
  5
402
330
3FF
100
AcDbEntity
  8
Layer 1
370
    25
  0
POLYLINE
  5
403
330
3C
100
AcDbEntity
  8
Layer 1
 62
     7
370
    25
100
AcDb2dPolyline
 66
     1
 10
0.0
 20
0.0
 30
0.0
  0
VERTEX
  5
404
330
403
100
AcDbEntity
  8
Layer 1
 62
     7
370
    25
100
AcDbVertex
100
AcDb2dVertex
 10
487.8103622912419
 20
1252.447410439926
 30
0.0
  0
VERTEX
  5
405
330
403
100
AcDbEntity
  8
Layer 1
 62
     7
370
    25
100
AcDbVertex
100
AcDb2dVertex
 10
482.5186956258981
 20
1259.50262148417
 30
0.0
  0
SEQEND
  5
406
330
403
100
AcDbEntity
  8
Layer 1
370
    25
  0
POLYLINE
  5
407
330
3C
100
AcDbEntity
  8
Layer 1
 62
     7
370
    25
100
AcDb2dPolyline
 66
     1
 10
0.0
 20
0.0
 30
0.0
  0
VERTEX
  5
408
330
407
100
AcDbEntity
  8
Layer 1
 62
     7
370
    25
100
AcDbVertex
100
AcDb2dVertex
 10
482.5186956258981
 20
1259.50262148417
 30
0.0
  0
VERTEX
  5
409
330
407
100
AcDbEntity
  8
Layer 1
 62
     7
370
    25
100
AcDbVertex
100
AcDb2dVertex
 10
482.5186956258981
 20
1287.724843699336
 30
0.0
  0
SEQEND
  5
40A
330
407
100
AcDbEntity
  8
Layer 1
370
    25
  0
POLYLINE
  5
40B
330
3C
100
AcDbEntity
  8
Layer 1
 62
     7
370
    25
100
AcDb2dPolyline
 66
     1
 10
0.0
 20
0.0
 30
0.0
  0
VERTEX
  5
40C
330
40B
100
AcDbEntity
  8
Layer 1
 62
     7
370
    25
100
AcDbVertex
100
AcDb2dVertex
 10
482.5186956258981
 20
1287.724843699336
 30
0.0
  0
VERTEX
  5
40D
330
40B
100
AcDbEntity
  8
Layer 1
 62
     7
370
    25
100
AcDbVertex
100
AcDb2dVertex
 10
487.8103622912419
 20
1294.780226998354
 30
0.0
  0
SEQEND
  5
40E
330
40B
100
AcDbEntity
  8
Layer 1
370
    25
  0
POLYLINE
  5
40F
330
3C
100
AcDbEntity
  8
Layer 1
 62
     7
370
    25
100
AcDb2dPolyline
 66
     1
 10
0.0
 20
0.0
 30
0.0
  0
VERTEX
  5
410
330
40F
100
AcDbEntity
  8
Layer 1
 62
     7
370
    25
100
AcDbVertex
100
AcDb2dVertex
 10
487.8103622912419
 20
1294.780226998354
 30
0.0
  0
VERTEX
  5
411
330
40F
100
AcDbEntity
  8
Layer 1
 62
     7
370
    25
100
AcDbVertex
100
AcDb2dVertex
 10
493.1023734661342
 20
1294.780226998354
 30
0.0
  0
SEQEND
  5
412
330
40F
100
AcDbEntity
  8
Layer 1
370
    25
  0
POLYLINE
  5
413
330
3C
100
AcDbEntity
  8
Layer 1
 62
     7
370
    25
100
AcDb2dPolyline
 66
     1
 10
0.0
 20
0.0
 30
0.0
  0
VERTEX
  5
414
330
413
100
AcDbEntity
  8
Layer 1
 62
     7
370
    25
100
AcDbVertex
100
AcDb2dVertex
 10
493.1023734661342
 20
1294.780226998354
 30
0.0
  0
VERTEX
  5
415
330
413
100
AcDbEntity
  8
Layer 1
 62
     7
370
    25
100
AcDbVertex
100
AcDb2dVertex
 10
498.3940401314779
 20
1287.724843699336
 30
0.0
  0
SEQEND
  5
416
330
413
100
AcDbEntity
  8
Layer 1
370
    25
  0
POLYLINE
  5
417
330
3C
100
AcDbEntity
  8
Layer 1
 62
     7
370
    25
100
AcDb2dPolyline
 66
     1
 10
0.0
 20
0.0
 30
0.0
  0
VERTEX
  5
418
330
417
100
AcDbEntity
  8
Layer 1
 62
     7
370
    25
100
AcDbVertex
100
AcDb2dVertex
 10
498.3940401314779
 20
1287.724843699336
 30
0.0
  0
VERTEX
  5
419
330
417
100
AcDbEntity
  8
Layer 1
 62
     7
370
    25
100
AcDbVertex
100
AcDb2dVertex
 10
498.3940401314779
 20
1259.50262148417
 30
0.0
  0
SEQEND
  5
41A
330
417
100
AcDbEntity
  8
Layer 1
370
    25
  0
POLYLINE
  5
41B
330
3C
100
AcDbEntity
  8
Layer 1
 62
     7
370
    25
100
AcDb2dPolyline
 66
     1
 10
0.0
 20
0.0
 30
0.0
  0
VERTEX
  5
41C
330
41B
100
AcDbEntity
  8
Layer 1
 62
     7
370
    25
100
AcDbVertex
100
AcDb2dVertex
 10
498.3940401314779
 20
1259.50262148417
 30
0.0
  0
VERTEX
  5
41D
330
41B
100
AcDbEntity
  8
Layer 1
 62
     7
370
    25
100
AcDbVertex
100
AcDb2dVertex
 10
493.1023734661342
 20
1252.447410439926
 30
0.0
  0
SEQEND
  5
41E
330
41B
100
AcDbEntity
  8
Layer 1
370
    25
  0
POLYLINE
  5
41F
330
3C
100
AcDbEntity
  8
Layer 1
 62
     7
370
    25
100
AcDb2dPolyline
 66
     1
 10
0.0
 20
0.0
 30
0.0
  0
VERTEX
  5
420
330
41F
100
AcDbEntity
  8
Layer 1
 62
     7
370
    25
100
AcDbVertex
100
AcDb2dVertex
 10
493.1023734661342
 20
1252.447410439926
 30
0.0
  0
VERTEX
  5
421
330
41F
100
AcDbEntity
  8
Layer 1
 62
     7
370
    25
100
AcDbVertex
100
AcDb2dVertex
 10
487.8103622912419
 20
1252.447410439926
 30
0.0
  0
SEQEND
  5
422
330
41F
100
AcDbEntity
  8
Layer 1
370
    25
  0
POLYLINE
  5
423
330
3C
100
AcDbEntity
  8
Layer 1
370
     0
100
AcDb2dPolyline
 66
     1
 10
0.0
 20
0.0
 30
0.0
  0
VERTEX
  5
424
330
423
100
AcDbEntity
  8
Layer 1
370
     0
100
AcDbVertex
100
AcDb2dVertex
 10
928.106656669015
 20
995.2102265307113
 30
0.0
  0
VERTEX
  5
425
330
423
100
AcDbEntity
  8
Layer 1
370
     0
100
AcDbVertex
100
AcDb2dVertex
 10
933.1061792372096
 20
965.2101627903816
 30
0.0
  0
VERTEX
  5
426
330
423
100
AcDbEntity
  8
Layer 1
370
     0
100
AcDbVertex
100
AcDb2dVertex
 10
923.106789591272
 20
965.2101627903816
 30
0.0
  0
SEQEND
  5
427
330
423
100
AcDbEntity
  8
Layer 1
370
     0
  0
HATCH
  5
428
330
3C
100
AcDbEntity
  8
Layer 1
 62
     7
100
AcDbHatch
 10
0.0
 20
0.0
 30
0.0
210
0.0
220
0.0
230
1.0
  2
SOLID
 70
     1
 71
     0
 91
        1
 92
        1
 93
        3
 72
     1
 10
928.106656669015
 20
995.2102265307113
 11
933.1061792372096
 21
965.2101627903816
 72
     1
 10
933.1061792372096
 20
965.2101627903816
 11
923.106789591272
 21
965.2101627903816
 72
     1
 10
923.106789591272
 20
965.2101627903816
 11
928.106656669015
 21
995.2102265307113
 97
        0
 75
     2
 76
     1
 98
        0
  0
POLYLINE
  5
429
330
3C
100
AcDbEntity
  8
Layer 1
370
     0
100
AcDb2dPolyline
 66
     1
 10
0.0
 20
0.0
 30
0.0
  0
VERTEX
  5
42A
330
429
100
AcDbEntity
  8
Layer 1
370
     0
100
AcDbVertex
100
AcDb2dVertex
 10
928.106656669015
 20
590.211002456614
 30
0.0
  0
VERTEX
  5
42B
330
429
100
AcDbEntity
  8
Layer 1
370
     0
100
AcDbVertex
100
AcDb2dVertex
 10
923.106789591272
 20
620.2108939421695
 30
0.0
  0
VERTEX
  5
42C
330
429
100
AcDbEntity
  8
Layer 1
370
     0
100
AcDbVertex
100
AcDb2dVertex
 10
933.1061792372096
 20
620.2108939421695
 30
0.0
  0
SEQEND
  5
42D
330
429
100
AcDbEntity
  8
Layer 1
370
     0
  0
HATCH
  5
42E
330
3C
100
AcDbEntity
  8
Layer 1
 62
     7
100
AcDbHatch
 10
0.0
 20
0.0
 30
0.0
210
0.0
220
0.0
230
1.0
  2
SOLID
 70
     1
 71
     0
 91
        1
 92
        1
 93
        3
 72
     1
 10
928.106656669015
 20
590.211002456614
 11
923.106789591272
 21
620.2108939421695
 72
     1
 10
923.106789591272
 20
620.2108939421695
 11
933.1061792372096
 21
620.2108939421695
 72
     1
 10
933.1061792372096
 20
620.2108939421695
 11
928.106656669015
 21
590.211002456614
 97
        0
 75
     2
 76
     1
 98
        0
  0
POLYLINE
  5
42F
330
3C
100
AcDbEntity
  8
Layer 1
 62
     7
370
    25
100
AcDb2dPolyline
 66
     1
 10
0.0
 20
0.0
 30
0.0
  0
VERTEX
  5
430
330
42F
100
AcDbEntity
  8
Layer 1
 62
     7
370
    25
100
AcDbVertex
100
AcDb2dVertex
 10
798.271687625953
 20
995.2102265307113
 30
0.0
  0
VERTEX
  5
431
330
42F
100
AcDbEntity
  8
Layer 1
 62
     7
370
    25
100
AcDbVertex
100
AcDb2dVertex
 10
938.1067353340497
 20
995.2102265307113
 30
0.0
  0
SEQEND
  5
432
330
42F
100
AcDbEntity
  8
Layer 1
370
    25
  0
POLYLINE
  5
433
330
3C
100
AcDbEntity
  8
Layer 1
 62
     7
370
    25
100
AcDb2dPolyline
 66
     1
 10
0.0
 20
0.0
 30
0.0
  0
VERTEX
  5
434
330
433
100
AcDbEntity
  8
Layer 1
 62
     7
370
    25
100
AcDbVertex
100
AcDb2dVertex
 10
798.271687625953
 20
590.211002456614
 30
0.0
  0
VERTEX
  5
435
330
433
100
AcDbEntity
  8
Layer 1
 62
     7
370
    25
100
AcDbVertex
100
AcDb2dVertex
 10
938.1067353340497
 20
590.211002456614
 30
0.0
  0
SEQEND
  5
436
330
433
100
AcDbEntity
  8
Layer 1
370
    25
  0
POLYLINE
  5
437
330
3C
100
AcDbEntity
  8
Layer 1
 62
     7
370
    25
100
AcDb2dPolyline
 66
     1
 10
0.0
 20
0.0
 30
0.0
  0
VERTEX
  5
438
330
437
100
AcDbEntity
  8
Layer 1
 62
     7
370
    25
100
AcDbVertex
100
AcDb2dVertex
 10
928.106656669015
 20
995.2102265307113
 30
0.0
  0
VERTEX
  5
439
330
437
100
AcDbEntity
  8
Layer 1
 62
     7
370
    25
100
AcDbVertex
100
AcDb2dVertex
 10
928.106656669015
 20
590.211002456614
 30
0.0
  0
SEQEND
  5
43A
330
437
100
AcDbEntity
  8
Layer 1
370
    25
  0
POLYLINE
  5
43B
330
3C
100
AcDbEntity
  8
Layer 1
 62
     7
370
    25
100
AcDb2dPolyline
 66
     1
 10
0.0
 20
0.0
 30
0.0
  0
VERTEX
  5
43C
330
43B
100
AcDbEntity
  8
Layer 1
 62
     7
370
    25
100
AcDbVertex
100
AcDb2dVertex
 10
915.869332995859
 20
744.497708961011
 30
0.0
  0
VERTEX
  5
43D
330
43B
100
AcDbEntity
  8
Layer 1
 62
     7
370
    25
100
AcDbVertex
100
AcDb2dVertex
 10
873.5363441826577
 20
744.497708961011
 30
0.0
  0
SEQEND
  5
43E
330
43B
100
AcDbEntity
  8
Layer 1
370
    25
  0
POLYLINE
  5
43F
330
3C
100
AcDbEntity
  8
Layer 1
 62
     7
370
    25
100
AcDb2dPolyline
 66
     1
 10
0.0
 20
0.0
 30
0.0
  0
VERTEX
  5
440
330
43F
100
AcDbEntity
  8
Layer 1
 62
     7
370
    25
100
AcDbVertex
100
AcDb2dVertex
 10
873.5363441826577
 20
744.497708961011
 30
0.0
  0
VERTEX
  5
441
330
43F
100
AcDbEntity
  8
Layer 1
 62
     7
370
    25
100
AcDbVertex
100
AcDb2dVertex
 10
901.7585663978243
 20
728.6225367102055
 30
0.0
  0
SEQEND
  5
442
330
43F
100
AcDbEntity
  8
Layer 1
370
    25
  0
POLYLINE
  5
443
330
3C
100
AcDbEntity
  8
Layer 1
 62
     7
370
    25
100
AcDb2dPolyline
 66
     1
 10
0.0
 20
0.0
 30
0.0
  0
VERTEX
  5
444
330
443
100
AcDbEntity
  8
Layer 1
 62
     7
370
    25
100
AcDbVertex
100
AcDb2dVertex
 10
901.7585663978243
 20
728.6225367102055
 30
0.0
  0
VERTEX
  5
445
330
443
100
AcDbEntity
  8
Layer 1
 62
     7
370
    25
100
AcDbVertex
100
AcDb2dVertex
 10
901.7585663978243
 20
749.7893756263547
 30
0.0
  0
SEQEND
  5
446
330
443
100
AcDbEntity
  8
Layer 1
370
    25
  0
POLYLINE
  5
447
330
3C
100
AcDbEntity
  8
Layer 1
 62
     7
370
    25
100
AcDb2dPolyline
 66
     1
 10
0.0
 20
0.0
 30
0.0
  0
VERTEX
  5
448
330
447
100
AcDbEntity
  8
Layer 1
 62
     7
370
    25
100
AcDbVertex
100
AcDb2dVertex
 10
915.869332995859
 20
765.6642033676118
 30
0.0
  0
VERTEX
  5
449
330
447
100
AcDbEntity
  8
Layer 1
 62
     7
370
    25
100
AcDbVertex
100
AcDb2dVertex
 10
908.8141219516159
 20
760.372536702268
 30
0.0
  0
SEQEND
  5
44A
330
447
100
AcDbEntity
  8
Layer 1
370
    25
  0
POLYLINE
  5
44B
330
3C
100
AcDbEntity
  8
Layer 1
 62
     7
370
    25
100
AcDb2dPolyline
 66
     1
 10
0.0
 20
0.0
 30
0.0
  0
VERTEX
  5
44C
330
44B
100
AcDbEntity
  8
Layer 1
 62
     7
370
    25
100
AcDbVertex
100
AcDb2dVertex
 10
908.8141219516159
 20
760.372536702268
 30
0.0
  0
VERTEX
  5
44D
330
44B
100
AcDbEntity
  8
Layer 1
 62
     7
370
    25
100
AcDbVertex
100
AcDb2dVertex
 10
880.5918997364492
 20
760.372536702268
 30
0.0
  0
SEQEND
  5
44E
330
44B
100
AcDbEntity
  8
Layer 1
370
    25
  0
POLYLINE
  5
44F
330
3C
100
AcDbEntity
  8
Layer 1
 62
     7
370
    25
100
AcDb2dPolyline
 66
     1
 10
0.0
 20
0.0
 30
0.0
  0
VERTEX
  5
450
330
44F
100
AcDbEntity
  8
Layer 1
 62
     7
370
    25
100
AcDbVertex
100
AcDb2dVertex
 10
880.5918997364492
 20
760.372536702268
 30
0.0
  0
VERTEX
  5
451
330
44F
100
AcDbEntity
  8
Layer 1
 62
     7
370
    25
100
AcDbVertex
100
AcDb2dVertex
 10
873.5363441826577
 20
765.6642033676118
 30
0.0
  0
SEQEND
  5
452
330
44F
100
AcDbEntity
  8
Layer 1
370
    25
  0
POLYLINE
  5
453
330
3C
100
AcDbEntity
  8
Layer 1
 62
     7
370
    25
100
AcDb2dPolyline
 66
     1
 10
0.0
 20
0.0
 30
0.0
  0
VERTEX
  5
454
330
453
100
AcDbEntity
  8
Layer 1
 62
     7
370
    25
100
AcDbVertex
100
AcDb2dVertex
 10
873.5363441826577
 20
765.6642033676118
 30
0.0
  0
VERTEX
  5
455
330
453
100
AcDbEntity
  8
Layer 1
 62
     7
370
    25
100
AcDbVertex
100
AcDb2dVertex
 10
873.5363441826577
 20
770.9558700329555
 30
0.0
  0
SEQEND
  5
456
330
453
100
AcDbEntity
  8
Layer 1
370
    25
  0
POLYLINE
  5
457
330
3C
100
AcDbEntity
  8
Layer 1
 62
     7
370
    25
100
AcDb2dPolyline
 66
     1
 10
0.0
 20
0.0
 30
0.0
  0
VERTEX
  5
458
330
457
100
AcDbEntity
  8
Layer 1
 62
     7
370
    25
100
AcDbVertex
100
AcDb2dVertex
 10
873.5363441826577
 20
770.9558700329555
 30
0.0
  0
VERTEX
  5
459
330
457
100
AcDbEntity
  8
Layer 1
 62
     7
370
    25
100
AcDbVertex
100
AcDb2dVertex
 10
880.5918997364492
 20
776.2477089530735
 30
0.0
  0
SEQEND
  5
45A
330
457
100
AcDbEntity
  8
Layer 1
370
    25
  0
POLYLINE
  5
45B
330
3C
100
AcDbEntity
  8
Layer 1
 62
     7
370
    25
100
AcDb2dPolyline
 66
     1
 10
0.0
 20
0.0
 30
0.0
  0
VERTEX
  5
45C
330
45B
100
AcDbEntity
  8
Layer 1
 62
     7
370
    25
100
AcDbVertex
100
AcDb2dVertex
 10
880.5918997364492
 20
776.2477089530735
 30
0.0
  0
VERTEX
  5
45D
330
45B
100
AcDbEntity
  8
Layer 1
 62
     7
370
    25
100
AcDbVertex
100
AcDb2dVertex
 10
908.8141219516159
 20
776.2477089530735
 30
0.0
  0
SEQEND
  5
45E
330
45B
100
AcDbEntity
  8
Layer 1
370
    25
  0
POLYLINE
  5
45F
330
3C
100
AcDbEntity
  8
Layer 1
 62
     7
370
    25
100
AcDb2dPolyline
 66
     1
 10
0.0
 20
0.0
 30
0.0
  0
VERTEX
  5
460
330
45F
100
AcDbEntity
  8
Layer 1
 62
     7
370
    25
100
AcDbVertex
100
AcDb2dVertex
 10
908.8141219516159
 20
776.2477089530735
 30
0.0
  0
VERTEX
  5
461
330
45F
100
AcDbEntity
  8
Layer 1
 62
     7
370
    25
100
AcDbVertex
100
AcDb2dVertex
 10
915.869332995859
 20
770.9558700329555
 30
0.0
  0
SEQEND
  5
462
330
45F
100
AcDbEntity
  8
Layer 1
370
    25
  0
POLYLINE
  5
463
330
3C
100
AcDbEntity
  8
Layer 1
 62
     7
370
    25
100
AcDb2dPolyline
 66
     1
 10
0.0
 20
0.0
 30
0.0
  0
VERTEX
  5
464
330
463
100
AcDbEntity
  8
Layer 1
 62
     7
370
    25
100
AcDbVertex
100
AcDb2dVertex
 10
915.869332995859
 20
770.9558700329555
 30
0.0
  0
VERTEX
  5
465
330
463
100
AcDbEntity
  8
Layer 1
 62
     7
370
    25
100
AcDbVertex
100
AcDb2dVertex
 10
915.869332995859
 20
765.6642033676118
 30
0.0
  0
SEQEND
  5
466
330
463
100
AcDbEntity
  8
Layer 1
370
    25
  0
POLYLINE
  5
467
330
3C
100
AcDbEntity
  8
Layer 1
 62
     7
370
    25
100
AcDb2dPolyline
 66
     1
 10
0.0
 20
0.0
 30
0.0
  0
VERTEX
  5
468
330
467
100
AcDbEntity
  8
Layer 1
 62
     7
370
    25
100
AcDbVertex
100
AcDb2dVertex
 10
908.8141219516159
 20
786.8306977742125
 30
0.0
  0
VERTEX
  5
469
330
467
100
AcDbEntity
  8
Layer 1
 62
     7
370
    25
100
AcDbVertex
100
AcDb2dVertex
 10
915.869332995859
 20
792.1223644395562
 30
0.0
  0
SEQEND
  5
46A
330
467
100
AcDbEntity
  8
Layer 1
370
    25
  0
POLYLINE
  5
46B
330
3C
100
AcDbEntity
  8
Layer 1
 62
     7
370
    25
100
AcDb2dPolyline
 66
     1
 10
0.0
 20
0.0
 30
0.0
  0
VERTEX
  5
46C
330
46B
100
AcDbEntity
  8
Layer 1
 62
     7
370
    25
100
AcDbVertex
100
AcDb2dVertex
 10
915.869332995859
 20
792.1223644395562
 30
0.0
  0
VERTEX
  5
46D
330
46B
100
AcDbEntity
  8
Layer 1
 62
     7
370
    25
100
AcDbVertex
100
AcDb2dVertex
 10
915.869332995859
 20
802.705870025018
 30
0.0
  0
SEQEND
  5
46E
330
46B
100
AcDbEntity
  8
Layer 1
370
    25
  0
POLYLINE
  5
46F
330
3C
100
AcDbEntity
  8
Layer 1
 62
     7
370
    25
100
AcDb2dPolyline
 66
     1
 10
0.0
 20
0.0
 30
0.0
  0
VERTEX
  5
470
330
46F
100
AcDbEntity
  8
Layer 1
 62
     7
370
    25
100
AcDbVertex
100
AcDb2dVertex
 10
915.869332995859
 20
802.705870025018
 30
0.0
  0
VERTEX
  5
471
330
46F
100
AcDbEntity
  8
Layer 1
 62
     7
370
    25
100
AcDbVertex
100
AcDb2dVertex
 10
908.8141219516159
 20
807.9975366903618
 30
0.0
  0
SEQEND
  5
472
330
46F
100
AcDbEntity
  8
Layer 1
370
    25
  0
POLYLINE
  5
473
330
3C
100
AcDbEntity
  8
Layer 1
 62
     7
370
    25
100
AcDb2dPolyline
 66
     1
 10
0.0
 20
0.0
 30
0.0
  0
VERTEX
  5
474
330
473
100
AcDbEntity
  8
Layer 1
 62
     7
370
    25
100
AcDbVertex
100
AcDb2dVertex
 10
908.8141219516159
 20
807.9975366903618
 30
0.0
  0
VERTEX
  5
475
330
473
100
AcDbEntity
  8
Layer 1
 62
     7
370
    25
100
AcDbVertex
100
AcDb2dVertex
 10
894.7023218249356
 20
807.9975366903618
 30
0.0
  0
SEQEND
  5
476
330
473
100
AcDbEntity
  8
Layer 1
370
    25
  0
POLYLINE
  5
477
330
3C
100
AcDbEntity
  8
Layer 1
 62
     7
370
    25
100
AcDb2dPolyline
 66
     1
 10
0.0
 20
0.0
 30
0.0
  0
VERTEX
  5
478
330
477
100
AcDbEntity
  8
Layer 1
 62
     7
370
    25
100
AcDbVertex
100
AcDb2dVertex
 10
894.7023218249356
 20
807.9975366903618
 30
0.0
  0
VERTEX
  5
479
330
477
100
AcDbEntity
  8
Layer 1
 62
     7
370
    25
100
AcDbVertex
100
AcDb2dVertex
 10
887.6471107806924
 20
802.705870025018
 30
0.0
  0
SEQEND
  5
47A
330
477
100
AcDbEntity
  8
Layer 1
370
    25
  0
POLYLINE
  5
47B
330
3C
100
AcDbEntity
  8
Layer 1
 62
     7
370
    25
100
AcDb2dPolyline
 66
     1
 10
0.0
 20
0.0
 30
0.0
  0
VERTEX
  5
47C
330
47B
100
AcDbEntity
  8
Layer 1
 62
     7
370
    25
100
AcDbVertex
100
AcDb2dVertex
 10
887.6471107806924
 20
802.705870025018
 30
0.0
  0
VERTEX
  5
47D
330
47B
100
AcDbEntity
  8
Layer 1
 62
     7
370
    25
100
AcDbVertex
100
AcDb2dVertex
 10
887.6471107806924
 20
786.8306977742125
 30
0.0
  0
SEQEND
  5
47E
330
47B
100
AcDbEntity
  8
Layer 1
370
    25
  0
POLYLINE
  5
47F
330
3C
100
AcDbEntity
  8
Layer 1
 62
     7
370
    25
100
AcDb2dPolyline
 66
     1
 10
0.0
 20
0.0
 30
0.0
  0
VERTEX
  5
480
330
47F
100
AcDbEntity
  8
Layer 1
 62
     7
370
    25
100
AcDbVertex
100
AcDb2dVertex
 10
887.6471107806924
 20
786.8306977742125
 30
0.0
  0
VERTEX
  5
481
330
47F
100
AcDbEntity
  8
Layer 1
 62
     7
370
    25
100
AcDbVertex
100
AcDb2dVertex
 10
873.5363441826577
 20
786.8306977742125
 30
0.0
  0
SEQEND
  5
482
330
47F
100
AcDbEntity
  8
Layer 1
370
    25
  0
POLYLINE
  5
483
330
3C
100
AcDbEntity
  8
Layer 1
 62
     7
370
    25
100
AcDb2dPolyline
 66
     1
 10
0.0
 20
0.0
 30
0.0
  0
VERTEX
  5
484
330
483
100
AcDbEntity
  8
Layer 1
 62
     7
370
    25
100
AcDbVertex
100
AcDb2dVertex
 10
873.5363441826577
 20
786.8306977742125
 30
0.0
  0
VERTEX
  5
485
330
483
100
AcDbEntity
  8
Layer 1
 62
     7
370
    25
100
AcDbVertex
100
AcDb2dVertex
 10
873.5363441826577
 20
807.9975366903618
 30
0.0
  0
SEQEND
  5
486
330
483
100
AcDbEntity
  8
Layer 1
370
    25
  0
POLYLINE
  5
487
330
3C
100
AcDbEntity
  8
Layer 1
370
     0
100
AcDb2dPolyline
 66
     1
 10
0.0
 20
0.0
 30
0.0
  0
VERTEX
  5
488
330
487
100
AcDbEntity
  8
Layer 1
370
     0
100
AcDbVertex
100
AcDb2dVertex
 10
733.1066729938067
 20
1170.209708366302
 30
0.0
  0
VERTEX
  5
489
330
487
100
AcDbEntity
  8
Layer 1
370
     0
100
AcDbVertex
100
AcDb2dVertex
 10
703.1074705273481
 20
1165.210013543333
 30
0.0
  0
VERTEX
  5
48A
330
487
100
AcDbEntity
  8
Layer 1
370
     0
100
AcDbVertex
100
AcDb2dVertex
 10
703.1074705273481
 20
1175.209919953593
 30
0.0
  0
SEQEND
  5
48B
330
487
100
AcDbEntity
  8
Layer 1
370
     0
  0
HATCH
  5
48C
330
3C
100
AcDbEntity
  8
Layer 1
 62
     7
100
AcDbHatch
 10
0.0
 20
0.0
 30
0.0
210
0.0
220
0.0
230
1.0
  2
SOLID
 70
     1
 71
     0
 91
        1
 92
        1
 93
        3
 72
     1
 10
733.1066729938067
 20
1170.209708366302
 11
703.1074705273481
 21
1165.210013543333
 72
     1
 10
703.1074705273481
 20
1165.210013543333
 11
703.1074705273481
 21
1175.209919953593
 72
     1
 10
703.1074705273481
 20
1175.209919953593
 11
733.1066729938067
 21
1170.209708366302
 97
        0
 75
     2
 76
     1
 98
        0
  0
POLYLINE
  5
48D
330
3C
100
AcDbEntity
  8
Layer 1
370
     0
100
AcDb2dPolyline
 66
     1
 10
0.0
 20
0.0
 30
0.0
  0
VERTEX
  5
48E
330
48D
100
AcDbEntity
  8
Layer 1
370
     0
100
AcDbVertex
100
AcDb2dVertex
 10
233.1073906209766
 20
1170.209708366302
 30
0.0
  0
VERTEX
  5
48F
330
48D
100
AcDbEntity
  8
Layer 1
370
     0
100
AcDbVertex
100
AcDb2dVertex
 10
263.1074543613065
 20
1175.209919953593
 30
0.0
  0
VERTEX
  5
490
330
48D
100
AcDbEntity
  8
Layer 1
370
     0
100
AcDbVertex
100
AcDb2dVertex
 10
263.1074543613065
 20
1165.210013543333
 30
0.0
  0
SEQEND
  5
491
330
48D
100
AcDbEntity
  8
Layer 1
370
     0
  0
HATCH
  5
492
330
3C
100
AcDbEntity
  8
Layer 1
 62
     7
100
AcDbHatch
 10
0.0
 20
0.0
 30
0.0
210
0.0
220
0.0
230
1.0
  2
SOLID
 70
     1
 71
     0
 91
        1
 92
        1
 93
        3
 72
     1
 10
233.1073906209766
 20
1170.209708366302
 11
263.1074543613065
 21
1175.209919953593
 72
     1
 10
263.1074543613065
 20
1175.209919953593
 11
263.1074543613065
 21
1165.210013543333
 72
     1
 10
263.1074543613065
 20
1165.210013543333
 11
233.1073906209766
 21
1170.209708366302
 97
        0
 75
     2
 76
     1
 98
        0
  0
POLYLINE
  5
493
330
3C
100
AcDbEntity
  8
Layer 1
 62
     7
370
    25
100
AcDb2dPolyline
 66
     1
 10
0.0
 20
0.0
 30
0.0
  0
VERTEX
  5
494
330
493
100
AcDbEntity
  8
Layer 1
 62
     7
370
    25
100
AcDbVertex
100
AcDb2dVertex
 10
733.1066729938067
 20
1110.169790032787
 30
0.0
  0
VERTEX
  5
495
330
493
100
AcDbEntity
  8
Layer 1
 62
     7
370
    25
100
AcDbVertex
100
AcDb2dVertex
 10
733.1066729938067
 20
1180.209959286111
 30
0.0
  0
SEQEND
  5
496
330
493
100
AcDbEntity
  8
Layer 1
370
    25
  0
POLYLINE
  5
497
330
3C
100
AcDbEntity
  8
Layer 1
 62
     7
370
    25
100
AcDb2dPolyline
 66
     1
 10
0.0
 20
0.0
 30
0.0
  0
VERTEX
  5
498
330
497
100
AcDbEntity
  8
Layer 1
 62
     7
370
    25
100
AcDbVertex
100
AcDb2dVertex
 10
233.1073906209766
 20
1110.842789435831
 30
0.0
  0
VERTEX
  5
499
330
497
100
AcDbEntity
  8
Layer 1
 62
     7
370
    25
100
AcDbVertex
100
AcDb2dVertex
 10
233.1073906209766
 20
1180.209959286111
 30
0.0
  0
SEQEND
  5
49A
330
497
100
AcDbEntity
  8
Layer 1
370
    25
  0
POLYLINE
  5
49B
330
3C
100
AcDbEntity
  8
Layer 1
 62
     7
370
    25
100
AcDb2dPolyline
 66
     1
 10
0.0
 20
0.0
 30
0.0
  0
VERTEX
  5
49C
330
49B
100
AcDbEntity
  8
Layer 1
 62
     7
370
    25
100
AcDbVertex
100
AcDb2dVertex
 10
733.1066729938067
 20
1170.209708366302
 30
0.0
  0
VERTEX
  5
49D
330
49B
100
AcDbEntity
  8
Layer 1
 62
     7
370
    25
100
AcDbVertex
100
AcDb2dVertex
 10
233.1073906209766
 20
1170.209708366302
 30
0.0
  0
SEQEND
  5
49E
330
49B
100
AcDbEntity
  8
Layer 1
370
    25
  0
POLYLINE
  5
49F
330
3C
100
AcDbEntity
  8
Layer 1
 62
     7
370
    25
100
AcDb2dPolyline
 66
     1
 10
0.0
 20
0.0
 30
0.0
  0
VERTEX
  5
4A0
330
49F
100
AcDbEntity
  8
Layer 1
 62
     7
370
    25
100
AcDbVertex
100
AcDb2dVertex
 10
419.0193846608702
 20
1189.502759848024
 30
0.0
  0
VERTEX
  5
4A1
330
49F
100
AcDbEntity
  8
Layer 1
 62
     7
370
    25
100
AcDbVertex
100
AcDb2dVertex
 10
424.3107068166654
 20
1182.447032039458
 30
0.0
  0
SEQEND
  5
4A2
330
49F
100
AcDbEntity
  8
Layer 1
370
    25
  0
POLYLINE
  5
4A3
330
3C
100
AcDbEntity
  8
Layer 1
 62
     7
370
    25
100
AcDb2dPolyline
 66
     1
 10
0.0
 20
0.0
 30
0.0
  0
VERTEX
  5
4A4
330
4A3
100
AcDbEntity
  8
Layer 1
 62
     7
370
    25
100
AcDbVertex
100
AcDb2dVertex
 10
424.3107068166654
 20
1182.447032039458
 30
0.0
  0
VERTEX
  5
4A5
330
4A3
100
AcDbEntity
  8
Layer 1
 62
     7
370
    25
100
AcDbVertex
100
AcDb2dVertex
 10
434.8940401473529
 20
1182.447032039458
 30
0.0
  0
SEQEND
  5
4A6
330
4A3
100
AcDbEntity
  8
Layer 1
370
    25
  0
POLYLINE
  5
4A7
330
3C
100
AcDbEntity
  8
Layer 1
 62
     7
370
    25
100
AcDb2dPolyline
 66
     1
 10
0.0
 20
0.0
 30
0.0
  0
VERTEX
  5
4A8
330
4A7
100
AcDbEntity
  8
Layer 1
 62
     7
370
    25
100
AcDbVertex
100
AcDb2dVertex
 10
434.8940401473529
 20
1182.447032039458
 30
0.0
  0
VERTEX
  5
4A9
330
4A7
100
AcDbEntity
  8
Layer 1
 62
     7
370
    25
100
AcDbVertex
100
AcDb2dVertex
 10
440.1858790674709
 20
1189.502759848024
 30
0.0
  0
SEQEND
  5
4AA
330
4A7
100
AcDbEntity
  8
Layer 1
370
    25
  0
POLYLINE
  5
4AB
330
3C
100
AcDbEntity
  8
Layer 1
 62
     7
370
    25
100
AcDb2dPolyline
 66
     1
 10
0.0
 20
0.0
 30
0.0
  0
VERTEX
  5
4AC
330
4AB
100
AcDbEntity
  8
Layer 1
 62
     7
370
    25
100
AcDbVertex
100
AcDb2dVertex
 10
440.1858790674709
 20
1189.502759848024
 30
0.0
  0
VERTEX
  5
4AD
330
4AB
100
AcDbEntity
  8
Layer 1
 62
     7
370
    25
100
AcDbVertex
100
AcDb2dVertex
 10
440.1858790674709
 20
1203.613870955607
 30
0.0
  0
SEQEND
  5
4AE
330
4AB
100
AcDbEntity
  8
Layer 1
370
    25
  0
POLYLINE
  5
4AF
330
3C
100
AcDbEntity
  8
Layer 1
 62
     7
370
    25
100
AcDb2dPolyline
 66
     1
 10
0.0
 20
0.0
 30
0.0
  0
VERTEX
  5
4B0
330
4AF
100
AcDbEntity
  8
Layer 1
 62
     7
370
    25
100
AcDbVertex
100
AcDb2dVertex
 10
440.1858790674709
 20
1203.613870955607
 30
0.0
  0
VERTEX
  5
4B1
330
4AF
100
AcDbEntity
  8
Layer 1
 62
     7
370
    25
100
AcDbVertex
100
AcDb2dVertex
 10
434.8940401473529
 20
1210.669254254624
 30
0.0
  0
SEQEND
  5
4B2
330
4AF
100
AcDbEntity
  8
Layer 1
370
    25
  0
POLYLINE
  5
4B3
330
3C
100
AcDbEntity
  8
Layer 1
 62
     7
370
    25
100
AcDb2dPolyline
 66
     1
 10
0.0
 20
0.0
 30
0.0
  0
VERTEX
  5
4B4
330
4B3
100
AcDbEntity
  8
Layer 1
 62
     7
370
    25
100
AcDbVertex
100
AcDb2dVertex
 10
434.8940401473529
 20
1210.669254254624
 30
0.0
  0
VERTEX
  5
4B5
330
4B3
100
AcDbEntity
  8
Layer 1
 62
     7
370
    25
100
AcDbVertex
100
AcDb2dVertex
 10
419.0193846608702
 20
1210.669254254624
 30
0.0
  0
SEQEND
  5
4B6
330
4B3
100
AcDbEntity
  8
Layer 1
370
    25
  0
POLYLINE
  5
4B7
330
3C
100
AcDbEntity
  8
Layer 1
 62
     7
370
    25
100
AcDb2dPolyline
 66
     1
 10
0.0
 20
0.0
 30
0.0
  0
VERTEX
  5
4B8
330
4B7
100
AcDbEntity
  8
Layer 1
 62
     7
370
    25
100
AcDbVertex
100
AcDb2dVertex
 10
419.0193846608702
 20
1210.669254254624
 30
0.0
  0
VERTEX
  5
4B9
330
4B7
100
AcDbEntity
  8
Layer 1
 62
     7
370
    25
100
AcDbVertex
100
AcDb2dVertex
 10
419.0193846608702
 20
1224.780365362208
 30
0.0
  0
SEQEND
  5
4BA
330
4B7
100
AcDbEntity
  8
Layer 1
370
    25
  0
POLYLINE
  5
4BB
330
3C
100
AcDbEntity
  8
Layer 1
 62
     7
370
    25
100
AcDb2dPolyline
 66
     1
 10
0.0
 20
0.0
 30
0.0
  0
VERTEX
  5
4BC
330
4BB
100
AcDbEntity
  8
Layer 1
 62
     7
370
    25
100
AcDbVertex
100
AcDb2dVertex
 10
419.0193846608702
 20
1224.780365362208
 30
0.0
  0
VERTEX
  5
4BD
330
4BB
100
AcDbEntity
  8
Layer 1
 62
     7
370
    25
100
AcDbVertex
100
AcDb2dVertex
 10
440.1858790674709
 20
1224.780365362208
 30
0.0
  0
SEQEND
  5
4BE
330
4BB
100
AcDbEntity
  8
Layer 1
370
    25
  0
POLYLINE
  5
4BF
330
3C
100
AcDbEntity
  8
Layer 1
 62
     7
370
    25
100
AcDb2dPolyline
 66
     1
 10
0.0
 20
0.0
 30
0.0
  0
VERTEX
  5
4C0
330
4BF
100
AcDbEntity
  8
Layer 1
 62
     7
370
    25
100
AcDbVertex
100
AcDb2dVertex
 10
456.0610513182764
 20
1182.447032039458
 30
0.0
  0
VERTEX
  5
4C1
330
4BF
100
AcDbEntity
  8
Layer 1
 62
     7
370
    25
100
AcDbVertex
100
AcDb2dVertex
 10
450.7692123981584
 20
1189.502759848024
 30
0.0
  0
SEQEND
  5
4C2
330
4BF
100
AcDbEntity
  8
Layer 1
370
    25
  0
POLYLINE
  5
4C3
330
3C
100
AcDbEntity
  8
Layer 1
 62
     7
370
    25
100
AcDb2dPolyline
 66
     1
 10
0.0
 20
0.0
 30
0.0
  0
VERTEX
  5
4C4
330
4C3
100
AcDbEntity
  8
Layer 1
 62
     7
370
    25
100
AcDbVertex
100
AcDb2dVertex
 10
450.7692123981584
 20
1189.502759848024
 30
0.0
  0
VERTEX
  5
4C5
330
4C3
100
AcDbEntity
  8
Layer 1
 62
     7
370
    25
100
AcDbVertex
100
AcDb2dVertex
 10
450.7692123981584
 20
1217.72498206319
 30
0.0
  0
SEQEND
  5
4C6
330
4C3
100
AcDbEntity
  8
Layer 1
370
    25
  0
POLYLINE
  5
4C7
330
3C
100
AcDbEntity
  8
Layer 1
 62
     7
370
    25
100
AcDb2dPolyline
 66
     1
 10
0.0
 20
0.0
 30
0.0
  0
VERTEX
  5
4C8
330
4C7
100
AcDbEntity
  8
Layer 1
 62
     7
370
    25
100
AcDbVertex
100
AcDb2dVertex
 10
450.7692123981584
 20
1217.72498206319
 30
0.0
  0
VERTEX
  5
4C9
330
4C7
100
AcDbEntity
  8
Layer 1
 62
     7
370
    25
100
AcDbVertex
100
AcDb2dVertex
 10
456.0610513182764
 20
1224.780365362208
 30
0.0
  0
SEQEND
  5
4CA
330
4C7
100
AcDbEntity
  8
Layer 1
370
    25
  0
POLYLINE
  5
4CB
330
3C
100
AcDbEntity
  8
Layer 1
 62
     7
370
    25
100
AcDb2dPolyline
 66
     1
 10
0.0
 20
0.0
 30
0.0
  0
VERTEX
  5
4CC
330
4CB
100
AcDbEntity
  8
Layer 1
 62
     7
370
    25
100
AcDbVertex
100
AcDb2dVertex
 10
456.0610513182764
 20
1224.780365362208
 30
0.0
  0
VERTEX
  5
4CD
330
4CB
100
AcDbEntity
  8
Layer 1
 62
     7
370
    25
100
AcDbVertex
100
AcDb2dVertex
 10
461.3527179836202
 20
1224.780365362208
 30
0.0
  0
SEQEND
  5
4CE
330
4CB
100
AcDbEntity
  8
Layer 1
370
    25
  0
POLYLINE
  5
4CF
330
3C
100
AcDbEntity
  8
Layer 1
 62
     7
370
    25
100
AcDb2dPolyline
 66
     1
 10
0.0
 20
0.0
 30
0.0
  0
VERTEX
  5
4D0
330
4CF
100
AcDbEntity
  8
Layer 1
 62
     7
370
    25
100
AcDbVertex
100
AcDb2dVertex
 10
461.3527179836202
 20
1224.780365362208
 30
0.0
  0
VERTEX
  5
4D1
330
4CF
100
AcDbEntity
  8
Layer 1
 62
     7
370
    25
100
AcDbVertex
100
AcDb2dVertex
 10
466.6443846489639
 20
1217.72498206319
 30
0.0
  0
SEQEND
  5
4D2
330
4CF
100
AcDbEntity
  8
Layer 1
370
    25
  0
POLYLINE
  5
4D3
330
3C
100
AcDbEntity
  8
Layer 1
 62
     7
370
    25
100
AcDb2dPolyline
 66
     1
 10
0.0
 20
0.0
 30
0.0
  0
VERTEX
  5
4D4
330
4D3
100
AcDbEntity
  8
Layer 1
 62
     7
370
    25
100
AcDbVertex
100
AcDb2dVertex
 10
466.6443846489639
 20
1217.72498206319
 30
0.0
  0
VERTEX
  5
4D5
330
4D3
100
AcDbEntity
  8
Layer 1
 62
     7
370
    25
100
AcDbVertex
100
AcDb2dVertex
 10
466.6443846489639
 20
1189.502759848024
 30
0.0
  0
SEQEND
  5
4D6
330
4D3
100
AcDbEntity
  8
Layer 1
370
    25
  0
POLYLINE
  5
4D7
330
3C
100
AcDbEntity
  8
Layer 1
 62
     7
370
    25
100
AcDb2dPolyline
 66
     1
 10
0.0
 20
0.0
 30
0.0
  0
VERTEX
  5
4D8
330
4D7
100
AcDbEntity
  8
Layer 1
 62
     7
370
    25
100
AcDbVertex
100
AcDb2dVertex
 10
466.6443846489639
 20
1189.502759848024
 30
0.0
  0
VERTEX
  5
4D9
330
4D7
100
AcDbEntity
  8
Layer 1
 62
     7
370
    25
100
AcDbVertex
100
AcDb2dVertex
 10
461.3527179836202
 20
1182.447032039458
 30
0.0
  0
SEQEND
  5
4DA
330
4D7
100
AcDbEntity
  8
Layer 1
370
    25
  0
POLYLINE
  5
4DB
330
3C
100
AcDbEntity
  8
Layer 1
 62
     7
370
    25
100
AcDb2dPolyline
 66
     1
 10
0.0
 20
0.0
 30
0.0
  0
VERTEX
  5
4DC
330
4DB
100
AcDbEntity
  8
Layer 1
 62
     7
370
    25
100
AcDbVertex
100
AcDb2dVertex
 10
461.3527179836202
 20
1182.447032039458
 30
0.0
  0
VERTEX
  5
4DD
330
4DB
100
AcDbEntity
  8
Layer 1
 62
     7
370
    25
100
AcDbVertex
100
AcDb2dVertex
 10
456.0610513182764
 20
1182.447032039458
 30
0.0
  0
SEQEND
  5
4DE
330
4DB
100
AcDbEntity
  8
Layer 1
370
    25
  0
POLYLINE
  5
4DF
330
3C
100
AcDbEntity
  8
Layer 1
 62
     7
370
    25
100
AcDb2dPolyline
 66
     1
 10
0.0
 20
0.0
 30
0.0
  0
VERTEX
  5
4E0
330
4DF
100
AcDbEntity
  8
Layer 1
 62
     7
370
    25
100
AcDbVertex
100
AcDb2dVertex
 10
482.5186956258981
 20
1182.447032039458
 30
0.0
  0
VERTEX
  5
4E1
330
4DF
100
AcDbEntity
  8
Layer 1
 62
     7
370
    25
100
AcDbVertex
100
AcDb2dVertex
 10
477.2280624891999
 20
1189.502759848024
 30
0.0
  0
SEQEND
  5
4E2
330
4DF
100
AcDbEntity
  8
Layer 1
370
    25
  0
POLYLINE
  5
4E3
330
3C
100
AcDbEntity
  8
Layer 1
 62
     7
370
    25
100
AcDb2dPolyline
 66
     1
 10
0.0
 20
0.0
 30
0.0
  0
VERTEX
  5
4E4
330
4E3
100
AcDbEntity
  8
Layer 1
 62
     7
370
    25
100
AcDbVertex
100
AcDb2dVertex
 10
477.2280624891999
 20
1189.502759848024
 30
0.0
  0
VERTEX
  5
4E5
330
4E3
100
AcDbEntity
  8
Layer 1
 62
     7
370
    25
100
AcDbVertex
100
AcDb2dVertex
 10
477.2280624891999
 20
1217.72498206319
 30
0.0
  0
SEQEND
  5
4E6
330
4E3
100
AcDbEntity
  8
Layer 1
370
    25
  0
POLYLINE
  5
4E7
330
3C
100
AcDbEntity
  8
Layer 1
 62
     7
370
    25
100
AcDb2dPolyline
 66
     1
 10
0.0
 20
0.0
 30
0.0
  0
VERTEX
  5
4E8
330
4E7
100
AcDbEntity
  8
Layer 1
 62
     7
370
    25
100
AcDbVertex
100
AcDb2dVertex
 10
477.2280624891999
 20
1217.72498206319
 30
0.0
  0
VERTEX
  5
4E9
330
4E7
100
AcDbEntity
  8
Layer 1
 62
     7
370
    25
100
AcDbVertex
100
AcDb2dVertex
 10
482.5186956258981
 20
1224.780365362208
 30
0.0
  0
SEQEND
  5
4EA
330
4E7
100
AcDbEntity
  8
Layer 1
370
    25
  0
POLYLINE
  5
4EB
330
3C
100
AcDbEntity
  8
Layer 1
 62
     7
370
    25
100
AcDb2dPolyline
 66
     1
 10
0.0
 20
0.0
 30
0.0
  0
VERTEX
  5
4EC
330
4EB
100
AcDbEntity
  8
Layer 1
 62
     7
370
    25
100
AcDbVertex
100
AcDb2dVertex
 10
482.5186956258981
 20
1224.780365362208
 30
0.0
  0
VERTEX
  5
4ED
330
4EB
100
AcDbEntity
  8
Layer 1
 62
     7
370
    25
100
AcDbVertex
100
AcDb2dVertex
 10
487.8103622912419
 20
1224.780365362208
 30
0.0
  0
SEQEND
  5
4EE
330
4EB
100
AcDbEntity
  8
Layer 1
370
    25
  0
POLYLINE
  5
4EF
330
3C
100
AcDbEntity
  8
Layer 1
 62
     7
370
    25
100
AcDb2dPolyline
 66
     1
 10
0.0
 20
0.0
 30
0.0
  0
VERTEX
  5
4F0
330
4EF
100
AcDbEntity
  8
Layer 1
 62
     7
370
    25
100
AcDbVertex
100
AcDb2dVertex
 10
487.8103622912419
 20
1224.780365362208
 30
0.0
  0
VERTEX
  5
4F1
330
4EF
100
AcDbEntity
  8
Layer 1
 62
     7
370
    25
100
AcDbVertex
100
AcDb2dVertex
 10
493.1023734661342
 20
1217.72498206319
 30
0.0
  0
SEQEND
  5
4F2
330
4EF
100
AcDbEntity
  8
Layer 1
370
    25
  0
POLYLINE
  5
4F3
330
3C
100
AcDbEntity
  8
Layer 1
 62
     7
370
    25
100
AcDb2dPolyline
 66
     1
 10
0.0
 20
0.0
 30
0.0
  0
VERTEX
  5
4F4
330
4F3
100
AcDbEntity
  8
Layer 1
 62
     7
370
    25
100
AcDbVertex
100
AcDb2dVertex
 10
493.1023734661342
 20
1217.72498206319
 30
0.0
  0
VERTEX
  5
4F5
330
4F3
100
AcDbEntity
  8
Layer 1
 62
     7
370
    25
100
AcDbVertex
100
AcDb2dVertex
 10
493.1023734661342
 20
1189.502759848024
 30
0.0
  0
SEQEND
  5
4F6
330
4F3
100
AcDbEntity
  8
Layer 1
370
    25
  0
POLYLINE
  5
4F7
330
3C
100
AcDbEntity
  8
Layer 1
 62
     7
370
    25
100
AcDb2dPolyline
 66
     1
 10
0.0
 20
0.0
 30
0.0
  0
VERTEX
  5
4F8
330
4F7
100
AcDbEntity
  8
Layer 1
 62
     7
370
    25
100
AcDbVertex
100
AcDb2dVertex
 10
493.1023734661342
 20
1189.502759848024
 30
0.0
  0
VERTEX
  5
4F9
330
4F7
100
AcDbEntity
  8
Layer 1
 62
     7
370
    25
100
AcDbVertex
100
AcDb2dVertex
 10
487.8103622912419
 20
1182.447032039458
 30
0.0
  0
SEQEND
  5
4FA
330
4F7
100
AcDbEntity
  8
Layer 1
370
    25
  0
POLYLINE
  5
4FB
330
3C
100
AcDbEntity
  8
Layer 1
 62
     7
370
    25
100
AcDb2dPolyline
 66
     1
 10
0.0
 20
0.0
 30
0.0
  0
VERTEX
  5
4FC
330
4FB
100
AcDbEntity
  8
Layer 1
 62
     7
370
    25
100
AcDbVertex
100
AcDb2dVertex
 10
487.8103622912419
 20
1182.447032039458
 30
0.0
  0
VERTEX
  5
4FD
330
4FB
100
AcDbEntity
  8
Layer 1
 62
     7
370
    25
100
AcDbVertex
100
AcDb2dVertex
 10
482.5186956258981
 20
1182.447032039458
 30
0.0
  0
SEQEND
  5
4FE
330
4FB
100
AcDbEntity
  8
Layer 1
370
    25
  0
POLYLINE
  5
4FF
330
3C
100
AcDbEntity
  8
Layer 1
370
     0
100
AcDb2dPolyline
 66
     1
 10
0.0
 20
0.0
 30
0.0
  0
VERTEX
  5
500
330
4FF
100
AcDbEntity
  8
Layer 1
370
     0
100
AcDbVertex
100
AcDb2dVertex
 10
758.1066974016192
 20
1170.209708366302
 30
0.0
  0
VERTEX
  5
501
330
4FF
100
AcDbEntity
  8
Layer 1
370
     0
100
AcDbVertex
100
AcDb2dVertex
 10
788.1069333967233
 20
1175.209919953593
 30
0.0
  0
VERTEX
  5
502
330
4FF
100
AcDbEntity
  8
Layer 1
370
     0
100
AcDbVertex
100
AcDb2dVertex
 10
788.1069333967233
 20
1165.210013543333
 30
0.0
  0
SEQEND
  5
503
330
4FF
100
AcDbEntity
  8
Layer 1
370
     0
  0
HATCH
  5
504
330
3C
100
AcDbEntity
  8
Layer 1
 62
     7
100
AcDbHatch
 10
0.0
 20
0.0
 30
0.0
210
0.0
220
0.0
230
1.0
  2
SOLID
 70
     1
 71
     0
 91
        1
 92
        1
 93
        3
 72
     1
 10
758.1066974016192
 20
1170.209708366302
 11
788.1069333967233
 21
1175.209919953593
 72
     1
 10
788.1069333967233
 20
1175.209919953593
 11
788.1069333967233
 21
1165.210013543333
 72
     1
 10
788.1069333967233
 20
1165.210013543333
 11
758.1066974016192
 21
1170.209708366302
 97
        0
 75
     2
 76
     1
 98
        0
  0
POLYLINE
  5
505
330
3C
100
AcDbEntity
  8
Layer 1
370
     0
100
AcDb2dPolyline
 66
     1
 10
0.0
 20
0.0
 30
0.0
  0
VERTEX
  5
506
330
505
100
AcDbEntity
  8
Layer 1
370
     0
100
AcDbVertex
100
AcDb2dVertex
 10
733.1066729938067
 20
1170.209708366302
 30
0.0
  0
VERTEX
  5
507
330
505
100
AcDbEntity
  8
Layer 1
370
     0
100
AcDbVertex
100
AcDb2dVertex
 10
703.1074705273481
 20
1165.210013543333
 30
0.0
  0
VERTEX
  5
508
330
505
100
AcDbEntity
  8
Layer 1
370
     0
100
AcDbVertex
100
AcDb2dVertex
 10
703.1074705273481
 20
1175.209919953593
 30
0.0
  0
SEQEND
  5
509
330
505
100
AcDbEntity
  8
Layer 1
370
     0
  0
HATCH
  5
50A
330
3C
100
AcDbEntity
  8
Layer 1
 62
     7
100
AcDbHatch
 10
0.0
 20
0.0
 30
0.0
210
0.0
220
0.0
230
1.0
  2
SOLID
 70
     1
 71
     0
 91
        1
 92
        1
 93
        3
 72
     1
 10
733.1066729938067
 20
1170.209708366302
 11
703.1074705273481
 21
1165.210013543333
 72
     1
 10
703.1074705273481
 20
1165.210013543333
 11
703.1074705273481
 21
1175.209919953593
 72
     1
 10
703.1074705273481
 20
1175.209919953593
 11
733.1066729938067
 21
1170.209708366302
 97
        0
 75
     2
 76
     1
 98
        0
  0
POLYLINE
  5
50B
330
3C
100
AcDbEntity
  8
Layer 1
 62
     7
370
    25
100
AcDb2dPolyline
 66
     1
 10
0.0
 20
0.0
 30
0.0
  0
VERTEX
  5
50C
330
50B
100
AcDbEntity
  8
Layer 1
 62
     7
370
    25
100
AcDbVertex
100
AcDb2dVertex
 10
758.1066974016192
 20
1114.679075513431
 30
0.0
  0
VERTEX
  5
50D
330
50B
100
AcDbEntity
  8
Layer 1
 62
     7
370
    25
100
AcDbVertex
100
AcDb2dVertex
 10
758.1066974016192
 20
1180.209959286111
 30
0.0
  0
SEQEND
  5
50E
330
50B
100
AcDbEntity
  8
Layer 1
370
    25
  0
POLYLINE
  5
50F
330
3C
100
AcDbEntity
  8
Layer 1
 62
     7
370
    25
100
AcDb2dPolyline
 66
     1
 10
0.0
 20
0.0
 30
0.0
  0
VERTEX
  5
510
330
50F
100
AcDbEntity
  8
Layer 1
 62
     7
370
    25
100
AcDbVertex
100
AcDb2dVertex
 10
733.1066729938067
 20
1115.276799580122
 30
0.0
  0
VERTEX
  5
511
330
50F
100
AcDbEntity
  8
Layer 1
 62
     7
370
    25
100
AcDbVertex
100
AcDb2dVertex
 10
733.1066729938067
 20
1180.209959286111
 30
0.0
  0
SEQEND
  5
512
330
50F
100
AcDbEntity
  8
Layer 1
370
    25
  0
POLYLINE
  5
513
330
3C
100
AcDbEntity
  8
Layer 1
 62
     7
370
    25
100
AcDb2dPolyline
 66
     1
 10
0.0
 20
0.0
 30
0.0
  0
VERTEX
  5
514
330
513
100
AcDbEntity
  8
Layer 1
 62
     7
370
    25
100
AcDbVertex
100
AcDb2dVertex
 10
758.1066974016192
 20
1170.209708366302
 30
0.0
  0
VERTEX
  5
515
330
513
100
AcDbEntity
  8
Layer 1
 62
     7
370
    25
100
AcDbVertex
100
AcDb2dVertex
 10
879.9511119761928
 20
1170.209708366302
 30
0.0
  0
SEQEND
  5
516
330
513
100
AcDbEntity
  8
Layer 1
370
    25
  0
POLYLINE
  5
517
330
3C
100
AcDbEntity
  8
Layer 1
 62
     7
370
    25
100
AcDb2dPolyline
 66
     1
 10
0.0
 20
0.0
 30
0.0
  0
VERTEX
  5
518
330
517
100
AcDbEntity
  8
Layer 1
 62
     7
370
    25
100
AcDbVertex
100
AcDb2dVertex
 10
758.1066974016192
 20
1170.209708366302
 30
0.0
  0
VERTEX
  5
519
330
517
100
AcDbEntity
  8
Layer 1
 62
     7
370
    25
100
AcDbVertex
100
AcDb2dVertex
 10
733.1066729938067
 20
1170.209708366302
 30
0.0
  0
SEQEND
  5
51A
330
517
100
AcDbEntity
  8
Layer 1
370
    25
  0
POLYLINE
  5
51B
330
3C
100
AcDbEntity
  8
Layer 1
 62
     7
370
    25
100
AcDb2dPolyline
 66
     1
 10
0.0
 20
0.0
 30
0.0
  0
VERTEX
  5
51C
330
51B
100
AcDbEntity
  8
Layer 1
 62
     7
370
    25
100
AcDbVertex
100
AcDb2dVertex
 10
733.1066729938067
 20
1170.209708366302
 30
0.0
  0
VERTEX
  5
51D
330
51B
100
AcDbEntity
  8
Layer 1
 62
     7
370
    25
100
AcDbVertex
100
AcDb2dVertex
 10
673.1072345322441
 20
1170.209708366302
 30
0.0
  0
SEQEND
  5
51E
330
51B
100
AcDbEntity
  8
Layer 1
370
    25
  0
POLYLINE
  5
51F
330
3C
100
AcDbEntity
  8
Layer 1
 62
     7
370
    25
100
AcDb2dPolyline
 66
     1
 10
0.0
 20
0.0
 30
0.0
  0
VERTEX
  5
520
330
51F
100
AcDbEntity
  8
Layer 1
 62
     7
370
    25
100
AcDbVertex
100
AcDb2dVertex
 10
783.0547008676044
 20
1217.72498206319
 30
0.0
  0
VERTEX
  5
521
330
51F
100
AcDbEntity
  8
Layer 1
 62
     7
370
    25
100
AcDbVertex
100
AcDb2dVertex
 10
788.3470565520452
 20
1224.780365362208
 30
0.0
  0
SEQEND
  5
522
330
51F
100
AcDbEntity
  8
Layer 1
370
    25
  0
POLYLINE
  5
523
330
3C
100
AcDbEntity
  8
Layer 1
 62
     7
370
    25
100
AcDb2dPolyline
 66
     1
 10
0.0
 20
0.0
 30
0.0
  0
VERTEX
  5
524
330
523
100
AcDbEntity
  8
Layer 1
 62
     7
370
    25
100
AcDbVertex
100
AcDb2dVertex
 10
788.3470565520452
 20
1224.780365362208
 30
0.0
  0
VERTEX
  5
525
330
523
100
AcDbEntity
  8
Layer 1
 62
     7
370
    25
100
AcDbVertex
100
AcDb2dVertex
 10
798.9297008636356
 20
1224.780365362208
 30
0.0
  0
SEQEND
  5
526
330
523
100
AcDbEntity
  8
Layer 1
370
    25
  0
POLYLINE
  5
527
330
3C
100
AcDbEntity
  8
Layer 1
 62
     7
370
    25
100
AcDb2dPolyline
 66
     1
 10
0.0
 20
0.0
 30
0.0
  0
VERTEX
  5
528
330
527
100
AcDbEntity
  8
Layer 1
 62
     7
370
    25
100
AcDbVertex
100
AcDb2dVertex
 10
798.9297008636356
 20
1224.780365362208
 30
0.0
  0
VERTEX
  5
529
330
527
100
AcDbEntity
  8
Layer 1
 62
     7
370
    25
100
AcDbVertex
100
AcDb2dVertex
 10
804.2217120385279
 20
1217.72498206319
 30
0.0
  0
SEQEND
  5
52A
330
527
100
AcDbEntity
  8
Layer 1
370
    25
  0
POLYLINE
  5
52B
330
3C
100
AcDbEntity
  8
Layer 1
 62
     7
370
    25
100
AcDb2dPolyline
 66
     1
 10
0.0
 20
0.0
 30
0.0
  0
VERTEX
  5
52C
330
52B
100
AcDbEntity
  8
Layer 1
 62
     7
370
    25
100
AcDbVertex
100
AcDb2dVertex
 10
804.2217120385279
 20
1217.72498206319
 30
0.0
  0
VERTEX
  5
52D
330
52B
100
AcDbEntity
  8
Layer 1
 62
     7
370
    25
100
AcDbVertex
100
AcDb2dVertex
 10
804.2217120385279
 20
1210.669254254624
 30
0.0
  0
SEQEND
  5
52E
330
52B
100
AcDbEntity
  8
Layer 1
370
    25
  0
POLYLINE
  5
52F
330
3C
100
AcDbEntity
  8
Layer 1
 62
     7
370
    25
100
AcDb2dPolyline
 66
     1
 10
0.0
 20
0.0
 30
0.0
  0
VERTEX
  5
530
330
52F
100
AcDbEntity
  8
Layer 1
 62
     7
370
    25
100
AcDbVertex
100
AcDb2dVertex
 10
804.2217120385279
 20
1210.669254254624
 30
0.0
  0
VERTEX
  5
531
330
52F
100
AcDbEntity
  8
Layer 1
 62
     7
370
    25
100
AcDbVertex
100
AcDb2dVertex
 10
798.9297008636356
 20
1203.613870955607
 30
0.0
  0
SEQEND
  5
532
330
52F
100
AcDbEntity
  8
Layer 1
370
    25
  0
POLYLINE
  5
533
330
3C
100
AcDbEntity
  8
Layer 1
 62
     7
370
    25
100
AcDb2dPolyline
 66
     1
 10
0.0
 20
0.0
 30
0.0
  0
VERTEX
  5
534
330
533
100
AcDbEntity
  8
Layer 1
 62
     7
370
    25
100
AcDbVertex
100
AcDb2dVertex
 10
798.9297008636356
 20
1203.613870955607
 30
0.0
  0
VERTEX
  5
535
330
533
100
AcDbEntity
  8
Layer 1
 62
     7
370
    25
100
AcDbVertex
100
AcDb2dVertex
 10
788.3470565520452
 20
1203.613870955607
 30
0.0
  0
SEQEND
  5
536
330
533
100
AcDbEntity
  8
Layer 1
370
    25
  0
POLYLINE
  5
537
330
3C
100
AcDbEntity
  8
Layer 1
 62
     7
370
    25
100
AcDb2dPolyline
 66
     1
 10
0.0
 20
0.0
 30
0.0
  0
VERTEX
  5
538
330
537
100
AcDbEntity
  8
Layer 1
 62
     7
370
    25
100
AcDbVertex
100
AcDb2dVertex
 10
788.3470565520452
 20
1203.613870955607
 30
0.0
  0
VERTEX
  5
539
330
537
100
AcDbEntity
  8
Layer 1
 62
     7
370
    25
100
AcDbVertex
100
AcDb2dVertex
 10
783.0547008676044
 20
1196.558143147041
 30
0.0
  0
SEQEND
  5
53A
330
537
100
AcDbEntity
  8
Layer 1
370
    25
  0
POLYLINE
  5
53B
330
3C
100
AcDbEntity
  8
Layer 1
 62
     7
370
    25
100
AcDb2dPolyline
 66
     1
 10
0.0
 20
0.0
 30
0.0
  0
VERTEX
  5
53C
330
53B
100
AcDbEntity
  8
Layer 1
 62
     7
370
    25
100
AcDbVertex
100
AcDb2dVertex
 10
783.0547008676044
 20
1196.558143147041
 30
0.0
  0
VERTEX
  5
53D
330
53B
100
AcDbEntity
  8
Layer 1
 62
     7
370
    25
100
AcDbVertex
100
AcDb2dVertex
 10
783.0547008676044
 20
1182.447032039458
 30
0.0
  0
SEQEND
  5
53E
330
53B
100
AcDbEntity
  8
Layer 1
370
    25
  0
POLYLINE
  5
53F
330
3C
100
AcDbEntity
  8
Layer 1
 62
     7
370
    25
100
AcDb2dPolyline
 66
     1
 10
0.0
 20
0.0
 30
0.0
  0
VERTEX
  5
540
330
53F
100
AcDbEntity
  8
Layer 1
 62
     7
370
    25
100
AcDbVertex
100
AcDb2dVertex
 10
783.0547008676044
 20
1182.447032039458
 30
0.0
  0
VERTEX
  5
541
330
53F
100
AcDbEntity
  8
Layer 1
 62
     7
370
    25
100
AcDbVertex
100
AcDb2dVertex
 10
804.2217120385279
 20
1182.447032039458
 30
0.0
  0
SEQEND
  5
542
330
53F
100
AcDbEntity
  8
Layer 1
370
    25
  0
POLYLINE
  5
543
330
3C
100
AcDbEntity
  8
Layer 1
 62
     7
370
    25
100
AcDb2dPolyline
 66
     1
 10
0.0
 20
0.0
 30
0.0
  0
VERTEX
  5
544
330
543
100
AcDbEntity
  8
Layer 1
 62
     7
370
    25
100
AcDbVertex
100
AcDb2dVertex
 10
814.8050453692155
 20
1189.502759848024
 30
0.0
  0
VERTEX
  5
545
330
543
100
AcDbEntity
  8
Layer 1
 62
     7
370
    25
100
AcDbVertex
100
AcDb2dVertex
 10
820.0967120345592
 20
1182.447032039458
 30
0.0
  0
SEQEND
  5
546
330
543
100
AcDbEntity
  8
Layer 1
370
    25
  0
POLYLINE
  5
547
330
3C
100
AcDbEntity
  8
Layer 1
 62
     7
370
    25
100
AcDb2dPolyline
 66
     1
 10
0.0
 20
0.0
 30
0.0
  0
VERTEX
  5
548
330
547
100
AcDbEntity
  8
Layer 1
 62
     7
370
    25
100
AcDbVertex
100
AcDb2dVertex
 10
820.0967120345592
 20
1182.447032039458
 30
0.0
  0
VERTEX
  5
549
330
547
100
AcDbEntity
  8
Layer 1
 62
     7
370
    25
100
AcDbVertex
100
AcDb2dVertex
 10
830.6800453652467
 20
1182.447032039458
 30
0.0
  0
SEQEND
  5
54A
330
547
100
AcDbEntity
  8
Layer 1
370
    25
  0
POLYLINE
  5
54B
330
3C
100
AcDbEntity
  8
Layer 1
 62
     7
370
    25
100
AcDb2dPolyline
 66
     1
 10
0.0
 20
0.0
 30
0.0
  0
VERTEX
  5
54C
330
54B
100
AcDbEntity
  8
Layer 1
 62
     7
370
    25
100
AcDbVertex
100
AcDb2dVertex
 10
830.6800453652467
 20
1182.447032039458
 30
0.0
  0
VERTEX
  5
54D
330
54B
100
AcDbEntity
  8
Layer 1
 62
     7
370
    25
100
AcDbVertex
100
AcDb2dVertex
 10
835.972056540139
 20
1189.502759848024
 30
0.0
  0
SEQEND
  5
54E
330
54B
100
AcDbEntity
  8
Layer 1
370
    25
  0
POLYLINE
  5
54F
330
3C
100
AcDbEntity
  8
Layer 1
 62
     7
370
    25
100
AcDb2dPolyline
 66
     1
 10
0.0
 20
0.0
 30
0.0
  0
VERTEX
  5
550
330
54F
100
AcDbEntity
  8
Layer 1
 62
     7
370
    25
100
AcDbVertex
100
AcDb2dVertex
 10
835.972056540139
 20
1189.502759848024
 30
0.0
  0
VERTEX
  5
551
330
54F
100
AcDbEntity
  8
Layer 1
 62
     7
370
    25
100
AcDbVertex
100
AcDb2dVertex
 10
835.972056540139
 20
1203.613870955607
 30
0.0
  0
SEQEND
  5
552
330
54F
100
AcDbEntity
  8
Layer 1
370
    25
  0
POLYLINE
  5
553
330
3C
100
AcDbEntity
  8
Layer 1
 62
     7
370
    25
100
AcDb2dPolyline
 66
     1
 10
0.0
 20
0.0
 30
0.0
  0
VERTEX
  5
554
330
553
100
AcDbEntity
  8
Layer 1
 62
     7
370
    25
100
AcDbVertex
100
AcDb2dVertex
 10
835.972056540139
 20
1203.613870955607
 30
0.0
  0
VERTEX
  5
555
330
553
100
AcDbEntity
  8
Layer 1
 62
     7
370
    25
100
AcDbVertex
100
AcDb2dVertex
 10
830.6800453652467
 20
1210.669254254624
 30
0.0
  0
SEQEND
  5
556
330
553
100
AcDbEntity
  8
Layer 1
370
    25
  0
POLYLINE
  5
557
330
3C
100
AcDbEntity
  8
Layer 1
 62
     7
370
    25
100
AcDb2dPolyline
 66
     1
 10
0.0
 20
0.0
 30
0.0
  0
VERTEX
  5
558
330
557
100
AcDbEntity
  8
Layer 1
 62
     7
370
    25
100
AcDbVertex
100
AcDb2dVertex
 10
830.6800453652467
 20
1210.669254254624
 30
0.0
  0
VERTEX
  5
559
330
557
100
AcDbEntity
  8
Layer 1
 62
     7
370
    25
100
AcDbVertex
100
AcDb2dVertex
 10
814.8050453692155
 20
1210.669254254624
 30
0.0
  0
SEQEND
  5
55A
330
557
100
AcDbEntity
  8
Layer 1
370
    25
  0
POLYLINE
  5
55B
330
3C
100
AcDbEntity
  8
Layer 1
 62
     7
370
    25
100
AcDb2dPolyline
 66
     1
 10
0.0
 20
0.0
 30
0.0
  0
VERTEX
  5
55C
330
55B
100
AcDbEntity
  8
Layer 1
 62
     7
370
    25
100
AcDbVertex
100
AcDb2dVertex
 10
814.8050453692155
 20
1210.669254254624
 30
0.0
  0
VERTEX
  5
55D
330
55B
100
AcDbEntity
  8
Layer 1
 62
     7
370
    25
100
AcDbVertex
100
AcDb2dVertex
 10
814.8050453692155
 20
1224.780365362208
 30
0.0
  0
SEQEND
  5
55E
330
55B
100
AcDbEntity
  8
Layer 1
370
    25
  0
POLYLINE
  5
55F
330
3C
100
AcDbEntity
  8
Layer 1
 62
     7
370
    25
100
AcDb2dPolyline
 66
     1
 10
0.0
 20
0.0
 30
0.0
  0
VERTEX
  5
560
330
55F
100
AcDbEntity
  8
Layer 1
 62
     7
370
    25
100
AcDbVertex
100
AcDb2dVertex
 10
814.8050453692155
 20
1224.780365362208
 30
0.0
  0
VERTEX
  5
561
330
55F
100
AcDbEntity
  8
Layer 1
 62
     7
370
    25
100
AcDbVertex
100
AcDb2dVertex
 10
835.972056540139
 20
1224.780365362208
 30
0.0
  0
SEQEND
  5
562
330
55F
100
AcDbEntity
  8
Layer 1
370
    25
  0
POLYLINE
  5
563
330
3C
100
AcDbEntity
  8
Layer 1
370
     0
100
AcDb2dPolyline
 66
     1
 10
0.0
 20
0.0
 30
0.0
  0
VERTEX
  5
564
330
563
100
AcDbEntity
  8
Layer 1
370
     0
100
AcDbVertex
100
AcDb2dVertex
 10
208.1075384679384
 20
1170.209708366302
 30
0.0
  0
VERTEX
  5
565
330
563
100
AcDbEntity
  8
Layer 1
370
     0
100
AcDbVertex
100
AcDb2dVertex
 10
178.1074747276085
 20
1165.210013543333
 30
0.0
  0
VERTEX
  5
566
330
563
100
AcDbEntity
  8
Layer 1
370
     0
100
AcDbVertex
100
AcDb2dVertex
 10
178.1074747276085
 20
1175.209919953593
 30
0.0
  0
SEQEND
  5
567
330
563
100
AcDbEntity
  8
Layer 1
370
     0
  0
HATCH
  5
568
330
3C
100
AcDbEntity
  8
Layer 1
 62
     7
100
AcDbHatch
 10
0.0
 20
0.0
 30
0.0
210
0.0
220
0.0
230
1.0
  2
SOLID
 70
     1
 71
     0
 91
        1
 92
        1
 93
        3
 72
     1
 10
208.1075384679384
 20
1170.209708366302
 11
178.1074747276085
 21
1165.210013543333
 72
     1
 10
178.1074747276085
 20
1165.210013543333
 11
178.1074747276085
 21
1175.209919953593
 72
     1
 10
178.1074747276085
 20
1175.209919953593
 11
208.1075384679384
 21
1170.209708366302
 97
        0
 75
     2
 76
     1
 98
        0
  0
POLYLINE
  5
569
330
3C
100
AcDbEntity
  8
Layer 1
370
     0
100
AcDb2dPolyline
 66
     1
 10
0.0
 20
0.0
 30
0.0
  0
VERTEX
  5
56A
330
569
100
AcDbEntity
  8
Layer 1
370
     0
100
AcDbVertex
100
AcDb2dVertex
 10
233.1073906209766
 20
1170.209708366302
 30
0.0
  0
VERTEX
  5
56B
330
569
100
AcDbEntity
  8
Layer 1
370
     0
100
AcDbVertex
100
AcDb2dVertex
 10
263.1074543613065
 20
1175.209919953593
 30
0.0
  0
VERTEX
  5
56C
330
569
100
AcDbEntity
  8
Layer 1
370
     0
100
AcDbVertex
100
AcDb2dVertex
 10
263.1074543613065
 20
1165.210013543333
 30
0.0
  0
SEQEND
  5
56D
330
569
100
AcDbEntity
  8
Layer 1
370
     0
  0
HATCH
  5
56E
330
3C
100
AcDbEntity
  8
Layer 1
 62
     7
100
AcDbHatch
 10
0.0
 20
0.0
 30
0.0
210
0.0
220
0.0
230
1.0
  2
SOLID
 70
     1
 71
     0
 91
        1
 92
        1
 93
        3
 72
     1
 10
233.1073906209766
 20
1170.209708366302
 11
263.1074543613065
 21
1175.209919953593
 72
     1
 10
263.1074543613065
 20
1175.209919953593
 11
263.1074543613065
 21
1165.210013543333
 72
     1
 10
263.1074543613065
 20
1165.210013543333
 11
233.1073906209766
 21
1170.209708366302
 97
        0
 75
     2
 76
     1
 98
        0
  0
POLYLINE
  5
56F
330
3C
100
AcDbEntity
  8
Layer 1
 62
     7
370
    25
100
AcDb2dPolyline
 66
     1
 10
0.0
 20
0.0
 30
0.0
  0
VERTEX
  5
570
330
56F
100
AcDbEntity
  8
Layer 1
 62
     7
370
    25
100
AcDbVertex
100
AcDb2dVertex
 10
208.1075384679384
 20
1114.698195793374
 30
0.0
  0
VERTEX
  5
571
330
56F
100
AcDbEntity
  8
Layer 1
 62
     7
370
    25
100
AcDbVertex
100
AcDb2dVertex
 10
208.1075384679384
 20
1180.209959286111
 30
0.0
  0
SEQEND
  5
572
330
56F
100
AcDbEntity
  8
Layer 1
370
    25
  0
POLYLINE
  5
573
330
3C
100
AcDbEntity
  8
Layer 1
 62
     7
370
    25
100
AcDb2dPolyline
 66
     1
 10
0.0
 20
0.0
 30
0.0
  0
VERTEX
  5
574
330
573
100
AcDbEntity
  8
Layer 1
 62
     7
370
    25
100
AcDbVertex
100
AcDb2dVertex
 10
233.1073906209766
 20
1124.50879420672
 30
0.0
  0
VERTEX
  5
575
330
573
100
AcDbEntity
  8
Layer 1
 62
     7
370
    25
100
AcDbVertex
100
AcDb2dVertex
 10
233.1073906209766
 20
1180.209959286111
 30
0.0
  0
SEQEND
  5
576
330
573
100
AcDbEntity
  8
Layer 1
370
    25
  0
POLYLINE
  5
577
330
3C
100
AcDbEntity
  8
Layer 1
 62
     7
370
    25
100
AcDb2dPolyline
 66
     1
 10
0.0
 20
0.0
 30
0.0
  0
VERTEX
  5
578
330
577
100
AcDbEntity
  8
Layer 1
 62
     7
370
    25
100
AcDbVertex
100
AcDb2dVertex
 10
208.1075384679384
 20
1170.209708366302
 30
0.0
  0
VERTEX
  5
579
330
577
100
AcDbEntity
  8
Layer 1
 62
     7
370
    25
100
AcDbVertex
100
AcDb2dVertex
 10
89.88943140113875
 20
1170.209708366302
 30
0.0
  0
SEQEND
  5
57A
330
577
100
AcDbEntity
  8
Layer 1
370
    25
  0
POLYLINE
  5
57B
330
3C
100
AcDbEntity
  8
Layer 1
 62
     7
370
    25
100
AcDb2dPolyline
 66
     1
 10
0.0
 20
0.0
 30
0.0
  0
VERTEX
  5
57C
330
57B
100
AcDbEntity
  8
Layer 1
 62
     7
370
    25
100
AcDbVertex
100
AcDb2dVertex
 10
208.1075384679384
 20
1170.209708366302
 30
0.0
  0
VERTEX
  5
57D
330
57B
100
AcDbEntity
  8
Layer 1
 62
     7
370
    25
100
AcDbVertex
100
AcDb2dVertex
 10
233.1073906209766
 20
1170.209708366302
 30
0.0
  0
SEQEND
  5
57E
330
57B
100
AcDbEntity
  8
Layer 1
370
    25
  0
POLYLINE
  5
57F
330
3C
100
AcDbEntity
  8
Layer 1
 62
     7
370
    25
100
AcDb2dPolyline
 66
     1
 10
0.0
 20
0.0
 30
0.0
  0
VERTEX
  5
580
330
57F
100
AcDbEntity
  8
Layer 1
 62
     7
370
    25
100
AcDbVertex
100
AcDb2dVertex
 10
233.1073906209766
 20
1170.209708366302
 30
0.0
  0
VERTEX
  5
581
330
57F
100
AcDbEntity
  8
Layer 1
 62
     7
370
    25
100
AcDbVertex
100
AcDb2dVertex
 10
293.1073458468621
 20
1170.209708366302
 30
0.0
  0
SEQEND
  5
582
330
57F
100
AcDbEntity
  8
Layer 1
370
    25
  0
POLYLINE
  5
583
330
3C
100
AcDbEntity
  8
Layer 1
 62
     7
370
    25
100
AcDb2dPolyline
 66
     1
 10
0.0
 20
0.0
 30
0.0
  0
VERTEX
  5
584
330
583
100
AcDbEntity
  8
Layer 1
 62
     7
370
    25
100
AcDbVertex
100
AcDb2dVertex
 10
89.88943140113875
 20
1217.72498206319
 30
0.0
  0
VERTEX
  5
585
330
583
100
AcDbEntity
  8
Layer 1
 62
     7
370
    25
100
AcDbVertex
100
AcDb2dVertex
 10
95.1810980664825
 20
1224.780365362208
 30
0.0
  0
SEQEND
  5
586
330
583
100
AcDbEntity
  8
Layer 1
370
    25
  0
POLYLINE
  5
587
330
3C
100
AcDbEntity
  8
Layer 1
 62
     7
370
    25
100
AcDb2dPolyline
 66
     1
 10
0.0
 20
0.0
 30
0.0
  0
VERTEX
  5
588
330
587
100
AcDbEntity
  8
Layer 1
 62
     7
370
    25
100
AcDbVertex
100
AcDb2dVertex
 10
95.1810980664825
 20
1224.780365362208
 30
0.0
  0
VERTEX
  5
589
330
587
100
AcDbEntity
  8
Layer 1
 62
     7
370
    25
100
AcDbVertex
100
AcDb2dVertex
 10
105.7640868876215
 20
1224.780365362208
 30
0.0
  0
SEQEND
  5
58A
330
587
100
AcDbEntity
  8
Layer 1
370
    25
  0
POLYLINE
  5
58B
330
3C
100
AcDbEntity
  8
Layer 1
 62
     7
370
    25
100
AcDb2dPolyline
 66
     1
 10
0.0
 20
0.0
 30
0.0
  0
VERTEX
  5
58C
330
58B
100
AcDbEntity
  8
Layer 1
 62
     7
370
    25
100
AcDbVertex
100
AcDb2dVertex
 10
105.7640868876215
 20
1224.780365362208
 30
0.0
  0
VERTEX
  5
58D
330
58B
100
AcDbEntity
  8
Layer 1
 62
     7
370
    25
100
AcDbVertex
100
AcDb2dVertex
 10
111.0559258077395
 20
1217.72498206319
 30
0.0
  0
SEQEND
  5
58E
330
58B
100
AcDbEntity
  8
Layer 1
370
    25
  0
POLYLINE
  5
58F
330
3C
100
AcDbEntity
  8
Layer 1
 62
     7
370
    25
100
AcDb2dPolyline
 66
     1
 10
0.0
 20
0.0
 30
0.0
  0
VERTEX
  5
590
330
58F
100
AcDbEntity
  8
Layer 1
 62
     7
370
    25
100
AcDbVertex
100
AcDb2dVertex
 10
111.0559258077395
 20
1217.72498206319
 30
0.0
  0
VERTEX
  5
591
330
58F
100
AcDbEntity
  8
Layer 1
 62
     7
370
    25
100
AcDbVertex
100
AcDb2dVertex
 10
111.0559258077395
 20
1210.669254254624
 30
0.0
  0
SEQEND
  5
592
330
58F
100
AcDbEntity
  8
Layer 1
370
    25
  0
POLYLINE
  5
593
330
3C
100
AcDbEntity
  8
Layer 1
 62
     7
370
    25
100
AcDb2dPolyline
 66
     1
 10
0.0
 20
0.0
 30
0.0
  0
VERTEX
  5
594
330
593
100
AcDbEntity
  8
Layer 1
 62
     7
370
    25
100
AcDbVertex
100
AcDb2dVertex
 10
111.0559258077395
 20
1210.669254254624
 30
0.0
  0
VERTEX
  5
595
330
593
100
AcDbEntity
  8
Layer 1
 62
     7
370
    25
100
AcDbVertex
100
AcDb2dVertex
 10
105.7640868876215
 20
1203.613870955607
 30
0.0
  0
SEQEND
  5
596
330
593
100
AcDbEntity
  8
Layer 1
370
    25
  0
POLYLINE
  5
597
330
3C
100
AcDbEntity
  8
Layer 1
 62
     7
370
    25
100
AcDb2dPolyline
 66
     1
 10
0.0
 20
0.0
 30
0.0
  0
VERTEX
  5
598
330
597
100
AcDbEntity
  8
Layer 1
 62
     7
370
    25
100
AcDbVertex
100
AcDb2dVertex
 10
105.7640868876215
 20
1203.613870955607
 30
0.0
  0
VERTEX
  5
599
330
597
100
AcDbEntity
  8
Layer 1
 62
     7
370
    25
100
AcDbVertex
100
AcDb2dVertex
 10
95.1810980664825
 20
1203.613870955607
 30
0.0
  0
SEQEND
  5
59A
330
597
100
AcDbEntity
  8
Layer 1
370
    25
  0
POLYLINE
  5
59B
330
3C
100
AcDbEntity
  8
Layer 1
 62
     7
370
    25
100
AcDb2dPolyline
 66
     1
 10
0.0
 20
0.0
 30
0.0
  0
VERTEX
  5
59C
330
59B
100
AcDbEntity
  8
Layer 1
 62
     7
370
    25
100
AcDbVertex
100
AcDb2dVertex
 10
95.1810980664825
 20
1203.613870955607
 30
0.0
  0
VERTEX
  5
59D
330
59B
100
AcDbEntity
  8
Layer 1
 62
     7
370
    25
100
AcDbVertex
100
AcDb2dVertex
 10
89.88943140113875
 20
1196.558143147041
 30
0.0
  0
SEQEND
  5
59E
330
59B
100
AcDbEntity
  8
Layer 1
370
    25
  0
POLYLINE
  5
59F
330
3C
100
AcDbEntity
  8
Layer 1
 62
     7
370
    25
100
AcDb2dPolyline
 66
     1
 10
0.0
 20
0.0
 30
0.0
  0
VERTEX
  5
5A0
330
59F
100
AcDbEntity
  8
Layer 1
 62
     7
370
    25
100
AcDbVertex
100
AcDb2dVertex
 10
89.88943140113875
 20
1196.558143147041
 30
0.0
  0
VERTEX
  5
5A1
330
59F
100
AcDbEntity
  8
Layer 1
 62
     7
370
    25
100
AcDbVertex
100
AcDb2dVertex
 10
89.88943140113875
 20
1182.447032039458
 30
0.0
  0
SEQEND
  5
5A2
330
59F
100
AcDbEntity
  8
Layer 1
370
    25
  0
POLYLINE
  5
5A3
330
3C
100
AcDbEntity
  8
Layer 1
 62
     7
370
    25
100
AcDb2dPolyline
 66
     1
 10
0.0
 20
0.0
 30
0.0
  0
VERTEX
  5
5A4
330
5A3
100
AcDbEntity
  8
Layer 1
 62
     7
370
    25
100
AcDbVertex
100
AcDb2dVertex
 10
89.88943140113875
 20
1182.447032039458
 30
0.0
  0
VERTEX
  5
5A5
330
5A3
100
AcDbEntity
  8
Layer 1
 62
     7
370
    25
100
AcDbVertex
100
AcDb2dVertex
 10
111.0559258077395
 20
1182.447032039458
 30
0.0
  0
SEQEND
  5
5A6
330
5A3
100
AcDbEntity
  8
Layer 1
370
    25
  0
POLYLINE
  5
5A7
330
3C
100
AcDbEntity
  8
Layer 1
 62
     7
370
    25
100
AcDb2dPolyline
 66
     1
 10
0.0
 20
0.0
 30
0.0
  0
VERTEX
  5
5A8
330
5A7
100
AcDbEntity
  8
Layer 1
 62
     7
370
    25
100
AcDbVertex
100
AcDb2dVertex
 10
121.639259138427
 20
1189.502759848024
 30
0.0
  0
VERTEX
  5
5A9
330
5A7
100
AcDbEntity
  8
Layer 1
 62
     7
370
    25
100
AcDbVertex
100
AcDb2dVertex
 10
126.931098058545
 20
1182.447032039458
 30
0.0
  0
SEQEND
  5
5AA
330
5A7
100
AcDbEntity
  8
Layer 1
370
    25
  0
POLYLINE
  5
5AB
330
3C
100
AcDbEntity
  8
Layer 1
 62
     7
370
    25
100
AcDb2dPolyline
 66
     1
 10
0.0
 20
0.0
 30
0.0
  0
VERTEX
  5
5AC
330
5AB
100
AcDbEntity
  8
Layer 1
 62
     7
370
    25
100
AcDbVertex
100
AcDb2dVertex
 10
126.931098058545
 20
1182.447032039458
 30
0.0
  0
VERTEX
  5
5AD
330
5AB
100
AcDbEntity
  8
Layer 1
 62
     7
370
    25
100
AcDbVertex
100
AcDb2dVertex
 10
137.5144313892325
 20
1182.447032039458
 30
0.0
  0
SEQEND
  5
5AE
330
5AB
100
AcDbEntity
  8
Layer 1
370
    25
  0
POLYLINE
  5
5AF
330
3C
100
AcDbEntity
  8
Layer 1
 62
     7
370
    25
100
AcDb2dPolyline
 66
     1
 10
0.0
 20
0.0
 30
0.0
  0
VERTEX
  5
5B0
330
5AF
100
AcDbEntity
  8
Layer 1
 62
     7
370
    25
100
AcDbVertex
100
AcDb2dVertex
 10
137.5144313892325
 20
1182.447032039458
 30
0.0
  0
VERTEX
  5
5B1
330
5AF
100
AcDbEntity
  8
Layer 1
 62
     7
370
    25
100
AcDbVertex
100
AcDb2dVertex
 10
142.8060980545763
 20
1189.502759848024
 30
0.0
  0
SEQEND
  5
5B2
330
5AF
100
AcDbEntity
  8
Layer 1
370
    25
  0
POLYLINE
  5
5B3
330
3C
100
AcDbEntity
  8
Layer 1
 62
     7
370
    25
100
AcDb2dPolyline
 66
     1
 10
0.0
 20
0.0
 30
0.0
  0
VERTEX
  5
5B4
330
5B3
100
AcDbEntity
  8
Layer 1
 62
     7
370
    25
100
AcDbVertex
100
AcDb2dVertex
 10
142.8060980545763
 20
1189.502759848024
 30
0.0
  0
VERTEX
  5
5B5
330
5B3
100
AcDbEntity
  8
Layer 1
 62
     7
370
    25
100
AcDbVertex
100
AcDb2dVertex
 10
142.8060980545763
 20
1203.613870955607
 30
0.0
  0
SEQEND
  5
5B6
330
5B3
100
AcDbEntity
  8
Layer 1
370
    25
  0
POLYLINE
  5
5B7
330
3C
100
AcDbEntity
  8
Layer 1
 62
     7
370
    25
100
AcDb2dPolyline
 66
     1
 10
0.0
 20
0.0
 30
0.0
  0
VERTEX
  5
5B8
330
5B7
100
AcDbEntity
  8
Layer 1
 62
     7
370
    25
100
AcDbVertex
100
AcDb2dVertex
 10
142.8060980545763
 20
1203.613870955607
 30
0.0
  0
VERTEX
  5
5B9
330
5B7
100
AcDbEntity
  8
Layer 1
 62
     7
370
    25
100
AcDbVertex
100
AcDb2dVertex
 10
137.5144313892325
 20
1210.669254254624
 30
0.0
  0
SEQEND
  5
5BA
330
5B7
100
AcDbEntity
  8
Layer 1
370
    25
  0
POLYLINE
  5
5BB
330
3C
100
AcDbEntity
  8
Layer 1
 62
     7
370
    25
100
AcDb2dPolyline
 66
     1
 10
0.0
 20
0.0
 30
0.0
  0
VERTEX
  5
5BC
330
5BB
100
AcDbEntity
  8
Layer 1
 62
     7
370
    25
100
AcDbVertex
100
AcDb2dVertex
 10
137.5144313892325
 20
1210.669254254624
 30
0.0
  0
VERTEX
  5
5BD
330
5BB
100
AcDbEntity
  8
Layer 1
 62
     7
370
    25
100
AcDbVertex
100
AcDb2dVertex
 10
121.639259138427
 20
1210.669254254624
 30
0.0
  0
SEQEND
  5
5BE
330
5BB
100
AcDbEntity
  8
Layer 1
370
    25
  0
POLYLINE
  5
5BF
330
3C
100
AcDbEntity
  8
Layer 1
 62
     7
370
    25
100
AcDb2dPolyline
 66
     1
 10
0.0
 20
0.0
 30
0.0
  0
VERTEX
  5
5C0
330
5BF
100
AcDbEntity
  8
Layer 1
 62
     7
370
    25
100
AcDbVertex
100
AcDb2dVertex
 10
121.639259138427
 20
1210.669254254624
 30
0.0
  0
VERTEX
  5
5C1
330
5BF
100
AcDbEntity
  8
Layer 1
 62
     7
370
    25
100
AcDbVertex
100
AcDb2dVertex
 10
121.639259138427
 20
1224.780365362208
 30
0.0
  0
SEQEND
  5
5C2
330
5BF
100
AcDbEntity
  8
Layer 1
370
    25
  0
POLYLINE
  5
5C3
330
3C
100
AcDbEntity
  8
Layer 1
 62
     7
370
    25
100
AcDb2dPolyline
 66
     1
 10
0.0
 20
0.0
 30
0.0
  0
VERTEX
  5
5C4
330
5C3
100
AcDbEntity
  8
Layer 1
 62
     7
370
    25
100
AcDbVertex
100
AcDb2dVertex
 10
121.639259138427
 20
1224.780365362208
 30
0.0
  0
VERTEX
  5
5C5
330
5C3
100
AcDbEntity
  8
Layer 1
 62
     7
370
    25
100
AcDbVertex
100
AcDb2dVertex
 10
142.8060980545763
 20
1224.780365362208
 30
0.0
  0
SEQEND
  5
5C6
330
5C3
100
AcDbEntity
  8
Layer 1
370
    25
  0
ENDBLK
  5
3F
330
3C
100
AcDbEntity
  8
0
100
AcDbBlockEnd
  0
BLOCK
  5
5CA
330
5C8
100
AcDbEntity
  8
0
100
AcDbBlockBegin
  2
block 3
 70
     0
 71
     0
 10
0.0
 20
0.0
 30
0.0
  3
block 3
  1

  0
SPLINE
  5
5CC
330
5C8
100
AcDbEntity
  8
Layer 1
370
     0
100
AcDbSpline
210
0.0
220
0.0
230
1.0
 70
    11
 71
     3
 72
    38
 73
    34
 74
     0
 42
0.0000000001
 43
0.0000000001
 40
0.0
 40
0.0
 40
0.0
 40
0.0
 40
1.0
 40
1.0
 40
1.0
 40
2.0
 40
2.0
 40
2.0
 40
3.0
 40
3.0
 40
3.0
 40
4.0
 40
4.0
 40
4.0
 40
5.0
 40
5.0
 40
5.0
 40
6.0
 40
6.0
 40
6.0
 40
7.0
 40
7.0
 40
7.0
 40
8.0
 40
8.0
 40
8.0
 40
9.0
 40
9.0
 40
9.0
 40
10.0
 40
10.0
 40
10.0
 40
11.0
 40
11.0
 40
11.0
 40
11.0
 10
1113.718755146918
 20
71.77753090653479
 30
0.0
 10
1113.718755146918
 20
71.77753090653479
 30
0.0
 10
1113.68774928755
 20
71.91223414000805
 30
0.0
 10
1113.68774928755
 20
71.91223414000805
 30
0.0
 10
1114.081179191966
 20
72.65120712159414
 30
0.0
 10
1114.717143818543
 20
72.99123804598831
 30
0.0
 10
1115.523296162091
 20
72.52890623186778
 30
0.0
 10
1116.230229755665
 20
72.16958277275621
 30
0.0
 10
1117.405696335232
 20
72.95747611023286
 30
0.0
 10
1118.145702845464
 20
73.1345540181747
 30
0.0
 10
1120.832188304861
 20
74.145345033547
 30
0.0
 10
1123.659233660057
 20
74.84228785021304
 30
0.0
 10
1126.378103017017
 20
75.80794811472857
 30
0.0
 10
1126.378103017017
 20
75.80794811472857
 30
0.0
 10
1126.542778581212
 20
75.85445690377945
 30
0.0
 10
1126.737770985677
 20
75.85514592287649
 30
0.0
 10
1127.481911610491
 20
75.86065807565289
 30
0.0
 10
1128.013145334316
 20
75.1836968128013
 30
0.0
 10
1127.364089344895
 20
74.55600041538878
 30
0.0
 10
1126.673003190554
 20
73.88834091034737
 30
0.0
 10
1124.740993642426
 20
73.2199923862089
 30
0.0
 10
1123.848713911746
 20
72.79004446964971
 30
0.0
 10
1123.848713911746
 20
72.79004446964971
 30
0.0
 10
1117.486311569587
 20
70.346438241962
 30
0.0
 10
1116.937163349238
 20
70.09942489566959
 30
0.0
 10
1116.830365389195
 20
70.05222708752167
 30
0.0
 10
1116.740792906579
 20
69.99572752156357
 30
0.0
 10
1116.654665519447
 20
69.93233776463498
 30
0.0
 10
1116.654665519447
 20
69.93233776463498
 30
0.0
 10
1116.385948071598
 20
69.72873262145671
 30
0.0
 10
1116.385948071598
 20
69.72873262145671
 30
0.0
 10
1115.127110181288
 20
68.82301701838453
 30
0.0
 10
1113.935796162488
 20
70.7987792791753
 30
0.0
 10
1113.718755146918
 20
71.77753090653479
 30
0.0
  0
HATCH
  5
5CD
330
5C8
100
AcDbEntity
  8
Layer 1
 62
   254
100
AcDbHatch
 10
0.0
 20
0.0
 30
0.0
210
0.0
220
0.0
230
1.0
  2
SOLID
 70
     1
 71
     0
 91
        1
 92
        1
 93
        2
 72
     4
 94
        3
 73
     0
 74
     0
 95
       38
 96
       34
 40
0.0
 40
0.0
 40
0.0
 40
0.0
 40
0.3527777776895833
 40
0.3527777776895833
 40
0.3527777776895833
 40
0.7055555553791667
 40
0.7055555553791667
 40
0.7055555553791667
 40
1.05833333306875
 40
1.05833333306875
 40
1.05833333306875
 40
1.411111110758333
 40
1.411111110758333
 40
1.411111110758333
 40
1.763888888447917
 40
1.763888888447917
 40
1.763888888447917
 40
2.1166666661375
 40
2.1166666661375
 40
2.1166666661375
 40
2.469444443827083
 40
2.469444443827083
 40
2.469444443827083
 40
2.822222221516667
 40
2.822222221516667
 40
2.822222221516667
 40
3.17499999920625
 40
3.17499999920625
 40
3.17499999920625
 40
3.527777776895833
 40
3.527777776895833
 40
3.527777776895833
 40
3.880555554585417
 40
3.880555554585417
 40
3.880555554585417
 40
3.880555554585417
 10
1113.718755146918
 20
71.77753090653479
 10
1113.718755146918
 20
71.77753090653479
 10
1113.68774928755
 20
71.91223414000805
 10
1113.68774928755
 20
71.91223414000805
 10
1114.081179191966
 20
72.65120712159414
 10
1114.717143818543
 20
72.99123804598831
 10
1115.523296162091
 20
72.52890623186778
 10
1116.230229755665
 20
72.16958277275621
 10
1117.405696335232
 20
72.95747611023286
 10
1118.145702845464
 20
73.1345540181747
 10
1120.832188304861
 20
74.145345033547
 10
1123.659233660057
 20
74.84228785021304
 10
1126.378103017017
 20
75.80794811472857
 10
1126.378103017017
 20
75.80794811472857
 10
1126.542778581212
 20
75.85445690377945
 10
1126.737770985677
 20
75.85514592287649
 10
1127.481911610491
 20
75.86065807565289
 10
1128.013145334316
 20
75.1836968128013
 10
1127.364089344895
 20
74.55600041538878
 10
1126.673003190554
 20
73.88834091034737
 10
1124.740993642426
 20
73.2199923862089
 10
1123.848713911746
 20
72.79004446964971
 10
1123.848713911746
 20
72.79004446964971
 10
1117.486311569587
 20
70.346438241962
 10
1116.937163349238
 20
70.09942489566959
 10
1116.830365389195
 20
70.05222708752167
 10
1116.740792906579
 20
69.99572752156357
 10
1116.654665519447
 20
69.93233776463498
 10
1116.654665519447
 20
69.93233776463498
 10
1116.385948071598
 20
69.72873262145671
 10
1116.385948071598
 20
69.72873262145671
 10
1115.127110181288
 20
68.82301701838453
 10
1113.935796162488
 20
70.7987792791753
 10
1113.718755146918
 20
71.77753090653479
 72
     1
 10
1113.718755146918
 20
71.77753090653479
 11
1113.718755146918
 21
71.77753090653479
 97
        0
 75
     2
 76
     1
 98
        0
  0
SPLINE
  5
5CE
330
5C8
100
AcDbEntity
  8
Layer 1
370
     0
100
AcDbSpline
210
0.0
220
0.0
230
1.0
 70
    11
 71
     3
 72
    14
 73
    10
 74
     0
 42
0.0000000001
 43
0.0000000001
 40
0.0
 40
0.0
 40
0.0
 40
0.0
 40
1.0
 40
1.0
 40
1.0
 40
2.0
 40
2.0
 40
2.0
 40
3.0
 40
3.0
 40
3.0
 40
3.0
 10
1087.203233235144
 20
77.2976074025506
 30
0.0
 10
1086.987570257767
 20
74.36514212550594
 30
0.0
 10
1085.783853895221
 20
72.42451983866471
 30
0.0
 10
1084.348627116066
 20
70.00261771253408
 30
0.0
 10
1084.366541612589
 20
73.04429251646116
 30
0.0
 10
1084.779953070819
 20
75.76591794980853
 30
0.0
 10
1086.648572862018
 20
77.7389241342111
 30
0.0
 10
1086.888351507792
 20
78.06586369576131
 30
0.0
 10
1087.263866915684
 20
78.00901962025469
 30
0.0
 10
1087.203233235144
 20
77.2976074025506
 30
0.0
  0
SPLINE
  5
5CF
330
5C8
100
AcDbEntity
  8
Layer 1
370
     0
100
AcDbSpline
210
0.0
220
0.0
230
1.0
 70
    11
 71
     3
 72
    14
 73
    10
 74
     0
 42
0.0000000001
 43
0.0000000001
 40
0.0
 40
0.0
 40
0.0
 40
0.0
 40
1.0
 40
1.0
 40
1.0
 40
2.0
 40
2.0
 40
2.0
 40
3.0
 40
3.0
 40
3.0
 40
3.0
 10
1116.435557446586
 20
65.04409178061398
 30
0.0
 10
1116.425911179227
 20
64.79776745341861
 30
0.0
 10
1115.83886690854
 20
64.14905597354607
 30
0.0
 10
1114.782600632763
 20
63.9661214032793
 30
0.0
 10
1114.589675285589
 20
65.20773381616334
 30
0.0
 10
1115.189121900022
 20
65.93292641580844
 30
0.0
 10
1115.776166170709
 20
65.93292641580844
 30
0.0
 10
1116.261924634129
 20
65.93292641580844
 30
0.0
 10
1116.462429191371
 20
65.75068086463872
 30
0.0
 10
1116.435557446586
 20
65.04409178061398
 30
0.0
  0
SPLINE
  5
5D0
330
5C8
100
AcDbEntity
  8
Layer 1
370
     0
100
AcDbSpline
210
0.0
220
0.0
230
1.0
 70
    11
 71
     3
 72
   200
 73
   196
 74
     0
 42
0.0000000001
 43
0.0000000001
 40
0.0
 40
0.0
 40
0.0
 40
0.0
 40
1.0
 40
1.0
 40
1.0
 40
2.0
 40
2.0
 40
2.0
 40
3.0
 40
3.0
 40
3.0
 40
4.0
 40
4.0
 40
4.0
 40
5.0
 40
5.0
 40
5.0
 40
6.0
 40
6.0
 40
6.0
 40
7.0
 40
7.0
 40
7.0
 40
8.0
 40
8.0
 40
8.0
 40
9.0
 40
9.0
 40
9.0
 40
10.0
 40
10.0
 40
10.0
 40
11.0
 40
11.0
 40
11.0
 40
12.0
 40
12.0
 40
12.0
 40
13.0
 40
13.0
 40
13.0
 40
14.0
 40
14.0
 40
14.0
 40
15.0
 40
15.0
 40
15.0
 40
16.0
 40
16.0
 40
16.0
 40
17.0
 40
17.0
 40
17.0
 40
18.0
 40
18.0
 40
18.0
 40
19.0
 40
19.0
 40
19.0
 40
20.0
 40
20.0
 40
20.0
 40
21.0
 40
21.0
 40
21.0
 40
22.0
 40
22.0
 40
22.0
 40
23.0
 40
23.0
 40
23.0
 40
24.0
 40
24.0
 40
24.0
 40
25.0
 40
25.0
 40
25.0
 40
26.0
 40
26.0
 40
26.0
 40
27.0
 40
27.0
 40
27.0
 40
28.0
 40
28.0
 40
28.0
 40
29.0
 40
29.0
 40
29.0
 40
30.0
 40
30.0
 40
30.0
 40
31.0
 40
31.0
 40
31.0
 40
32.0
 40
32.0
 40
32.0
 40
33.0
 40
33.0
 40
33.0
 40
34.0
 40
34.0
 40
34.0
 40
35.0
 40
35.0
 40
35.0
 40
36.0
 40
36.0
 40
36.0
 40
37.0
 40
37.0
 40
37.0
 40
38.0
 40
38.0
 40
38.0
 40
39.0
 40
39.0
 40
39.0
 40
40.0
 40
40.0
 40
40.0
 40
41.0
 40
41.0
 40
41.0
 40
42.0
 40
42.0
 40
42.0
 40
43.0
 40
43.0
 40
43.0
 40
44.0
 40
44.0
 40
44.0
 40
45.0
 40
45.0
 40
45.0
 40
46.0
 40
46.0
 40
46.0
 40
47.0
 40
47.0
 40
47.0
 40
48.0
 40
48.0
 40
48.0
 40
49.0
 40
49.0
 40
49.0
 40
50.0
 40
50.0
 40
50.0
 40
51.0
 40
51.0
 40
51.0
 40
52.0
 40
52.0
 40
52.0
 40
53.0
 40
53.0
 40
53.0
 40
54.0
 40
54.0
 40
54.0
 40
55.0
 40
55.0
 40
55.0
 40
56.0
 40
56.0
 40
56.0
 40
57.0
 40
57.0
 40
57.0
 40
58.0
 40
58.0
 40
58.0
 40
59.0
 40
59.0
 40
59.0
 40
60.0
 40
60.0
 40
60.0
 40
61.0
 40
61.0
 40
61.0
 40
62.0
 40
62.0
 40
62.0
 40
63.0
 40
63.0
 40
63.0
 40
64.0
 40
64.0
 40
64.0
 40
65.0
 40
65.0
 40
65.0
 40
65.0
 10
1124.232497548803
 20
62.45923663803103
 30
0.0
 10
1124.232497548803
 20
62.45923663803103
 30
0.0
 10
1124.461251889024
 20
61.50425616951977
 30
0.0
 10
1124.461251889024
 20
61.50425616951977
 30
0.0
 10
1124.587342383784
 20
61.00885143874085
 30
0.0
 10
1124.732725413261
 20
60.54858668191147
 30
0.0
 10
1124.97594915452
 20
60.09555662560111
 30
0.0
 10
1126.519351931912
 20
58.03022188219384
 30
0.0
 10
1130.459163128844
 20
58.2668999420305
 30
0.0
 10
1132.4779890832
 20
58.8928737917004
 30
0.0
 10
1133.596267077712
 20
59.24048392616211
 30
0.0
 10
1134.670447850013
 20
59.81478134355325
 30
0.0
 10
1135.6777937699
 20
60.41353893888967
 30
0.0
 10
1138.245767944605
 20
58.72544215111726
 30
0.0
 10
1141.488980834419
 20
58.20316567555338
 30
0.0
 10
1144.738394896107
 20
58.19041882225795
 30
0.0
 10
1148.059466943888
 20
58.17801647851105
 30
0.0
 10
1151.450129920471
 20
58.70063746362345
 30
0.0
 10
1154.237212168038
 20
59.10646971178588
 30
0.0
 10
1157.201372323547
 20
59.29663898257168
 30
0.0
 10
1159.564707826428
 20
60.69431422093754
 30
0.0
 10
1162.683208259677
 20
60.02355412995939
 30
0.0
 10
1163.355690898397
 20
60.24817435559768
 30
0.0
 10
1163.885546584029
 20
60.59130586592857
 30
0.0
 10
1163.835937209041
 20
61.4274305401987
 30
0.0
 10
1163.534146844533
 20
62.16743705043037
 30
0.0
 10
1163.115912252624
 20
62.68454588276636
 30
0.0
 10
1162.244303094856
 20
62.75379230201989
 30
0.0
 10
1160.773936341751
 20
62.12127277092802
 30
0.0
 10
1159.114089336958
 20
62.30868596532561
 30
0.0
 10
1157.57895478873
 20
61.93179251923927
 30
0.0
 10
1153.677039642136
 20
61.02228731113332
 30
0.0
 10
1149.522943506022
 20
60.66537541886144
 30
0.0
 10
1145.107709132126
 20
60.4262857921851
 30
0.0
 10
1142.370236259546
 20
60.44936793193627
 30
0.0
 10
1138.909982354161
 20
60.49174260640484
 30
0.0
 10
1137.001399455333
 20
62.79892305287666
 30
0.0
 10
1136.790559611636
 20
63.49414332180008
 30
0.0
 10
1137.361067423993
 20
64.41708440229851
 30
0.0
 10
1137.133691121967
 20
65.40548229701669
 30
0.0
 10
1136.777468248792
 20
66.0951904131637
 30
0.0
 10
1136.193869073591
 20
66.55166556495931
 30
0.0
 10
1135.345686565122
 20
66.32773435841807
 30
0.0
 10
1134.182622329302
 20
65.48747556956563
 30
0.0
 10
1134.198469768534
 20
64.10082463675258
 30
0.0
 10
1134.302511652188
 20
62.84026419869966
 30
0.0
 10
1132.628195246357
 20
60.67639972441424
 30
0.0
 10
1128.774511436556
 20
59.77309568818173
 30
0.0
 10
1127.124310699122
 20
61.4508571894984
 30
0.0
 10
1127.03818331199
 20
61.74747991077841
 30
0.0
 10
1126.872818728699
 20
62.32970104778563
 30
0.0
 10
1127.040939388379
 20
62.75792641660219
 30
0.0
 10
1127.056097808514
 20
62.80960284888094
 30
0.0
 10
1127.071945247746
 20
62.86575790529051
 30
0.0
 10
1127.079524457813
 20
62.92949217176763
 30
0.0
 10
1127.165651844945
 20
63.57958168983427
 30
0.0
 10
1126.952055924859
 20
64.0667181914486
 30
0.0
 10
1126.357432444105
 20
64.27790254469441
 30
0.0
 10
1125.226752105846
 20
64.69303655066702
 30
0.0
 10
1125.29358695826
 20
65.20049911564432
 30
0.0
 10
1124.492946767488
 20
65.90708819966906
 30
0.0
 10
1123.669568946513
 20
66.66535371597256
 30
0.0
 10
1122.71045436342
 20
66.30017359453608
 30
0.0
 10
1122.138568512868
 20
65.54053004003848
 30
0.0
 10
1121.99800861707
 20
63.50654566554698
 30
0.0
 10
1120.561403799721
 20
61.83946396023458
 30
0.0
 10
1118.981483010185
 20
60.74426810547366
 30
0.0
 10
1117.972070033007
 20
60.39527993281785
 30
0.0
 10
1116.707030970823
 20
60.51069063157372
 30
0.0
 10
1115.88089707346
 20
61.07120766702387
 30
0.0
 10
1115.606667472834
 20
61.26068791871261
 30
0.0
 10
1115.510204799248
 20
61.4701497242158
 30
0.0
 10
1115.504692646471
 20
61.61794432053302
 30
0.0
 10
1116.822097160031
 20
61.9886365947459
 30
0.0
 10
1118.003075892374
 20
62.88436142091086
 30
0.0
 10
1118.677625588386
 20
64.1149495282421
 30
0.0
 10
1119.476198721867
 20
66.2577989200675
 30
0.0
 10
1117.927283791699
 20
68.54499781272486
 30
0.0
 10
1115.546722811391
 20
68.21289060794678
 30
0.0
 10
1113.35150796819
 20
67.90558809066249
 30
0.0
 10
1112.269058966725
 20
66.35598414139712
 30
0.0
 10
1112.373100850379
 20
63.68569063077997
 30
0.0
 10
1111.165939392347
 20
63.73598902486462
 30
0.0
 10
1110.084179409979
 20
64.13768715844475
 30
0.0
 10
1108.962456319982
 20
64.58899466701247
 30
0.0
 10
1108.0005856605
 20
64.97760143774866
 30
0.0
 10
1107.828330886237
 20
65.88056096443265
 30
0.0
 10
1106.427555061935
 20
65.61907821710217
 30
0.0
 10
1105.325813525752
 20
64.45394692399069
 30
0.0
 10
1106.098203933545
 20
63.68844670716817
 30
0.0
 10
1106.820295947253
 20
62.76826170305794
 30
0.0
 10
1107.543765999156
 20
61.85048826578738
 30
0.0
 10
1107.510693082497
 20
60.47382810988154
 30
0.0
 10
1106.364854324103
 20
59.82339408226638
 30
0.0
 10
1104.722232796736
 20
59.43409829243314
 30
0.0
 10
1103.348328717218
 20
60.87208114797642
 30
0.0
 10
1102.349251026496
 20
61.93799369111272
 30
0.0
 10
1102.36234238934
 20
62.57361380814132
 30
0.0
 10
1102.38094590496
 20
63.80730250140929
 30
0.0
 10
1102.217648378959
 20
64.35093856898172
 30
0.0
 10
1101.892431365152
 20
65.44200030916033
 30
0.0
 10
1101.18756482887
 20
66.37872177159977
 30
0.0
 10
1099.89358696461
 20
65.94636228820092
 30
0.0
 10
1099.08536756377
 20
64.87149249680296
 30
0.0
 10
1099.394737138346
 20
63.5840603139651
 30
0.0
 10
1099.837776417749
 20
62.48748642101008
 30
0.0
 10
1099.476041391798
 20
61.36438529281863
 30
0.0
 10
1098.941362572487
 20
60.26918943805771
 30
0.0
 10
1097.892675506777
 20
59.71246200764134
 30
0.0
 10
1096.673800724096
 20
59.42204045823477
 30
0.0
 10
1094.551621905181
 20
59.71349553628691
 30
0.0
 10
1093.67381157554
 20
61.8894178447707
 30
0.0
 10
1093.724109969625
 20
62.17846135598317
 30
0.0
 10
1093.857779674452
 20
63.0008056483123
 30
0.0
 10
1093.859157712646
 20
63.83899737987359
 30
0.0
 10
1093.86053575084
 20
64.35645072175811
 30
0.0
 10
1093.812304414047
 20
64.91627873811122
 30
0.0
 10
1093.645561792561
 20
65.37275388990682
 30
0.0
 10
1093.099858667697
 20
66.85586749630687
 30
0.0
 10
1090.87570502242
 20
66.84036456662325
 30
0.0
 10
1090.877083060614
 20
64.28961586934426
 30
0.0
 10
1090.877083060614
 20
63.67948945890652
 30
0.0
 10
1090.968033581425
 20
63.06764050072615
 30
0.0
 10
1091.110660534514
 20
62.47646211545727
 30
0.0
 10
1090.225960013902
 20
60.65917424698799
 30
0.0
 10
1088.404882540399
 20
60.29433863510003
 30
0.0
 10
1087.126063096274
 20
60.53894041455277
 30
0.0
 10
1085.248486056813
 20
61.49702146900075
 30
0.0
 10
1084.642149251409
 20
63.53961858220538
 30
0.0
 10
1084.376876899045
 20
65.64250486640188
 30
0.0
 10
1085.720464138292
 20
67.49458819927219
 30
0.0
 10
1086.853211533842
 20
69.11722817282487
 30
0.0
 10
1088.025233017924
 20
71.37135414882383
 30
0.0
 10
1089.370198295366
 20
73.87008190427554
 30
0.0
 10
1089.891096732736
 20
74.89189722520064
 30
0.0
 10
1089.995827635487
 20
77.97215709856252
 30
0.0
 10
1089.674744736262
 20
81.76727428511374
 30
0.0
 10
1085.006640353748
 20
80.68344724545415
 30
0.0
 10
1084.011007758511
 20
78.67220050116529
 30
0.0
 10
1081.633202854592
 20
74.94701875296464
 30
0.0
 10
1081.223236491847
 20
69.94060599379958
 30
0.0
 10
1081.642160102853
 20
65.7034830564908
 30
0.0
 10
1081.175694174151
 20
64.82705076504324
 30
0.0
 10
1080.472205676062
 20
64.15387910722542
 30
0.0
 10
1079.77905246443
 20
63.46072589559316
 30
0.0
 10
1079.139642742368
 20
62.91019963705023
 30
0.0
 10
1078.61598822861
 20
62.76137151208744
 30
0.0
 10
1078.242539878009
 20
61.90698783174548
 30
0.0
 10
1078.428575034212
 20
61.56213377367197
 30
0.0
 10
1078.483007542879
 20
61.5073567554565
 30
0.0
 10
1078.924668784088
 20
61.24105087444669
 30
0.0
 10
1080.284792481665
 20
60.82384981118293
 30
0.0
 10
1081.093700901602
 20
61.65273978493404
 30
0.0
 10
1081.96048692569
 20
62.4836968159763
 30
0.0
 10
1081.96048692569
 20
62.4836968159763
 30
0.0
 10
1082.338069390874
 20
62.83509655547179
 30
0.0
 10
1082.338069390874
 20
62.83509655547179
 30
0.0
 10
1083.234483236136
 20
60.9585530446562
 30
0.0
 10
1084.603564181974
 20
58.80502385682652
 30
0.0
 10
1086.809803330728
 20
58.19145235090353
 30
0.0
 10
1088.088622774853
 20
57.97682290217247
 30
0.0
 10
1089.637537705021
 20
57.98509113133706
 30
0.0
 10
1090.795778807162
 20
58.70856118323953
 30
0.0
 10
1090.795778807162
 20
58.70856118323953
 30
0.0
 10
1092.501790091458
 20
59.80410154754897
 30
0.0
 10
1092.501790091458
 20
59.80410154754897
 30
0.0
 10
1093.742713485245
 20
58.34062498541485
 30
0.0
 10
1095.353640134148
 20
57.16446938675055
 30
0.0
 10
1097.479953067644
 20
57.36462943444356
 30
0.0
 10
1098.882106930141
 20
57.42526311498396
 30
0.0
 10
1099.991427676391
 20
58.4239962961579
 30
0.0
 10
1100.887152502556
 20
59.39413518480425
 30
0.0
 10
1100.887152502556
 20
59.39413518480425
 30
0.0
 10
1101.401849768052
 20
59.96912162129244
 30
0.0
 10
1101.401849768052
 20
59.96912162129244
 30
0.0
 10
1102.781955019444
 20
58.51770289335668
 30
0.0
 10
1104.389436572861
 20
57.16481389629908
 30
0.0
 10
1106.794802240662
 20
57.61026474254188
 30
0.0
 10
1108.26930310835
 20
57.8007785228762
 30
0.0
 10
1109.054095859889
 20
58.61485458604074
 30
0.0
 10
1109.630115825023
 20
59.9050428452668
 30
0.0
 10
1109.901589349261
 20
60.53652884771309
 30
0.0
 10
1109.823041172197
 20
61.22520343521454
 30
0.0
 10
1109.754828281589
 20
61.88425020154283
 30
0.0
 10
1110.757351067797
 20
61.62586804014909
 30
0.0
 10
1111.797080885245
 20
61.41192761051508
 30
0.0
 10
1112.832676588111
 20
61.37265352198323
 30
0.0
 10
1113.186832403995
 20
60.45694714200382
 30
0.0
 10
1113.813150763213
 20
59.3934461657072
 30
0.0
 10
1114.73643635326
 20
58.96797687327884
 30
0.0
 10
1116.735280753802
 20
58.04710285007156
 30
0.0
 10
1116.848279885719
 20
58.19868705142255
 30
0.0
 10
1118.727923982471
 20
58.29825031094627
 30
0.0
 10
1121.127088478399
 20
58.74370115718908
 30
0.0
 10
1122.889599328653
 20
60.61748859161646
 30
0.0
 10
1124.232497548803
 20
62.45923663803103
 30
0.0
  0
SPLINE
  5
5D1
330
5C8
100
AcDbEntity
  8
Layer 1
370
     0
100
AcDbSpline
210
0.0
220
0.0
230
1.0
 70
    11
 71
     3
 72
    53
 73
    49
 74
     0
 42
0.0000000001
 43
0.0000000001
 40
0.0
 40
0.0
 40
0.0
 40
0.0
 40
1.0
 40
1.0
 40
1.0
 40
2.0
 40
2.0
 40
2.0
 40
3.0
 40
3.0
 40
3.0
 40
4.0
 40
4.0
 40
4.0
 40
5.0
 40
5.0
 40
5.0
 40
6.0
 40
6.0
 40
6.0
 40
7.0
 40
7.0
 40
7.0
 40
8.0
 40
8.0
 40
8.0
 40
9.0
 40
9.0
 40
9.0
 40
10.0
 40
10.0
 40
10.0
 40
11.0
 40
11.0
 40
11.0
 40
12.0
 40
12.0
 40
12.0
 40
13.0
 40
13.0
 40
13.0
 40
14.0
 40
14.0
 40
14.0
 40
15.0
 40
15.0
 40
15.0
 40
16.0
 40
16.0
 40
16.0
 40
16.0
 10
1065.660362146779
 20
75.8248290826063
 30
0.0
 10
1065.660362146779
 20
75.8248290826063
 30
0.0
 10
1065.151177034059
 20
76.29577363543994
 30
0.0
 10
1065.151177034059
 20
76.29577363543994
 30
0.0
 10
1065.151177034059
 20
76.29577363543994
 30
0.0
 10
1065.641758631159
 20
76.53279620482513
 30
0.0
 10
1065.641758631159
 20
76.53279620482513
 30
0.0
 10
1066.412771000758
 20
76.78015406066608
 30
0.0
 10
1067.249240184577
 20
76.84182126985205
 30
0.0
 10
1067.641292050798
 20
75.94678546278413
 30
0.0
 10
1067.737065705288
 20
75.1616482016957
 30
0.0
 10
1067.409781634189
 20
74.68760306292532
 30
0.0
 10
1066.85374322287
 20
74.19839950401985
 30
0.0
 10
1065.656917051294
 20
74.08953448668595
 30
0.0
 10
1064.854898822328
 20
72.98675942185749
 30
0.0
 10
1064.114892312096
 20
72.16028101494605
 30
0.0
 10
1063.261197650851
 20
70.14800074201162
 30
0.0
 10
1063.963997129842
 20
67.73023273046327
 30
0.0
 10
1064.382231721752
 20
65.7034830564908
 30
0.0
 10
1064.382231721752
 20
65.7034830564908
 30
0.0
 10
1064.637857806757
 20
65.45474716245576
 30
0.0
 10
1064.637857806757
 20
65.45474716245576
 30
0.0
 10
1065.098811582684
 20
64.99827201066016
 30
0.0
 10
1065.473637971479
 20
64.51251354723993
 30
0.0
 10
1065.44056505482
 20
63.81557073057389
 30
0.0
 10
1065.00165989
 20
62.63562552687582
 30
0.0
 10
1062.659683979127
 20
62.0616726190332
 30
0.0
 10
1062.410259065995
 20
63.9454508303678
 30
0.0
 10
1061.986512321309
 20
64.69303655066702
 30
0.0
 10
1061.816324604338
 20
65.23563908959387
 30
0.0
 10
1061.707459587004
 20
65.78926593407353
 30
0.0
 10
1061.707459587004
 20
65.78926593407353
 30
0.0
 10
1061.630978467231
 20
66.2261040416032
 30
0.0
 10
1061.630978467231
 20
66.2261040416032
 30
0.0
 10
1061.486973475948
 20
65.13469779187605
 30
0.0
 10
1061.661984326598
 20
63.86380206736739
 30
0.0
 10
1061.844574387317
 20
62.79134384280911
 30
0.0
 10
1062.220778814306
 20
61.37127548378913
 30
0.0
 10
1063.200563970311
 20
60.28675942503248
 30
0.0
 10
1064.604784890099
 20
59.71659612222363
 30
0.0
 10
1067.823193092419
 20
58.95350747224079
 30
0.0
 10
1070.477983673353
 20
61.15216741092724
 30
0.0
 10
1072.314219566991
 20
63.53100584349225
 30
0.0
 10
1075.20603271731
 20
67.66064180166123
 30
0.0
 10
1077.774006892015
 20
72.8382758064432
 30
0.0
 10
1075.437543133919
 20
77.8408989605745
 30
0.0
 10
1072.649082848157
 20
81.33009166803554
 30
0.0
 10
1067.178960236678
 20
79.70951875177401
 30
0.0
 10
1065.660362146779
 20
75.8248290826063
 30
0.0
  0
SPLINE
  5
5D2
330
5C8
100
AcDbEntity
  8
Layer 1
370
     0
100
AcDbSpline
210
0.0
220
0.0
230
1.0
 70
    11
 71
     3
 72
    23
 73
    19
 74
     0
 42
0.0000000001
 43
0.0000000001
 40
0.0
 40
0.0
 40
0.0
 40
0.0
 40
1.0
 40
1.0
 40
1.0
 40
2.0
 40
2.0
 40
2.0
 40
3.0
 40
3.0
 40
3.0
 40
4.0
 40
4.0
 40
4.0
 40
5.0
 40
5.0
 40
5.0
 40
6.0
 40
6.0
 40
6.0
 40
6.0
 10
1074.319954158503
 20
61.82430554009948
 30
0.0
 10
1072.0551483865
 20
58.74886880041695
 30
0.0
 10
1068.365451121798
 20
56.69938149624183
 30
0.0
 10
1064.416682676604
 20
57.25541990756115
 30
0.0
 10
1061.633045524522
 20
57.99680445598691
 30
0.0
 10
1059.831260585737
 20
60.70120441190804
 30
0.0
 10
1059.370995828907
 20
63.36081812652091
 30
0.0
 10
1058.810134283909
 20
66.83760849023504
 30
0.0
 10
1059.752712408673
 20
70.00399575072817
 30
0.0
 10
1061.588948302311
 20
72.62123479087248
 30
0.0
 10
1062.139474560854
 20
76.42289765884567
 30
0.0
 10
1064.301616487397
 20
80.07366534456492
 30
0.0
 10
1068.074685062842
 20
81.75177135543012
 30
0.0
 10
1070.426996260171
 20
82.60994464080585
 30
0.0
 10
1075.693858238021
 20
82.98787161553776
 30
0.0
 10
1077.478417699381
 20
79.13039820070351
 30
0.0
 10
1080.718185493709
 20
73.15556910063472
 30
0.0
 10
1077.469460451119
 20
66.59541827762199
 30
0.0
 10
1074.319954158503
 20
61.82430554009948
 30
0.0
  0
SPLINE
  5
5D3
330
5C8
100
AcDbEntity
  8
Layer 1
370
     0
100
AcDbSpline
210
0.0
220
0.0
230
1.0
 70
    11
 71
     3
 72
    17
 73
    13
 74
     0
 42
0.0000000001
 43
0.0000000001
 40
0.0
 40
0.0
 40
0.0
 40
0.0
 40
1.0
 40
1.0
 40
1.0
 40
2.0
 40
2.0
 40
2.0
 40
3.0
 40
3.0
 40
3.0
 40
4.0
 40
4.0
 40
4.0
 40
4.0
 10
1136.902869724455
 20
68.86435816420753
 30
0.0
 10
1137.055831964
 20
69.32944605471626
 30
0.0
 10
1137.006222589012
 20
69.94852971341565
 30
0.0
 10
1136.727858873804
 20
70.37675508223221
 30
0.0
 10
1136.125656182983
 20
71.13467608898716
 30
0.0
 10
1134.96534802355
 20
71.67314451333172
 30
0.0
 10
1134.245323067133
 20
70.67992348493419
 30
0.0
 10
1133.882899022085
 20
69.7935004165794
 30
0.0
 10
1134.154372546323
 20
68.91121146280692
 30
0.0
 10
1134.866129273575
 20
68.3028076001118
 30
0.0
 10
1135.622672242136
 20
68.12159557758766
 30
0.0
 10
1136.484635132545
 20
67.94038355506352
 30
0.0
 10
1136.902869724455
 20
68.86435816420753
 30
0.0
  0
SPLINE
  5
5D4
330
5C8
100
AcDbEntity
  8
Layer 1
370
     0
100
AcDbSpline
210
0.0
220
0.0
230
1.0
 70
    11
 71
     3
 72
    17
 73
    13
 74
     0
 42
0.0000000001
 43
0.0000000001
 40
0.0
 40
0.0
 40
0.0
 40
0.0
 40
1.0
 40
1.0
 40
1.0
 40
2.0
 40
2.0
 40
2.0
 40
3.0
 40
3.0
 40
3.0
 40
4.0
 40
4.0
 40
4.0
 40
4.0
 10
1093.464349770037
 20
70.28408201367898
 30
0.0
 10
1093.075053980204
 20
69.7259765450685
 30
0.0
 10
1092.113872339819
 20
69.72459850687441
 30
0.0
 10
1091.617089570846
 20
69.92751463095563
 30
0.0
 10
1090.898442652623
 20
70.22069225675038
 30
0.0
 10
1090.215624727446
 20
71.16878253429114
 30
0.0
 10
1090.742035317592
 20
72.08552244291613
 30
0.0
 10
1091.329768607376
 20
73.10871580203532
 30
0.0
 10
1092.549332409154
 20
72.82759601043894
 30
0.0
 10
1093.179095863858
 20
72.31462129268523
 30
0.0
 10
1093.573903806468
 20
71.99353839345996
 30
0.0
 10
1093.990071341086
 20
71.0358018485605
 30
0.0
 10
1093.464349770037
 20
70.28408201367898
 30
0.0
  0
HATCH
  5
5D5
330
5C8
100
AcDbEntity
  8
Layer 1
 62
   152
100
AcDbHatch
 10
0.0
 20
0.0
 30
0.0
210
0.0
220
0.0
230
1.0
  2
SOLID
 70
     1
 71
     0
 91
        7
 92
        1
 93
        2
 72
     4
 94
        3
 73
     0
 74
     0
 95
       14
 96
       10
 40
0.0
 40
0.0
 40
0.0
 40
0.0
 40
0.3527777776895833
 40
0.3527777776895833
 40
0.3527777776895833
 40
0.7055555553791667
 40
0.7055555553791667
 40
0.7055555553791667
 40
1.05833333306875
 40
1.05833333306875
 40
1.05833333306875
 40
1.05833333306875
 10
1087.203233235144
 20
77.2976074025506
 10
1086.987570257767
 20
74.36514212550594
 10
1085.783853895221
 20
72.42451983866471
 10
1084.348627116066
 20
70.00261771253408
 10
1084.366541612589
 20
73.04429251646116
 10
1084.779953070819
 20
75.76591794980853
 10
1086.648572862018
 20
77.7389241342111
 10
1086.888351507792
 20
78.06586369576131
 10
1087.263866915684
 20
78.00901962025469
 10
1087.203233235144
 20
77.2976074025506
 72
     1
 10
1087.203233235144
 20
77.2976074025506
 11
1087.203233235144
 21
77.2976074025506
 97
        0
 92
        1
 93
        2
 72
     4
 94
        3
 73
     0
 74
     0
 95
       14
 96
       10
 40
0.0
 40
0.0
 40
0.0
 40
0.0
 40
0.3527777776895833
 40
0.3527777776895833
 40
0.3527777776895833
 40
0.7055555553791667
 40
0.7055555553791667
 40
0.7055555553791667
 40
1.05833333306875
 40
1.05833333306875
 40
1.05833333306875
 40
1.05833333306875
 10
1116.435557446586
 20
65.04409178061398
 10
1116.425911179227
 20
64.79776745341861
 10
1115.83886690854
 20
64.14905597354607
 10
1114.782600632763
 20
63.9661214032793
 10
1114.589675285589
 20
65.20773381616334
 10
1115.189121900022
 20
65.93292641580844
 10
1115.776166170709
 20
65.93292641580844
 10
1116.261924634129
 20
65.93292641580844
 10
1116.462429191371
 20
65.75068086463872
 10
1116.435557446586
 20
65.04409178061398
 72
     1
 10
1116.435557446586
 20
65.04409178061398
 11
1116.435557446586
 21
65.04409178061398
 97
        0
 92
        1
 93
        2
 72
     4
 94
        3
 73
     0
 74
     0
 95
      200
 96
      196
 40
0.0
 40
0.0
 40
0.0
 40
0.0
 40
0.3527777776895833
 40
0.3527777776895833
 40
0.3527777776895833
 40
0.7055555553791667
 40
0.7055555553791667
 40
0.7055555553791667
 40
1.05833333306875
 40
1.05833333306875
 40
1.05833333306875
 40
1.411111110758333
 40
1.411111110758333
 40
1.411111110758333
 40
1.763888888447917
 40
1.763888888447917
 40
1.763888888447917
 40
2.1166666661375
 40
2.1166666661375
 40
2.1166666661375
 40
2.469444443827083
 40
2.469444443827083
 40
2.469444443827083
 40
2.822222221516667
 40
2.822222221516667
 40
2.822222221516667
 40
3.17499999920625
 40
3.17499999920625
 40
3.17499999920625
 40
3.527777776895833
 40
3.527777776895833
 40
3.527777776895833
 40
3.880555554585417
 40
3.880555554585417
 40
3.880555554585417
 40
4.233333332275
 40
4.233333332275
 40
4.233333332275
 40
4.586111109964584
 40
4.586111109964584
 40
4.586111109964584
 40
4.938888887654167
 40
4.938888887654167
 40
4.938888887654167
 40
5.29166666534375
 40
5.29166666534375
 40
5.29166666534375
 40
5.644444443033334
 40
5.644444443033334
 40
5.644444443033334
 40
5.997222220722917
 40
5.997222220722917
 40
5.997222220722917
 40
6.349999998412501
 40
6.349999998412501
 40
6.349999998412501
 40
6.702777776102083
 40
6.702777776102083
 40
6.702777776102083
 40
7.055555553791667
 40
7.055555553791667
 40
7.055555553791667
 40
7.40833333148125
 40
7.40833333148125
 40
7.40833333148125
 40
7.761111109170834
 40
7.761111109170834
 40
7.761111109170834
 40
8.113888886860417
 40
8.113888886860417
 40
8.113888886860417
 40
8.46666666455
 40
8.46666666455
 40
8.46666666455
 40
8.819444442239584
 40
8.819444442239584
 40
8.819444442239584
 40
9.172222219929168
 40
9.172222219929168
 40
9.172222219929168
 40
9.52499999761875
 40
9.52499999761875
 40
9.52499999761875
 40
9.877777775308333
 40
9.877777775308333
 40
9.877777775308333
 40
10.23055555299792
 40
10.23055555299792
 40
10.23055555299792
 40
10.5833333306875
 40
10.5833333306875
 40
10.5833333306875
 40
10.93611110837708
 40
10.93611110837708
 40
10.93611110837708
 40
11.28888888606667
 40
11.28888888606667
 40
11.28888888606667
 40
11.64166666375625
 40
11.64166666375625
 40
11.64166666375625
 40
11.99444444144583
 40
11.99444444144583
 40
11.99444444144583
 40
12.34722221913542
 40
12.34722221913542
 40
12.34722221913542
 40
12.699999996825
 40
12.699999996825
 40
12.699999996825
 40
13.05277777451458
 40
13.05277777451458
 40
13.05277777451458
 40
13.40555555220417
 40
13.40555555220417
 40
13.40555555220417
 40
13.75833332989375
 40
13.75833332989375
 40
13.75833332989375
 40
14.11111110758333
 40
14.11111110758333
 40
14.11111110758333
 40
14.46388888527292
 40
14.46388888527292
 40
14.46388888527292
 40
14.8166666629625
 40
14.8166666629625
 40
14.8166666629625
 40
15.16944444065208
 40
15.16944444065208
 40
15.16944444065208
 40
15.52222221834167
 40
15.52222221834167
 40
15.52222221834167
 40
15.87499999603125
 40
15.87499999603125
 40
15.87499999603125
 40
16.22777777372083
 40
16.22777777372083
 40
16.22777777372083
 40
16.58055555141042
 40
16.58055555141042
 40
16.58055555141042
 40
16.9333333291
 40
16.9333333291
 40
16.9333333291
 40
17.28611110678958
 40
17.28611110678958
 40
17.28611110678958
 40
17.63888888447917
 40
17.63888888447917
 40
17.63888888447917
 40
17.99166666216875
 40
17.99166666216875
 40
17.99166666216875
 40
18.34444443985834
 40
18.34444443985834
 40
18.34444443985834
 40
18.69722221754792
 40
18.69722221754792
 40
18.69722221754792
 40
19.0499999952375
 40
19.0499999952375
 40
19.0499999952375
 40
19.40277777292708
 40
19.40277777292708
 40
19.40277777292708
 40
19.75555555061667
 40
19.75555555061667
 40
19.75555555061667
 40
20.10833332830625
 40
20.10833332830625
 40
20.10833332830625
 40
20.46111110599583
 40
20.46111110599583
 40
20.46111110599583
 40
20.81388888368542
 40
20.81388888368542
 40
20.81388888368542
 40
21.166666661375
 40
21.166666661375
 40
21.166666661375
 40
21.51944443906459
 40
21.51944443906459
 40
21.51944443906459
 40
21.87222221675417
 40
21.87222221675417
 40
21.87222221675417
 40
22.22499999444375
 40
22.22499999444375
 40
22.22499999444375
 40
22.57777777213333
 40
22.57777777213333
 40
22.57777777213333
 40
22.93055554982292
 40
22.93055554982292
 40
22.93055554982292
 40
22.93055554982292
 10
1124.232497548803
 20
62.45923663803103
 10
1124.232497548803
 20
62.45923663803103
 10
1124.461251889024
 20
61.50425616951977
 10
1124.461251889024
 20
61.50425616951977
 10
1124.587342383784
 20
61.00885143874085
 10
1124.732725413261
 20
60.54858668191147
 10
1124.97594915452
 20
60.09555662560111
 10
1126.519351931912
 20
58.03022188219384
 10
1130.459163128844
 20
58.2668999420305
 10
1132.4779890832
 20
58.8928737917004
 10
1133.596267077712
 20
59.24048392616211
 10
1134.670447850013
 20
59.81478134355325
 10
1135.6777937699
 20
60.41353893888967
 10
1138.245767944605
 20
58.72544215111726
 10
1141.488980834419
 20
58.20316567555338
 10
1144.738394896107
 20
58.19041882225795
 10
1148.059466943888
 20
58.17801647851105
 10
1151.450129920471
 20
58.70063746362345
 10
1154.237212168038
 20
59.10646971178588
 10
1157.201372323547
 20
59.29663898257168
 10
1159.564707826428
 20
60.69431422093754
 10
1162.683208259677
 20
60.02355412995939
 10
1163.355690898397
 20
60.24817435559768
 10
1163.885546584029
 20
60.59130586592857
 10
1163.835937209041
 20
61.4274305401987
 10
1163.534146844533
 20
62.16743705043037
 10
1163.115912252624
 20
62.68454588276636
 10
1162.244303094856
 20
62.75379230201989
 10
1160.773936341751
 20
62.12127277092802
 10
1159.114089336958
 20
62.30868596532561
 10
1157.57895478873
 20
61.93179251923927
 10
1153.677039642136
 20
61.02228731113332
 10
1149.522943506022
 20
60.66537541886144
 10
1145.107709132126
 20
60.4262857921851
 10
1142.370236259546
 20
60.44936793193627
 10
1138.909982354161
 20
60.49174260640484
 10
1137.001399455333
 20
62.79892305287666
 10
1136.790559611636
 20
63.49414332180008
 10
1137.361067423993
 20
64.41708440229851
 10
1137.133691121967
 20
65.40548229701669
 10
1136.777468248792
 20
66.0951904131637
 10
1136.193869073591
 20
66.55166556495931
 10
1135.345686565122
 20
66.32773435841807
 10
1134.182622329302
 20
65.48747556956563
 10
1134.198469768534
 20
64.10082463675258
 10
1134.302511652188
 20
62.84026419869966
 10
1132.628195246357
 20
60.67639972441424
 10
1128.774511436556
 20
59.77309568818173
 10
1127.124310699122
 20
61.4508571894984
 10
1127.03818331199
 20
61.74747991077841
 10
1126.872818728699
 20
62.32970104778563
 10
1127.040939388379
 20
62.75792641660219
 10
1127.056097808514
 20
62.80960284888094
 10
1127.071945247746
 20
62.86575790529051
 10
1127.079524457813
 20
62.92949217176763
 10
1127.165651844945
 20
63.57958168983427
 10
1126.952055924859
 20
64.0667181914486
 10
1126.357432444105
 20
64.27790254469441
 10
1125.226752105846
 20
64.69303655066702
 10
1125.29358695826
 20
65.20049911564432
 10
1124.492946767488
 20
65.90708819966906
 10
1123.669568946513
 20
66.66535371597256
 10
1122.71045436342
 20
66.30017359453608
 10
1122.138568512868
 20
65.54053004003848
 10
1121.99800861707
 20
63.50654566554698
 10
1120.561403799721
 20
61.83946396023458
 10
1118.981483010185
 20
60.74426810547366
 10
1117.972070033007
 20
60.39527993281785
 10
1116.707030970823
 20
60.51069063157372
 10
1115.88089707346
 20
61.07120766702387
 10
1115.606667472834
 20
61.26068791871261
 10
1115.510204799248
 20
61.4701497242158
 10
1115.504692646471
 20
61.61794432053302
 10
1116.822097160031
 20
61.9886365947459
 10
1118.003075892374
 20
62.88436142091086
 10
1118.677625588386
 20
64.1149495282421
 10
1119.476198721867
 20
66.2577989200675
 10
1117.927283791699
 20
68.54499781272486
 10
1115.546722811391
 20
68.21289060794678
 10
1113.35150796819
 20
67.90558809066249
 10
1112.269058966725
 20
66.35598414139712
 10
1112.373100850379
 20
63.68569063077997
 10
1111.165939392347
 20
63.73598902486462
 10
1110.084179409979
 20
64.13768715844475
 10
1108.962456319982
 20
64.58899466701247
 10
1108.0005856605
 20
64.97760143774866
 10
1107.828330886237
 20
65.88056096443265
 10
1106.427555061935
 20
65.61907821710217
 10
1105.325813525752
 20
64.45394692399069
 10
1106.098203933545
 20
63.68844670716817
 10
1106.820295947253
 20
62.76826170305794
 10
1107.543765999156
 20
61.85048826578738
 10
1107.510693082497
 20
60.47382810988154
 10
1106.364854324103
 20
59.82339408226638
 10
1104.722232796736
 20
59.43409829243314
 10
1103.348328717218
 20
60.87208114797642
 10
1102.349251026496
 20
61.93799369111272
 10
1102.36234238934
 20
62.57361380814132
 10
1102.38094590496
 20
63.80730250140929
 10
1102.217648378959
 20
64.35093856898172
 10
1101.892431365152
 20
65.44200030916033
 10
1101.18756482887
 20
66.37872177159977
 10
1099.89358696461
 20
65.94636228820092
 10
1099.08536756377
 20
64.87149249680296
 10
1099.394737138346
 20
63.5840603139651
 10
1099.837776417749
 20
62.48748642101008
 10
1099.476041391798
 20
61.36438529281863
 10
1098.941362572487
 20
60.26918943805771
 10
1097.892675506777
 20
59.71246200764134
 10
1096.673800724096
 20
59.42204045823477
 10
1094.551621905181
 20
59.71349553628691
 10
1093.67381157554
 20
61.8894178447707
 10
1093.724109969625
 20
62.17846135598317
 10
1093.857779674452
 20
63.0008056483123
 10
1093.859157712646
 20
63.83899737987359
 10
1093.86053575084
 20
64.35645072175811
 10
1093.812304414047
 20
64.91627873811122
 10
1093.645561792561
 20
65.37275388990682
 10
1093.099858667697
 20
66.85586749630687
 10
1090.87570502242
 20
66.84036456662325
 10
1090.877083060614
 20
64.28961586934426
 10
1090.877083060614
 20
63.67948945890652
 10
1090.968033581425
 20
63.06764050072615
 10
1091.110660534514
 20
62.47646211545727
 10
1090.225960013902
 20
60.65917424698799
 10
1088.404882540399
 20
60.29433863510003
 10
1087.126063096274
 20
60.53894041455277
 10
1085.248486056813
 20
61.49702146900075
 10
1084.642149251409
 20
63.53961858220538
 10
1084.376876899045
 20
65.64250486640188
 10
1085.720464138292
 20
67.49458819927219
 10
1086.853211533842
 20
69.11722817282487
 10
1088.025233017924
 20
71.37135414882383
 10
1089.370198295366
 20
73.87008190427554
 10
1089.891096732736
 20
74.89189722520064
 10
1089.995827635487
 20
77.97215709856252
 10
1089.674744736262
 20
81.76727428511374
 10
1085.006640353748
 20
80.68344724545415
 10
1084.011007758511
 20
78.67220050116529
 10
1081.633202854592
 20
74.94701875296464
 10
1081.223236491847
 20
69.94060599379958
 10
1081.642160102853
 20
65.7034830564908
 10
1081.175694174151
 20
64.82705076504324
 10
1080.472205676062
 20
64.15387910722542
 10
1079.77905246443
 20
63.46072589559316
 10
1079.139642742368
 20
62.91019963705023
 10
1078.61598822861
 20
62.76137151208744
 10
1078.242539878009
 20
61.90698783174548
 10
1078.428575034212
 20
61.56213377367197
 10
1078.483007542879
 20
61.5073567554565
 10
1078.924668784088
 20
61.24105087444669
 10
1080.284792481665
 20
60.82384981118293
 10
1081.093700901602
 20
61.65273978493404
 10
1081.96048692569
 20
62.4836968159763
 10
1081.96048692569
 20
62.4836968159763
 10
1082.338069390874
 20
62.83509655547179
 10
1082.338069390874
 20
62.83509655547179
 10
1083.234483236136
 20
60.9585530446562
 10
1084.603564181974
 20
58.80502385682652
 10
1086.809803330728
 20
58.19145235090353
 10
1088.088622774853
 20
57.97682290217247
 10
1089.637537705021
 20
57.98509113133706
 10
1090.795778807162
 20
58.70856118323953
 10
1090.795778807162
 20
58.70856118323953
 10
1092.501790091458
 20
59.80410154754897
 10
1092.501790091458
 20
59.80410154754897
 10
1093.742713485245
 20
58.34062498541485
 10
1095.353640134148
 20
57.16446938675055
 10
1097.479953067644
 20
57.36462943444356
 10
1098.882106930141
 20
57.42526311498396
 10
1099.991427676391
 20
58.4239962961579
 10
1100.887152502556
 20
59.39413518480425
 10
1100.887152502556
 20
59.39413518480425
 10
1101.401849768052
 20
59.96912162129244
 10
1101.401849768052
 20
59.96912162129244
 10
1102.781955019444
 20
58.51770289335668
 10
1104.389436572861
 20
57.16481389629908
 10
1106.794802240662
 20
57.61026474254188
 10
1108.26930310835
 20
57.8007785228762
 10
1109.054095859889
 20
58.61485458604074
 10
1109.630115825023
 20
59.9050428452668
 10
1109.901589349261
 20
60.53652884771309
 10
1109.823041172197
 20
61.22520343521454
 10
1109.754828281589
 20
61.88425020154283
 10
1110.757351067797
 20
61.62586804014909
 10
1111.797080885245
 20
61.41192761051508
 10
1112.832676588111
 20
61.37265352198323
 10
1113.186832403995
 20
60.45694714200382
 10
1113.813150763213
 20
59.3934461657072
 10
1114.73643635326
 20
58.96797687327884
 10
1116.735280753802
 20
58.04710285007156
 10
1116.848279885719
 20
58.19868705142255
 10
1118.727923982471
 20
58.29825031094627
 10
1121.127088478399
 20
58.74370115718908
 10
1122.889599328653
 20
60.61748859161646
 10
1124.232497548803
 20
62.45923663803103
 72
     1
 10
1124.232497548803
 20
62.45923663803103
 11
1124.232497548803
 21
62.45923663803103
 97
        0
 92
        1
 93
        2
 72
     4
 94
        3
 73
     0
 74
     0
 95
       53
 96
       49
 40
0.0
 40
0.0
 40
0.0
 40
0.0
 40
0.3527777776895833
 40
0.3527777776895833
 40
0.3527777776895833
 40
0.7055555553791667
 40
0.7055555553791667
 40
0.7055555553791667
 40
1.05833333306875
 40
1.05833333306875
 40
1.05833333306875
 40
1.411111110758333
 40
1.411111110758333
 40
1.411111110758333
 40
1.763888888447917
 40
1.763888888447917
 40
1.763888888447917
 40
2.1166666661375
 40
2.1166666661375
 40
2.1166666661375
 40
2.469444443827083
 40
2.469444443827083
 40
2.469444443827083
 40
2.822222221516667
 40
2.822222221516667
 40
2.822222221516667
 40
3.17499999920625
 40
3.17499999920625
 40
3.17499999920625
 40
3.527777776895833
 40
3.527777776895833
 40
3.527777776895833
 40
3.880555554585417
 40
3.880555554585417
 40
3.880555554585417
 40
4.233333332275
 40
4.233333332275
 40
4.233333332275
 40
4.586111109964584
 40
4.586111109964584
 40
4.586111109964584
 40
4.938888887654167
 40
4.938888887654167
 40
4.938888887654167
 40
5.29166666534375
 40
5.29166666534375
 40
5.29166666534375
 40
5.644444443033334
 40
5.644444443033334
 40
5.644444443033334
 40
5.644444443033334
 10
1065.660362146779
 20
75.8248290826063
 10
1065.660362146779
 20
75.8248290826063
 10
1065.151177034059
 20
76.29577363543994
 10
1065.151177034059
 20
76.29577363543994
 10
1065.151177034059
 20
76.29577363543994
 10
1065.641758631159
 20
76.53279620482513
 10
1065.641758631159
 20
76.53279620482513
 10
1066.412771000758
 20
76.78015406066608
 10
1067.249240184577
 20
76.84182126985205
 10
1067.641292050798
 20
75.94678546278413
 10
1067.737065705288
 20
75.1616482016957
 10
1067.409781634189
 20
74.68760306292532
 10
1066.85374322287
 20
74.19839950401985
 10
1065.656917051294
 20
74.08953448668595
 10
1064.854898822328
 20
72.98675942185749
 10
1064.114892312096
 20
72.16028101494605
 10
1063.261197650851
 20
70.14800074201162
 10
1063.963997129842
 20
67.73023273046327
 10
1064.382231721752
 20
65.7034830564908
 10
1064.382231721752
 20
65.7034830564908
 10
1064.637857806757
 20
65.45474716245576
 10
1064.637857806757
 20
65.45474716245576
 10
1065.098811582684
 20
64.99827201066016
 10
1065.473637971479
 20
64.51251354723993
 10
1065.44056505482
 20
63.81557073057389
 10
1065.00165989
 20
62.63562552687582
 10
1062.659683979127
 20
62.0616726190332
 10
1062.410259065995
 20
63.9454508303678
 10
1061.986512321309
 20
64.69303655066702
 10
1061.816324604338
 20
65.23563908959387
 10
1061.707459587004
 20
65.78926593407353
 10
1061.707459587004
 20
65.78926593407353
 10
1061.630978467231
 20
66.2261040416032
 10
1061.630978467231
 20
66.2261040416032
 10
1061.486973475948
 20
65.13469779187605
 10
1061.661984326598
 20
63.86380206736739
 10
1061.844574387317
 20
62.79134384280911
 10
1062.220778814306
 20
61.37127548378913
 10
1063.200563970311
 20
60.28675942503248
 10
1064.604784890099
 20
59.71659612222363
 10
1067.823193092419
 20
58.95350747224079
 10
1070.477983673353
 20
61.15216741092724
 10
1072.314219566991
 20
63.53100584349225
 10
1075.20603271731
 20
67.66064180166123
 10
1077.774006892015
 20
72.8382758064432
 10
1075.437543133919
 20
77.8408989605745
 10
1072.649082848157
 20
81.33009166803554
 10
1067.178960236678
 20
79.70951875177401
 10
1065.660362146779
 20
75.8248290826063
 72
     1
 10
1065.660362146779
 20
75.8248290826063
 11
1065.660362146779
 21
75.8248290826063
 97
        0
 92
        1
 93
        2
 72
     4
 94
        3
 73
     0
 74
     0
 95
       23
 96
       19
 40
0.0
 40
0.0
 40
0.0
 40
0.0
 40
0.3527777776895833
 40
0.3527777776895833
 40
0.3527777776895833
 40
0.7055555553791667
 40
0.7055555553791667
 40
0.7055555553791667
 40
1.05833333306875
 40
1.05833333306875
 40
1.05833333306875
 40
1.411111110758333
 40
1.411111110758333
 40
1.411111110758333
 40
1.763888888447917
 40
1.763888888447917
 40
1.763888888447917
 40
2.1166666661375
 40
2.1166666661375
 40
2.1166666661375
 40
2.1166666661375
 10
1074.319954158503
 20
61.82430554009948
 10
1072.0551483865
 20
58.74886880041695
 10
1068.365451121798
 20
56.69938149624183
 10
1064.416682676604
 20
57.25541990756115
 10
1061.633045524522
 20
57.99680445598691
 10
1059.831260585737
 20
60.70120441190804
 10
1059.370995828907
 20
63.36081812652091
 10
1058.810134283909
 20
66.83760849023504
 10
1059.752712408673
 20
70.00399575072817
 10
1061.588948302311
 20
72.62123479087248
 10
1062.139474560854
 20
76.42289765884567
 10
1064.301616487397
 20
80.07366534456492
 10
1068.074685062842
 20
81.75177135543012
 10
1070.426996260171
 20
82.60994464080585
 10
1075.693858238021
 20
82.98787161553776
 10
1077.478417699381
 20
79.13039820070351
 10
1080.718185493709
 20
73.15556910063472
 10
1077.469460451119
 20
66.59541827762199
 10
1074.319954158503
 20
61.82430554009948
 72
     1
 10
1074.319954158503
 20
61.82430554009948
 11
1074.319954158503
 21
61.82430554009948
 97
        0
 92
        1
 93
        2
 72
     4
 94
        3
 73
     0
 74
     0
 95
       17
 96
       13
 40
0.0
 40
0.0
 40
0.0
 40
0.0
 40
0.3527777776895833
 40
0.3527777776895833
 40
0.3527777776895833
 40
0.7055555553791667
 40
0.7055555553791667
 40
0.7055555553791667
 40
1.05833333306875
 40
1.05833333306875
 40
1.05833333306875
 40
1.411111110758333
 40
1.411111110758333
 40
1.411111110758333
 40
1.411111110758333
 10
1136.902869724455
 20
68.86435816420753
 10
1137.055831964
 20
69.32944605471626
 10
1137.006222589012
 20
69.94852971341565
 10
1136.727858873804
 20
70.37675508223221
 10
1136.125656182983
 20
71.13467608898716
 10
1134.96534802355
 20
71.67314451333172
 10
1134.245323067133
 20
70.67992348493419
 10
1133.882899022085
 20
69.7935004165794
 10
1134.154372546323
 20
68.91121146280692
 10
1134.866129273575
 20
68.3028076001118
 10
1135.622672242136
 20
68.12159557758766
 10
1136.484635132545
 20
67.94038355506352
 10
1136.902869724455
 20
68.86435816420753
 72
     1
 10
1136.902869724455
 20
68.86435816420753
 11
1136.902869724455
 21
68.86435816420753
 97
        0
 92
        1
 93
        2
 72
     4
 94
        3
 73
     0
 74
     0
 95
       17
 96
       13
 40
0.0
 40
0.0
 40
0.0
 40
0.0
 40
0.3527777776895833
 40
0.3527777776895833
 40
0.3527777776895833
 40
0.7055555553791667
 40
0.7055555553791667
 40
0.7055555553791667
 40
1.05833333306875
 40
1.05833333306875
 40
1.05833333306875
 40
1.411111110758333
 40
1.411111110758333
 40
1.411111110758333
 40
1.411111110758333
 10
1093.464349770037
 20
70.28408201367898
 10
1093.075053980204
 20
69.7259765450685
 10
1092.113872339819
 20
69.72459850687441
 10
1091.617089570846
 20
69.92751463095563
 10
1090.898442652623
 20
70.22069225675038
 10
1090.215624727446
 20
71.16878253429114
 10
1090.742035317592
 20
72.08552244291613
 10
1091.329768607376
 20
73.10871580203532
 10
1092.549332409154
 20
72.82759601043894
 10
1093.179095863858
 20
72.31462129268523
 10
1093.573903806468
 20
71.99353839345996
 10
1093.990071341086
 20
71.0358018485605
 10
1093.464349770037
 20
70.28408201367898
 72
     1
 10
1093.464349770037
 20
70.28408201367898
 11
1093.464349770037
 21
70.28408201367898
 97
        0
 75
     2
 76
     1
 98
        0
  0
SPLINE
  5
5D6
330
5C8
100
AcDbEntity
  8
Layer 1
370
     0
100
AcDbSpline
210
0.0
220
0.0
230
1.0
 70
    11
 71
     3
 72
    20
 73
    16
 74
     0
 42
0.0000000001
 43
0.0000000001
 40
0.0
 40
0.0
 40
0.0
 40
0.0
 40
1.0
 40
1.0
 40
1.0
 40
2.0
 40
2.0
 40
2.0
 40
3.0
 40
3.0
 40
3.0
 40
4.0
 40
4.0
 40
4.0
 40
5.0
 40
5.0
 40
5.0
 40
5.0
 10
1161.267274015239
 20
65.83129609899356
 30
0.0
 10
1161.267274015239
 20
65.83129609899356
 30
0.0
 10
1161.562863207873
 20
65.83129609899356
 30
0.0
 10
1161.562863207873
 20
65.83129609899356
 30
0.0
 10
1161.721337600195
 20
65.83129609899356
 30
0.0
 10
1161.877055916128
 20
65.78168672400597
 30
0.0
 10
1161.877055916128
 20
65.6083984210979
 30
0.0
 10
1161.877055916128
 20
65.40927190205046
 30
0.0
 10
1161.753721497756
 20
65.3696533039701
 30
0.0
 10
1161.562863207873
 20
65.3696533039701
 30
0.0
 10
1161.562863207873
 20
65.3696533039701
 30
0.0
 10
1161.267274015239
 20
65.3696533039701
 30
0.0
 10
1161.267274015239
 20
65.3696533039701
 30
0.0
 10
1161.267274015239
 20
65.3696533039701
 30
0.0
 10
1161.267274015239
 20
65.83129609899356
 30
0.0
 10
1161.267274015239
 20
65.83129609899356
 30
0.0
  0
SPLINE
  5
5D7
330
5C8
100
AcDbEntity
  8
Layer 1
370
     0
100
AcDbSpline
210
0.0
220
0.0
230
1.0
 70
    11
 71
     3
 72
    35
 73
    31
 74
     0
 42
0.0000000001
 43
0.0000000001
 40
0.0
 40
0.0
 40
0.0
 40
0.0
 40
1.0
 40
1.0
 40
1.0
 40
2.0
 40
2.0
 40
2.0
 40
3.0
 40
3.0
 40
3.0
 40
4.0
 40
4.0
 40
4.0
 40
5.0
 40
5.0
 40
5.0
 40
6.0
 40
6.0
 40
6.0
 40
7.0
 40
7.0
 40
7.0
 40
8.0
 40
8.0
 40
8.0
 40
9.0
 40
9.0
 40
9.0
 40
10.0
 40
10.0
 40
10.0
 40
10.0
 10
1161.01716008301
 20
64.49976669394451
 30
0.0
 10
1161.01716008301
 20
64.49976669394451
 30
0.0
 10
1161.267274015239
 20
64.49976669394451
 30
0.0
 10
1161.267274015239
 20
64.49976669394451
 30
0.0
 10
1161.267274015239
 20
64.49976669394451
 30
0.0
 10
1161.267274015239
 20
65.17466089950494
 30
0.0
 10
1161.267274015239
 20
65.17466089950494
 30
0.0
 10
1161.267274015239
 20
65.17466089950494
 30
0.0
 10
1161.475357782548
 20
65.17466089950494
 30
0.0
 10
1161.475357782548
 20
65.17466089950494
 30
0.0
 10
1161.475357782548
 20
65.17466089950494
 30
0.0
 10
1161.901860603622
 20
64.49976669394451
 30
0.0
 10
1161.901860603622
 20
64.49976669394451
 30
0.0
 10
1161.901860603622
 20
64.49976669394451
 30
0.0
 10
1162.165754917792
 20
64.49976669394451
 30
0.0
 10
1162.165754917792
 20
64.49976669394451
 30
0.0
 10
1162.165754917792
 20
64.49976669394451
 30
0.0
 10
1161.732361905747
 20
65.17466089950494
 30
0.0
 10
1161.732361905747
 20
65.17466089950494
 30
0.0
 10
1161.970762513327
 20
65.17466089950494
 30
0.0
 10
1162.12648082926
 20
65.35208331699532
 30
0.0
 10
1162.12648082926
 20
65.59702960599658
 30
0.0
 10
1162.12648082926
 20
65.88538409811198
 30
0.0
 10
1161.952158997706
 20
66.02628850345872
 30
0.0
 10
1161.602137296405
 20
66.02628850345872
 30
0.0
 10
1161.602137296405
 20
66.02628850345872
 30
0.0
 10
1161.01716008301
 20
66.02628850345872
 30
0.0
 10
1161.01716008301
 20
66.02628850345872
 30
0.0
 10
1161.01716008301
 20
66.02628850345872
 30
0.0
 10
1161.01716008301
 20
64.49976669394451
 30
0.0
 10
1161.01716008301
 20
64.49976669394451
 30
0.0
  0
SPLINE
  5
5D8
330
5C8
100
AcDbEntity
  8
Layer 1
370
     0
100
AcDbSpline
210
0.0
220
0.0
230
1.0
 70
    11
 71
     3
 72
    17
 73
    13
 74
     0
 42
0.0000000001
 43
0.0000000001
 40
0.0
 40
0.0
 40
0.0
 40
0.0
 40
1.0
 40
1.0
 40
1.0
 40
2.0
 40
2.0
 40
2.0
 40
3.0
 40
3.0
 40
3.0
 40
4.0
 40
4.0
 40
4.0
 40
4.0
 10
1160.461810690787
 20
65.26147730573325
 30
0.0
 10
1160.461810690787
 20
65.88538409811198
 30
0.0
 10
1160.913807218452
 20
66.36976452333812
 30
0.0
 10
1161.519455004759
 20
66.36976452333812
 30
0.0
 10
1162.118212600096
 20
66.36976452333812
 30
0.0
 10
1162.568831089566
 20
65.88538409811198
 30
0.0
 10
1162.568831089566
 20
65.26147730573325
 30
0.0
 10
1162.568831089566
 20
64.6375705133545
 30
0.0
 10
1162.118212600096
 20
64.15387910722542
 30
0.0
 10
1161.519455004759
 20
64.15387910722542
 30
0.0
 10
1160.913807218452
 20
64.15387910722542
 30
0.0
 10
1160.461810690787
 20
64.6375705133545
 30
0.0
 10
1160.461810690787
 20
65.26147730573325
 30
0.0
  0
SPLINE
  5
5D9
330
5C8
100
AcDbEntity
  8
Layer 1
370
     0
100
AcDbSpline
210
0.0
220
0.0
230
1.0
 70
    11
 71
     3
 72
    17
 73
    13
 74
     0
 42
0.0000000001
 43
0.0000000001
 40
0.0
 40
0.0
 40
0.0
 40
0.0
 40
1.0
 40
1.0
 40
1.0
 40
2.0
 40
2.0
 40
2.0
 40
3.0
 40
3.0
 40
3.0
 40
4.0
 40
4.0
 40
4.0
 40
4.0
 10
1160.213074796752
 20
65.26147730573325
 30
0.0
 10
1160.213074796752
 20
64.5438639161557
 30
0.0
 10
1160.797362991051
 20
63.95819768366323
 30
0.0
 10
1161.516009909274
 20
63.95819768366323
 30
0.0
 10
1162.2339678084
 20
63.95819768366323
 30
0.0
 10
1162.818256002698
 20
64.5438639161557
 30
0.0
 10
1162.818256002698
 20
65.26147730573325
 30
0.0
 10
1162.818256002698
 20
65.97977971440784
 30
0.0
 10
1162.2339678084
 20
66.56475692780326
 30
0.0
 10
1161.516009909274
 20
66.56475692780326
 30
0.0
 10
1160.797362991051
 20
66.56475692780326
 30
0.0
 10
1160.213074796752
 20
65.97977971440784
 30
0.0
 10
1160.213074796752
 20
65.26147730573325
 30
0.0
  0
HATCH
  5
5DA
330
5C8
100
AcDbEntity
  8
Layer 1
 62
   152
100
AcDbHatch
 10
0.0
 20
0.0
 30
0.0
210
0.0
220
0.0
230
1.0
  2
SOLID
 70
     1
 71
     0
 91
        4
 92
        1
 93
        1
 72
     4
 94
        3
 73
     0
 74
     1
 95
       20
 96
       16
 40
0.0
 40
0.0
 40
0.0
 40
0.0
 40
1.0
 40
1.0
 40
1.0
 40
2.0
 40
2.0
 40
2.0
 40
3.0
 40
3.0
 40
3.0
 40
4.0
 40
4.0
 40
4.0
 40
5.0
 40
5.0
 40
5.0
 40
5.0
 10
1161.267274015239
 20
65.83129609899356
 10
1161.267274015239
 20
65.83129609899356
 10
1161.562863207873
 20
65.83129609899356
 10
1161.562863207873
 20
65.83129609899356
 10
1161.721337600195
 20
65.83129609899356
 10
1161.877055916128
 20
65.78168672400597
 10
1161.877055916128
 20
65.6083984210979
 10
1161.877055916128
 20
65.40927190205046
 10
1161.753721497756
 20
65.3696533039701
 10
1161.562863207873
 20
65.3696533039701
 10
1161.562863207873
 20
65.3696533039701
 10
1161.267274015239
 20
65.3696533039701
 10
1161.267274015239
 20
65.3696533039701
 10
1161.267274015239
 20
65.3696533039701
 10
1161.267274015239
 20
65.83129609899356
 10
1161.267274015239
 20
65.83129609899356
 97
        0
 92
        1
 93
        1
 72
     4
 94
        3
 73
     0
 74
     1
 95
       35
 96
       31
 40
0.0
 40
0.0
 40
0.0
 40
0.0
 40
1.0
 40
1.0
 40
1.0
 40
2.0
 40
2.0
 40
2.0
 40
3.0
 40
3.0
 40
3.0
 40
4.0
 40
4.0
 40
4.0
 40
5.0
 40
5.0
 40
5.0
 40
6.0
 40
6.0
 40
6.0
 40
7.0
 40
7.0
 40
7.0
 40
8.0
 40
8.0
 40
8.0
 40
9.0
 40
9.0
 40
9.0
 40
10.0
 40
10.0
 40
10.0
 40
10.0
 10
1161.01716008301
 20
64.49976669394451
 10
1161.01716008301
 20
64.49976669394451
 10
1161.267274015239
 20
64.49976669394451
 10
1161.267274015239
 20
64.49976669394451
 10
1161.267274015239
 20
64.49976669394451
 10
1161.267274015239
 20
65.17466089950494
 10
1161.267274015239
 20
65.17466089950494
 10
1161.267274015239
 20
65.17466089950494
 10
1161.475357782548
 20
65.17466089950494
 10
1161.475357782548
 20
65.17466089950494
 10
1161.475357782548
 20
65.17466089950494
 10
1161.901860603622
 20
64.49976669394451
 10
1161.901860603622
 20
64.49976669394451
 10
1161.901860603622
 20
64.49976669394451
 10
1162.165754917792
 20
64.49976669394451
 10
1162.165754917792
 20
64.49976669394451
 10
1162.165754917792
 20
64.49976669394451
 10
1161.732361905747
 20
65.17466089950494
 10
1161.732361905747
 20
65.17466089950494
 10
1161.970762513327
 20
65.17466089950494
 10
1162.12648082926
 20
65.35208331699532
 10
1162.12648082926
 20
65.59702960599658
 10
1162.12648082926
 20
65.88538409811198
 10
1161.952158997706
 20
66.02628850345872
 10
1161.602137296405
 20
66.02628850345872
 10
1161.602137296405
 20
66.02628850345872
 10
1161.01716008301
 20
66.02628850345872
 10
1161.01716008301
 20
66.02628850345872
 10
1161.01716008301
 20
66.02628850345872
 10
1161.01716008301
 20
64.49976669394451
 10
1161.01716008301
 20
64.49976669394451
 97
        0
 92
        1
 93
        2
 72
     4
 94
        3
 73
     0
 74
     0
 95
       17
 96
       13
 40
0.0
 40
0.0
 40
0.0
 40
0.0
 40
0.3527777776895833
 40
0.3527777776895833
 40
0.3527777776895833
 40
0.7055555553791667
 40
0.7055555553791667
 40
0.7055555553791667
 40
1.05833333306875
 40
1.05833333306875
 40
1.05833333306875
 40
1.411111110758333
 40
1.411111110758333
 40
1.411111110758333
 40
1.411111110758333
 10
1160.461810690787
 20
65.26147730573325
 10
1160.461810690787
 20
65.88538409811198
 10
1160.913807218452
 20
66.36976452333812
 10
1161.519455004759
 20
66.36976452333812
 10
1162.118212600096
 20
66.36976452333812
 10
1162.568831089566
 20
65.88538409811198
 10
1162.568831089566
 20
65.26147730573325
 10
1162.568831089566
 20
64.6375705133545
 10
1162.118212600096
 20
64.15387910722542
 10
1161.519455004759
 20
64.15387910722542
 10
1160.913807218452
 20
64.15387910722542
 10
1160.461810690787
 20
64.6375705133545
 10
1160.461810690787
 20
65.26147730573325
 72
     1
 10
1160.461810690787
 20
65.26147730573325
 11
1160.461810690787
 21
65.26147730573325
 97
        0
 92
        1
 93
        2
 72
     4
 94
        3
 73
     0
 74
     0
 95
       17
 96
       13
 40
0.0
 40
0.0
 40
0.0
 40
0.0
 40
0.3527777776895833
 40
0.3527777776895833
 40
0.3527777776895833
 40
0.7055555553791667
 40
0.7055555553791667
 40
0.7055555553791667
 40
1.05833333306875
 40
1.05833333306875
 40
1.05833333306875
 40
1.411111110758333
 40
1.411111110758333
 40
1.411111110758333
 40
1.411111110758333
 10
1160.213074796752
 20
65.26147730573325
 10
1160.213074796752
 20
64.5438639161557
 10
1160.797362991051
 20
63.95819768366323
 10
1161.516009909274
 20
63.95819768366323
 10
1162.2339678084
 20
63.95819768366323
 10
1162.818256002698
 20
64.5438639161557
 10
1162.818256002698
 20
65.26147730573325
 10
1162.818256002698
 20
65.97977971440784
 10
1162.2339678084
 20
66.56475692780326
 10
1161.516009909274
 20
66.56475692780326
 10
1160.797362991051
 20
66.56475692780326
 10
1160.213074796752
 20
65.97977971440784
 10
1160.213074796752
 20
65.26147730573325
 72
     1
 10
1160.213074796752
 20
65.26147730573325
 11
1160.213074796752
 21
65.26147730573325
 97
        0
 75
     2
 76
     1
 98
        0
  0
ENDBLK
  5
5CB
330
5C8
100
AcDbEntity
  8
0
100
AcDbBlockEnd
  0
ENDSEC
  0
SECTION
  2
ENTITIES
  0
INSERT
  5
3D
330
1F
100
AcDbEntity
  8
Layer 1
100
AcDbBlockReference
  2
block 2
 10
0.0
 20
0.0
 30
0.0
  0
MTEXT
  5
5C7
330
1F
100
AcDbEntity
  8
Layer 1
 62
     7
100
AcDbMText
 10
1018.778124745305
 20
39.8635443693744
 30
0.0
 40
9.595555553156668
 41
0.0
 71
     7
 72
     1
  1
\fFrutiger LT Std 55 Roman|b0|i0|c0|p34;\W1;CAD Drawing: PR1181
 73
     1
 44
1.0
  0
INSERT
  5
5C9
330
1F
100
AcDbEntity
  8
Layer 1
100
AcDbBlockReference
  2
block 3
 10
0.0
 20
0.0
 30
0.0
  0
ENDSEC
  0
SECTION
  2
OBJECTS
  0
DICTIONARY
  5
C
330
0
100
AcDbDictionary
281
     1
  3
ACAD_GROUP
350
D
  3
ACAD_LAYOUT
350
1A
  3
ACAD_MLINESTYLE
350
17
  3
ACAD_PLOTSETTINGS
350
19
  3
ACAD_PLOTSTYLENAME
350
E
  3
ACAD_TABLESTYLE
350
5DB
  3
ACAD_VISUALSTYLE
350
2A
  0
DICTIONARY
  5
D
102
{ACAD_REACTORS
330
C
102
}
330
C
100
AcDbDictionary
281
     1
  0
DICTIONARY
  5
1A
102
{ACAD_REACTORS
330
C
102
}
330
C
100
AcDbDictionary
281
     1
  3
Layout1
350
1E
  3
Layout2
350
26
  3
Model
350
22
  0
DICTIONARY
  5
17
102
{ACAD_REACTORS
330
C
102
}
330
C
100
AcDbDictionary
281
     1
  3
Standard
350
18
  0
DICTIONARY
  5
19
102
{ACAD_REACTORS
330
C
102
}
330
C
100
AcDbDictionary
281
     1
  0
ACDBDICTIONARYWDFLT
  5
E
102
{ACAD_REACTORS
330
C
102
}
330
C
100
AcDbDictionary
281
     1
  3
Normal
350
F
100
AcDbDictionaryWithDefault
340
F
  0
DICTIONARY
  5
5DB
102
{ACAD_REACTORS
330
C
102
}
330
C
100
AcDbDictionary
281
     1
  0
DICTIONARY
  5
2A
102
{ACAD_REACTORS
330
C
102
}
330
C
100
AcDbDictionary
281
     1
  3
2dWireframe
350
2F
  3
3D Hidden
350
31
  3
3dWireframe
350
30
  3
Basic
350
32
  3
Brighten
350
36
  3
ColorChange
350
3A
  3
Conceptual
350
34
  3
Dim
350
35
  3
Facepattern
350
39
  3
Flat
350
2B
  3
FlatWithEdges
350
2C
  3
Gouraud
350
2D
  3
GouraudWithEdges
350
2E
  3
Linepattern
350
38
  3
Realistic
350
33
  3
Thicken
350
37
  0
LAYOUT
  5
1E
102
{ACAD_REACTORS
330
1A
102
}
330
1A
100
AcDbPlotSettings
  1

  2
none_device
  4

  6

 40
0.0
 41
0.0
 42
0.0
 43
0.0
 44
0.0
 45
0.0
 46
0.0
 47
0.0
 48
0.0
 49
0.0
140
0.0
141
0.0
142
1.0
143
1.0
 70
   688
 72
     0
 73
     0
 74
     5
  7

 75
    16
147
1.0
148
0.0
149
0.0
100
AcDbLayout
  1
Layout1
 70
     1
 71
     1
 10
0.0
 20
0.0
 11
12.0
 21
9.0
 12
0.0
 22
0.0
 32
0.0
 14
1.000000000000000E+20
 24
1.000000000000000E+20
 34
1.000000000000000E+20
 15
-1.000000000000000E+20
 25
-1.000000000000000E+20
 35
-1.000000000000000E+20
146
0.0
 13
0.0
 23
0.0
 33
0.0
 16
1.0
 26
0.0
 36
0.0
 17
0.0
 27
1.0
 37
0.0
 76
     0
330
1B
  0
LAYOUT
  5
26
102
{ACAD_REACTORS
330
1A
102
}
330
1A
100
AcDbPlotSettings
  1

  2
none_device
  4

  6

 40
0.0
 41
0.0
 42
0.0
 43
0.0
 44
0.0
 45
0.0
 46
0.0
 47
0.0
 48
0.0
 49
0.0
140
0.0
141
0.0
142
1.0
143
1.0
 70
   688
 72
     0
 73
     0
 74
     5
  7

 75
    16
147
1.0
148
0.0
149
0.0
100
AcDbLayout
  1
Layout2
 70
     1
 71
     2
 10
0.0
 20
0.0
 11
0.0
 21
0.0
 12
0.0
 22
0.0
 32
0.0
 14
0.0
 24
0.0
 34
0.0
 15
0.0
 25
0.0
 35
0.0
146
0.0
 13
0.0
 23
0.0
 33
0.0
 16
1.0
 26
0.0
 36
0.0
 17
0.0
 27
1.0
 37
0.0
 76
     0
330
23
  0
LAYOUT
  5
22
102
{ACAD_REACTORS
330
1A
102
}
330
1A
100
AcDbPlotSettings
  1

  2
none_device
  4

  6

 40
0.0
 41
0.0
 42
0.0
 43
0.0
 44
0.0
 45
0.0
 46
0.0
 47
0.0
 48
0.0
 49
0.0
140
0.0
141
0.0
142
1.0
143
1.0
 70
  1712
 72
     0
 73
     0
 74
     0
  7

 75
     0
147
1.0
148
0.0
149
0.0
100
AcDbLayout
  1
Model
 70
     1
 71
     0
 10
0.0
 20
0.0
 11
12.0
 21
9.0
 12
0.0
 22
0.0
 32
0.0
 14
1.000000000000000E+20
 24
1.000000000000000E+20
 34
1.000000000000000E+20
 15
-1.000000000000000E+20
 25
-1.000000000000000E+20
 35
-1.000000000000000E+20
146
0.0
 13
0.0
 23
0.0
 33
0.0
 16
1.0
 26
0.0
 36
0.0
 17
0.0
 27
1.0
 37
0.0
 76
     0
330
1F
331
29
  0
MLINESTYLE
  5
18
102
{ACAD_REACTORS
330
17
102
}
330
17
100
AcDbMlineStyle
  2
Standard
 70
     0
  3

 62
   256
 51
90.0
 52
90.0
 71
     2
 49
0.5
 62
   256
  6
BYLAYER
 49
-0.5
 62
   256
  6
BYLAYER
  0
ACDBPLACEHOLDER
  5
F
102
{ACAD_REACTORS
330
E
102
}
330
E
  0
VISUALSTYLE
  5
2F
102
{ACAD_REACTORS
330
2A
102
}
330
2A
100
AcDbVisualStyle
  2
2dWireframe
 70
     4
 71
     0
 72
     2
 73
     0
 90
        0
 40
-0.6
 41
-30.0
 62
     5
 63
     7
 74
     1
 91
        4
 64
     7
 65
   257
 75
     1
175
     1
 42
1.0
 92
        0
 66
   257
 43
1.0
 76
     1
 77
     6
 78
     2
 67
     7
 79
     5
170
     0
171
     0
290
     0
174
     0
 93
        1
 44
0.0
173
     0
291
     0
 45
0.0
1001
ACAD
1000
AcDbSavedByObjectVersion
1070
     0
  0
VISUALSTYLE
  5
31
102
{ACAD_REACTORS
330
2A
102
}
330
2A
100
AcDbVisualStyle
  2
3D Hidden
 70
     6
 71
     1
 72
     2
 73
     2
 90
        0
 40
-0.6
 41
-30.0
 62
     5
 63
     7
 74
     2
 91
        2
 64
     7
 65
   257
 75
     2
175
     1
 42
40.0
 92
        0
 66
   257
 43
1.0
 76
     1
 77
     6
 78
     2
 67
     7
 79
     3
170
     0
171
     0
290
     0
174
     0
 93
        1
 44
0.0
173
     0
291
     0
 45
0.0
1001
ACAD
1000
AcDbSavedByObjectVersion
1070
     0
  0
VISUALSTYLE
  5
30
102
{ACAD_REACTORS
330
2A
102
}
330
2A
100
AcDbVisualStyle
  2
3dWireframe
 70
     5
 71
     0
 72
     2
 73
     0
 90
        0
 40
-0.6
 41
-30.0
 62
     5
 63
     7
 74
     1
 91
        4
 64
     7
 65
   257
 75
     1
175
     1
 42
1.0
 92
        0
 66
   257
 43
1.0
 76
     1
 77
     6
 78
     2
 67
     7
 79
     5
170
     0
171
     0
290
     0
174
     0
 93
        1
 44
0.0
173
     0
291
     0
 45
0.0
1001
ACAD
1000
AcDbSavedByObjectVersion
1070
     0
  0
VISUALSTYLE
  5
32
102
{ACAD_REACTORS
330
2A
102
}
330
2A
100
AcDbVisualStyle
  2
Basic
 70
     7
 71
     1
 72
     0
 73
     1
 90
        0
 40
-0.6
 41
-30.0
 62
     5
 63
     7
 74
     0
 91
        4
 64
     7
 65
   257
 75
     1
175
     1
 42
1.0
 92
        8
 66
     7
 43
1.0
 76
     1
 77
     6
 78
     2
 67
     7
 79
     5
170
     0
171
     0
290
     0
174
     0
 93
        1
 44
0.0
173
     0
291
     1
 45
0.0
1001
ACAD
1000
AcDbSavedByObjectVersion
1070
     0
  0
VISUALSTYLE
  5
36
102
{ACAD_REACTORS
330
2A
102
}
330
2A
100
AcDbVisualStyle
  2
Brighten
 70
    12
 71
     2
 72
     2
 73
     0
 90
        0
 40
-0.6
 41
-30.0
 62
     5
 63
     7
 74
     1
 91
        4
 64
     7
 65
   257
 75
     1
175
     1
 42
1.0
 92
        8
 66
     7
 43
1.0
 76
     1
 77
     6
 78
     2
 67
     7
 79
     5
170
     0
171
     0
290
     0
174
     0
 93
        1
 44
50.0
173
     0
291
     1
 45
0.0
1001
ACAD
1000
AcDbSavedByObjectVersion
1070
     0
  0
VISUALSTYLE
  5
3A
102
{ACAD_REACTORS
330
2A
102
}
330
2A
100
AcDbVisualStyle
  2
ColorChange
 70
    16
 71
     2
 72
     2
 73
     3
 90
        0
 40
-0.6
 41
-30.0
 62
     5
 63
     8
 74
     1
 91
        4
 64
     7
 65
   257
 75
     1
175
     1
 42
1.0
 92
        8
 66
     8
 43
1.0
 76
     1
 77
     6
 78
     2
 67
     7
 79
     5
170
     0
171
     0
290
     0
174
     0
 93
        1
 44
0.0
173
     0
291
     1
 45
0.0
1001
ACAD
1000
AcDbSavedByObjectVersion
1070
     0
  0
VISUALSTYLE
  5
34
102
{ACAD_REACTORS
330
2A
102
}
330
2A
100
AcDbVisualStyle
  2
Conceptual
 70
     9
 71
     3
 72
     2
 73
     0
 90
        0
 40
-0.6
 41
-30.0
 62
     5
 63
     7
 74
     2
 91
        2
 64
     7
 65
   257
 75
     1
175
     1
 42
40.0
 92
        8
 66
     7
 43
1.0
 76
     1
 77
     6
 78
     2
 67
     7
 79
     3
170
     0
171
     0
290
     0
174
     0
 93
        1
 44
0.0
173
     0
291
     0
 45
0.0
1001
ACAD
1000
AcDbSavedByObjectVersion
1070
     0
  0
VISUALSTYLE
  5
35
102
{ACAD_REACTORS
330
2A
102
}
330
2A
100
AcDbVisualStyle
  2
Dim
 70
    11
 71
     2
 72
     2
 73
     0
 90
        0
 40
-0.6
 41
-30.0
 62
     5
 63
     7
 74
     1
 91
        4
 64
     7
 65
   257
 75
     1
175
     1
 42
1.0
 92
        8
 66
     7
 43
1.0
 76
     1
 77
     6
 78
     2
 67
     7
 79
     5
170
     0
171
     0
290
     0
174
     0
 93
        1
 44
-50.0
173
     0
291
     1
 45
0.0
1001
ACAD
1000
AcDbSavedByObjectVersion
1070
     0
  0
VISUALSTYLE
  5
39
102
{ACAD_REACTORS
330
2A
102
}
330
2A
100
AcDbVisualStyle
  2
Facepattern
 70
    15
 71
     2
 72
     2
 73
     0
 90
        0
 40
-0.6
 41
-30.0
 62
     5
 63
     7
 74
     1
 91
        4
 64
     7
 65
   257
 75
     1
175
     1
 42
1.0
 92
        8
 66
     7
 43
1.0
 76
     1
 77
     6
 78
     2
 67
     7
 79
     5
170
     0
171
     0
290
     0
174
     0
 93
        1
 44
0.0
173
     0
291
     1
 45
0.0
1001
ACAD
1000
AcDbSavedByObjectVersion
1070
     0
  0
VISUALSTYLE
  5
2B
102
{ACAD_REACTORS
330
2A
102
}
330
2A
100
AcDbVisualStyle
  2
Flat
 70
     0
 71
     2
 72
     1
 73
     1
 90
        2
 40
-0.6
 41
30.0
 62
     5
 63
     7
 74
     0
 91
        4
 64
     7
 65
   257
 75
     1
175
     1
 42
1.0
 92
        8
 66
     7
 43
1.0
 76
     1
 77
     6
 78
     2
 67
     7
 79
     5
170
     0
171
     0
290
     0
174
     0
 93
       13
 44
0.0
173
     0
291
     1
 45
0.0
1001
ACAD
1000
AcDbSavedByObjectVersion
1070
     0
  0
VISUALSTYLE
  5
2C
102
{ACAD_REACTORS
330
2A
102
}
330
2A
100
AcDbVisualStyle
  2
FlatWithEdges
 70
     1
 71
     2
 72
     1
 73
     1
 90
        2
 40
-0.6
 41
30.0
 62
     5
 63
     7
 74
     1
 91
        4
 64
     7
 65
   257
 75
     1
175
     1
 42
1.0
 92
        0
 66
   257
 43
1.0
 76
     1
 77
     6
 78
     2
 67
     7
 79
     5
170
     0
171
     0
290
     0
174
     0
 93
       13
 44
0.0
173
     0
291
     1
 45
0.0
1001
ACAD
1000
AcDbSavedByObjectVersion
1070
     0
  0
VISUALSTYLE
  5
2D
102
{ACAD_REACTORS
330
2A
102
}
330
2A
100
AcDbVisualStyle
  2
Gouraud
 70
     2
 71
     2
 72
     2
 73
     1
 90
        2
 40
-0.6
 41
30.0
 62
     5
 63
     7
 74
     0
 91
        4
 64
     7
 65
   257
 75
     1
175
     1
 42
1.0
 92
        0
 66
     7
 43
1.0
 76
     1
 77
     6
 78
     2
 67
     7
 79
     5
170
     0
171
     0
290
     0
174
     0
 93
       13
 44
0.0
173
     0
291
     1
 45
0.0
1001
ACAD
1000
AcDbSavedByObjectVersion
1070
     0
  0
VISUALSTYLE
  5
2E
102
{ACAD_REACTORS
330
2A
102
}
330
2A
100
AcDbVisualStyle
  2
GouraudWithEdges
 70
     3
 71
     2
 72
     2
 73
     1
 90
        2
 40
-0.6
 41
30.0
 62
     5
 63
     7
 74
     1
 91
        4
 64
     7
 65
   257
 75
     1
175
     1
 42
1.0
 92
        0
 66
   257
 43
1.0
 76
     1
 77
     6
 78
     2
 67
     7
 79
     5
170
     0
171
     0
290
     0
174
     0
 93
       13
 44
0.0
173
     0
291
     1
 45
0.0
1001
ACAD
1000
AcDbSavedByObjectVersion
1070
     0
  0
VISUALSTYLE
  5
38
102
{ACAD_REACTORS
330
2A
102
}
330
2A
100
AcDbVisualStyle
  2
Linepattern
 70
    14
 71
     2
 72
     2
 73
     0
 90
        0
 40
-0.6
 41
-30.0
 62
     5
 63
     7
 74
     1
 91
        4
 64
     7
 65
   257
 75
     7
175
     7
 42
1.0
 92
        8
 66
     7
 43
1.0
 76
     1
 77
     6
 78
     2
 67
     7
 79
     5
170
     0
171
     0
290
     0
174
     0
 93
        1
 44
0.0
173
     0
291
     1
 45
0.0
1001
ACAD
1000
AcDbSavedByObjectVersion
1070
     0
  0
VISUALSTYLE
  5
33
102
{ACAD_REACTORS
330
2A
102
}
330
2A
100
AcDbVisualStyle
  2
Realistic
 70
     8
 71
     2
 72
     2
 73
     0
 90
        0
 40
-0.6
 41
-30.0
 62
     5
 63
     7
 74
     1
 91
        0
 64
     7
 65
   257
 75
     1
175
     1
 42
1.0
 92
        8
 66
     8
 43
1.0
 76
     1
 77
     6
 78
     2
 67
     7
 79
     5
170
     0
171
     0
290
     0
174
     0
 93
       13
 44
0.0
173
     0
291
     0
 45
0.0
1001
ACAD
1000
AcDbSavedByObjectVersion
1070
     0
  0
VISUALSTYLE
  5
37
102
{ACAD_REACTORS
330
2A
102
}
330
2A
100
AcDbVisualStyle
  2
Thicken
 70
    13
 71
     2
 72
     2
 73
     0
 90
        0
 40
-0.6
 41
-30.0
 62
     5
 63
     7
 74
     1
 91
        4
 64
     7
 65
   257
 75
     1
175
     1
 42
1.0
 92
       12
 66
     7
 43
1.0
 76
     1
 77
     6
 78
     2
 67
     7
 79
     5
170
     0
171
     0
290
     0
174
     0
 93
        1
 44
0.0
173
     0
291
     1
 45
0.0
1001
ACAD
1000
AcDbSavedByObjectVersion
1070
     0
  0
ENDSEC
  0
EOF
