  0
SECTION
  2
HEADER
  9
$ACADVER
  1
AC1009
  9
$INSBASE
 10
0.0
 20
0.0
 30
0.0
  9
$EXTMIN
 10
47.242946046629982
 20
91.373145658625262
 30
0.0
  9
$EXTMAX
 10
621.34261270582272
 20
546.72437674964817
 30
0.0
  9
$LIMMIN
 10
0.0
 20
0.0
  9
$LIMMAX
 10
841.0
 20
594.0
  9
$ORTHOMODE
 70
     0
  9
$REGENMODE
 70
     1
  9
$FILLMODE
 70
     1
  9
$QTEXTMODE
 70
     0
  9
$MIRRTEXT
 70
     1
  9
$DRAGMODE
 70
     2
  9
$LTSCALE
 40
1.0
  9
$OSMODE
 70
    37
  9
$ATTMODE
 70
     1
  9
$TEXTSIZE
 40
2.5
  9
$TRACEWID
 40
1.0
  9
$TEXTSTYLE
  7
STANDARD
  9
$CLAYER
  8
0
  9
$CELTYPE
  6
BYLAYER
  9
$CECOLOR
 62
   256
  9
$DIMSCALE
 40
1.0
  9
$DIMASZ
 40
6.0
  9
$DIMEXO
 40
1.0
  9
$DIMDLI
 40
3.75
  9
$DIMRND
 40
0.0
  9
$DIMDLE
 40
0.0
  9
$DIMEXE
 40
1.0
  9
$DIMTP
 40
0.0
  9
$DIMTM
 40
0.0
  9
$DIMTXT
 40
3.5
  9
$DIMCEN
 40
2.5
  9
$DIMTSZ
 40
0.0
  9
$DIMTOL
 70
     0
  9
$DIMLIM
 70
     0
  9
$DIMTIH
 70
     1
  9
$DIMTOH
 70
     1
  9
$DIMSE1
 70
     0
  9
$DIMSE2
 70
     0
  9
$DIMTAD
 70
     1
  9
$DIMZIN
 70
     0
  9
$DIMBLK
  1

  9
$DIMASO
 70
     1
  9
$DIMSHO
 70
     1
  9
$DIMPOST
  1

  9
$DIMAPOST
  1

  9
$DIMALT
 70
     0
  9
$DIMALTD
 70
     3
  9
$DIMALTF
 40
0.0393700787401575
  9
$DIMLFAC
 40
1.0
  9
$DIMTOFL
 70
     1
  9
$DIMTVP
 40
0.0
  9
$DIMTIX
 70
     0
  9
$DIMSOXD
 70
     0
  9
$DIMSAH
 70
     0
  9
$DIMBLK1
  1

  9
$DIMBLK2
  1

  9
$DIMSTYLE
  2
ISO-25
  9
$DIMCLRD
 70
     0
  9
$DIMCLRE
 70
     0
  9
$DIMCLRT
 70
     0
  9
$DIMTFAC
 40
1.0
  9
$DIMGAP
 40
1.524
  9
$LUNITS
 70
     2
  9
$LUPREC
 70
     2
  9
$SKETCHINC
 40
1.0
  9
$FILLETRAD
 40
10.0
  9
$AUNITS
 70
     0
  9
$AUPREC
 70
     0
  9
$MENU
  1
.
  9
$ELEVATION
 40
0.0
  9
$PELEVATION
 40
0.0
  9
$THICKNESS
 40
0.0
  9
$LIMCHECK
 70
     0
  9
$BLIPMODE
 70
     0
  9
$CHAMFERA
 40
10.0
  9
$CHAMFERB
 40
10.0
  9
$SKPOLY
 70
     0
  9
$TDCREATE
 40
2454524.8448690511
  9
$TDUPDATE
 40
2455958.6232103929
  9
$TDINDWG
 40
0.0197289583
  9
$TDUSRTIMER
 40
0.0197289583
  9
$USRTIMER
 70
     1
  9
$ANGBASE
 50
0.0
  9
$ANGDIR
 70
     0
  9
$PDMODE
 70
     0
  9
$PDSIZE
 40
-1.0
  9
$PLINEWID
 40
0.0
  9
$COORDS
 70
     0
  9
$SPLFRAME
 70
     0
  9
$SPLINETYPE
 70
     6
  9
$SPLINESEGS
 70
     8
  9
$ATTDIA
 70
     0
  9
$ATTREQ
 70
     1
  9
$HANDLING
 70
     1
  9
$HANDSEED
  5
142
  9
$SURFTAB1
 70
     6
  9
$SURFTAB2
 70
     6
  9
$SURFTYPE
 70
     6
  9
$SURFU
 70
     6
  9
$SURFV
 70
     6
  9
$UCSNAME
  2

  9
$UCSORG
 10
0.0
 20
0.0
 30
0.0
  9
$UCSXDIR
 10
1.0
 20
0.0
 30
0.0
  9
$UCSYDIR
 10
0.0
 20
1.0
 30
0.0
  9
$PUCSNAME
  2

  9
$PUCSORG
 10
0.0
 20
0.0
 30
0.0
  9
$PUCSXDIR
 10
1.0
 20
0.0
 30
0.0
  9
$PUCSYDIR
 10
0.0
 20
1.0
 30
0.0
  9
$USERI1
 70
     0
  9
$USERI2
 70
     0
  9
$USERI3
 70
     0
  9
$USERI4
 70
     0
  9
$USERI5
 70
     0
  9
$USERR1
 40
0.0
  9
$USERR2
 40
0.0
  9
$USERR3
 40
0.0
  9
$USERR4
 40
0.0
  9
$USERR5
 40
0.0
  9
$WORLDVIEW
 70
     1
  9
$SHADEDGE
 70
     3
  9
$SHADEDIF
 70
    70
  9
$TILEMODE
 70
     1
  9
$MAXACTVP
 70
    64
  9
$PLIMCHECK
 70
     0
  9
$PEXTMIN
 10
1.0000000000000000E+020
 20
1.0000000000000000E+020
 30
1.0000000000000000E+020
  9
$PEXTMAX
 10
-1.0000000000000000E+020
 20
-1.0000000000000000E+020
 30
-1.0000000000000000E+020
  9
$PLIMMIN
 10
0.0
 20
0.0
  9
$PLIMMAX
 10
420.0
 20
297.0
  9
$UNITMODE
 70
     0
  9
$VISRETAIN
 70
     1
  9
$PLINEGEN
 70
     0
  9
$PSLTSCALE
 70
     1
  0
ENDSEC
  0
SECTION
  2
TABLES
  0
TABLE
  2
VPORT
 70
     4
  0
VPORT
  2
*ACTIVE
 70
     0
 10
0.0
 20
0.0
 11
1.0
 21
1.0
 12
300.26455702617568
 22
381.15050585984091
 13
0.0
 23
0.0
 14
10.0
 24
10.0
 15
10.0
 25
10.0
 16
0.0
 26
0.0
 36
1.0
 17
0.0
 27
0.0
 37
0.0
 40
792.9602117668901
 41
1.9851668726823231
 42
50.0
 43
0.0
 44
0.0
 50
0.0
 51
0.0
 71
     0
 72
  2000
 73
     1
 74
     3
 75
     0
 76
     0
 77
     0
 78
     0
  0
ENDTAB
  0
TABLE
  2
LTYPE
 70
     6
  0
LTYPE
  2
CONTINUOUS
 70
     0
  3
Solid line
 72
    65
 73
     0
 40
0.0
  0
LTYPE
  2
HIDDEN
 70
     0
  3
Hidden __ __ __ __ __ __ __ __ __ __ __ __ __ __
 72
    65
 73
     2
 40
1.905
 49
1.27
 49
-0.635
  0
LTYPE
  2
PHANTOM
 70
     0
  3
Phantom ______  __  __  ______  __  __  ______
 72
    65
 73
     6
 40
12.699999999999999
 49
6.3499999999999988
 49
-1.27
 49
1.27
 49
-1.27
 49
1.27
 49
-1.27
  0
LTYPE
  2
CENTER
 70
     0
  3
Center ____ _ ____ _ ____ _ ____ _ ____ _ ____
 72
    65
 73
     4
 40
10.16
 49
6.3499999999999988
 49
-1.27
 49
1.27
 49
-1.27
  0
LTYPE
  2
CENTERX2
 70
     0
  3
Center (2x) ________  __  ________  __  _____
 72
    65
 73
     4
 40
20.32
 49
12.699999999999999
 49
-2.54
 49
2.54
 49
-2.54
  0
LTYPE
  2
DOT2
 70
     0
  3
Dot (.5x) ........................................
 72
    65
 73
     2
 40
0.635
 49
0.0
 49
-0.635
  0
ENDTAB
  0
TABLE
  2
LAYER
 70
     3
  0
LAYER
  2
0
 70
     0
 62
     7
  6
CONTINUOUS
  0
LAYER
  2
FORMAT
 70
     0
 62
     7
  6
CONTINUOUS
  0
LAYER
  2
DEFPOINTS
 70
     0
 62
     7
  6
CONTINUOUS
  0
ENDTAB
  0
TABLE
  2
STYLE
 70
     1
  0
STYLE
  2
STANDARD
 70
     0
 40
0.0
 41
1.0
 50
0.0
 71
     0
 42
2.5
  3
txt
  4

  0
ENDTAB
  0
TABLE
  2
VIEW
 70
     0
  0
ENDTAB
  0
TABLE
  2
UCS
 70
     0
  0
ENDTAB
  0
TABLE
  2
APPID
 70
     1
  0
APPID
  2
ACAD
 70
     0
  0
ENDTAB
  0
TABLE
  2
DIMSTYLE
 70
     1
  0
DIMSTYLE
  2
ISO-25
 70
     0
  3

  4

  5

  6

  7

 40
1.0
 41
2.5
 42
0.625
 43
3.75
 44
1.25
 45
0.0
 46
0.0
 47
0.0
 48
0.0
140
2.5
141
2.5
142
0.0
143
0.03937007874016
144
1.0
145
0.0
146
1.0
147
0.625
 71
     0
 72
     0
 73
     0
 74
     0
 75
     0
 76
     0
 77
     1
 78
     8
170
     0
171
     3
172
     1
173
     0
174
     0
175
     0
176
     0
177
     0
178
     0
  0
ENDTAB
  0
ENDSEC
  0
SECTION
  2
BLOCKS
  0
BLOCK
  8
0
  2
$MODEL_SPACE
 70
     0
 10
0.0
 20
0.0
 30
0.0
  3
$MODEL_SPACE
  1

  0
ENDBLK
  5
21
  8
0
  0
BLOCK
 67
     1
  8
0
  2
$PAPER_SPACE
 70
     0
 10
0.0
 20
0.0
 30
0.0
  3
$PAPER_SPACE
  1

  0
ENDBLK
  5
1D
 67
     1
  8
0
  0
BLOCK
  8
0
  2
*D2
 70
     1
 10
0.0
 20
0.0
 30
0.0
  3
*D2
  1

  0
LINE
  5
C5
  8
0
 62
     0
 10
540.91756724908873
 20
499.54776686108403
 30
0.0
 11
613.88427937248935
 21
499.54776686108403
 31
0.0
  0
LINE
  5
C6
  8
0
 62
     0
 10
540.91756724908873
 20
93.547766861084014
 30
0.0
 11
613.88427937248923
 21
93.547766861083986
 31
0.0
  0
LINE
  5
C7
  8
0
 62
     0
 10
612.88427937248935
 20
493.54776686108409
 30
0.0
 11
612.88427937248935
 21
300.11343352775071
 31
0.0
  0
LINE
  5
C8
  8
0
 62
     0
 10
612.88427937248923
 20
99.547766861083986
 30
0.0
 11
612.88427937248935
 21
292.98210019441728
 31
0.0
  0
SOLID
  5
C9
  8
0
 62
     0
 10
611.88427937248935
 20
493.54776686108409
 30
0.0
 11
613.88427937248935
 21
493.54776686108409
 31
0.0
 12
612.88427937248935
 22
499.54776686108403
 32
0.0
 13
612.88427937248935
 23
499.54776686108403
 33
0.0
  0
SOLID
  5
CA
  8
0
 62
     0
 10
611.88427937248923
 20
99.547766861083986
 30
0.0
 11
613.88427937248923
 21
99.547766861083986
 31
0.0
 12
612.88427937248923
 22
93.547766861083986
 32
0.0
 13
612.88427937248923
 23
93.547766861083986
 33
0.0
  0
INSERT
  5
CB
  8
0
  2
*U8
 10
0.0
 20
0.0
 30
0.0
  0
POINT
  5
CC
  8
DEFPOINTS
 62
     0
 10
539.91756724908873
 20
499.54776686108403
 30
0.0
  0
POINT
  5
CD
  8
DEFPOINTS
 62
     0
 10
539.91756724908873
 20
93.547766861084014
 30
0.0
  0
POINT
  5
CE
  8
DEFPOINTS
 62
     0
 10
612.88427937248923
 20
93.547766861083986
 30
0.0
  0
ENDBLK
  5
9A
  8
0
  0
BLOCK
  8
0
  2
*D3
 70
     1
 10
0.0
 20
0.0
 30
0.0
  3
*D3
  1

  0
LINE
  5
B2
  8
0
 62
     0
 10
550.41756724908873
 20
490.04776686108403
 30
0.0
 11
550.41756724908873
 21
542.1170434163148
 31
0.0
  0
LINE
  5
B3
  8
0
 62
     0
 10
49.417567249088741
 20
490.04776686108391
 30
0.0
 11
49.417567249088741
 21
542.1170434163148
 31
0.0
  0
LINE
  5
B4
  8
0
 62
     0
 10
544.41756724908873
 20
541.1170434163148
 30
0.0
 11
55.417567249088727
 21
541.1170434163148
 31
0.0
  0
SOLID
  5
B5
  8
0
 62
     0
 10
544.41756724908873
 20
542.1170434163148
 30
0.0
 11
544.41756724908873
 21
540.11704341631469
 31
0.0
 12
550.41756724908873
 22
541.1170434163148
 32
0.0
 13
550.41756724908873
 23
541.1170434163148
 33
0.0
  0
SOLID
  5
B6
  8
0
 62
     0
 10
55.417567249088727
 20
542.1170434163148
 30
0.0
 11
55.417567249088727
 21
540.11704341631469
 31
0.0
 12
49.417567249088741
 22
541.1170434163148
 32
0.0
 13
49.417567249088741
 23
541.1170434163148
 33
0.0
  0
INSERT
  5
B7
  8
0
  2
*U7
 10
0.0
 20
0.0
 30
0.0
  0
POINT
  5
B8
  8
DEFPOINTS
 62
     0
 10
550.41756724908873
 20
489.04776686108409
 30
0.0
  0
POINT
  5
B9
  8
DEFPOINTS
 62
     0
 10
49.417567249088741
 20
489.04776686108403
 30
0.0
  0
POINT
  5
BA
  8
DEFPOINTS
 62
     0
 10
49.417567249088741
 20
541.1170434163148
 30
0.0
  0
ENDBLK
  5
A7
  8
0
  0
BLOCK
  8
0
  2
*D4
 70
     1
 10
0.0
 20
0.0
 30
0.0
  3
*D4
  1

  0
LINE
  5
D1
  8
0
 62
     0
 10
532.75878400878923
 20
487.4176682744947
 30
0.0
 11
538.75878400878923
 21
487.4176682744947
 31
0.0
  0
LINE
  5
D2
  8
0
 62
     0
 10
538.75878400878923
 20
487.4176682744947
 30
0.0
 11
542.23513372968728
 21
492.30796403426331
 31
0.0
  0
INSERT
  5
D3
  8
0
  2
*U9
 10
0.0
 20
0.0
 30
0.0
  0
SOLID
  5
D4
  8
0
 62
     0
 10
541.42008443639247
 20
492.88735565441311
 30
0.0
 11
543.05018302298208
 21
491.72857241411361
 31
0.0
 12
545.71148345058555
 22
497.19825979403203
 32
0.0
 13
545.71148345058555
 23
497.19825979403203
 33
0.0
  0
POINT
  5
D5
  8
DEFPOINTS
 62
     0
 10
545.71148345058555
 20
497.19825979403203
 30
0.0
  0
POINT
  5
D6
  8
DEFPOINTS
 62
     0
 10
539.91756724908805
 20
489.04776686108352
 30
0.0
  0
ENDBLK
  5
D8
  8
0
  0
BLOCK
  8
0
  2
*D5
 70
     1
 10
0.0
 20
0.0
 30
0.0
  3
*D5
  1

  0
LINE
  5
E4
  8
0
 62
     0
 10
603.37070404127428
 20
525.99537463105628
 30
0.0
 11
586.09670404127428
 21
525.99537463105628
 31
0.0
  0
LINE
  5
E5
  8
0
 62
     0
 10
586.09670404127428
 20
525.99537463105628
 30
0.0
 11
552.80131760146185
 21
499.35596635749113
 31
0.0
  0
INSERT
  5
E6
  8
0
  2
*U10
 10
0.0
 20
0.0
 30
0.0
  0
LINE
  5
E7
  8
0
 62
     0
 10
539.91756724908907
 20
489.04776686108409
 30
0.0
 11
548.11631747332626
 21
495.60753017697942
 31
0.0
  0
SOLID
  5
E8
  8
0
 62
     0
 10
552.17657823804325
 20
500.13679971218028
 30
0.0
 11
553.42605696488056
 21
498.57513300280181
 31
0.0
 12
548.11631747332626
 22
495.60753017697942
 32
0.0
 13
548.11631747332626
 23
495.60753017697942
 33
0.0
  0
POINT
  5
E9
  8
DEFPOINTS
 62
     0
 10
548.11631747332626
 20
495.60753017697942
 30
0.0
  0
POINT
  5
EA
  8
DEFPOINTS
 62
     0
 10
539.91756724908907
 20
489.04776686108409
 30
0.0
  0
ENDBLK
  5
E3
  8
0
  0
BLOCK
  8
0
  2
*U6
 70
     1
 10
0.0
 20
0.0
 30
0.0
  3
*U6
  1

  0
TEXT
  5
126
  8
0
 62
     0
 10
731.27005708812248
 20
293.79604973034378
 30
0.0
 40
3.5
  1
457,20
  0
ENDBLK
  5
128
  8
0
  0
BLOCK
  8
0
  2
*U7
 70
     1
 10
0.0
 20
0.0
 30
0.0
  3
*U7
  1

  0
TEXT
  5
133
  8
0
 62
     0
 10
292.33423391575542
 20
543.22437674964794
 30
0.0
 40
3.5
  1
501,00
  0
ENDBLK
  5
135
  8
0
  0
BLOCK
  8
0
  2
*U8
 70
     1
 10
0.0
 20
0.0
 30
0.0
  3
*U8
  1

  0
TEXT
  5
137
  8
0
 62
     0
 10
604.7176127058226
 20
295.08943352775083
 30
0.0
 40
3.5
  1
406,00
  0
ENDBLK
  5
139
  8
0
  0
BLOCK
  8
0
  2
*U9
 70
     1
 10
0.0
 20
0.0
 30
0.0
  3
*U9
  1

  0
TEXT
  5
13B
  8
0
 62
     0
 10
516.06811734212249
 20
485.95933494116127
 30
0.0
 40
3.5
  1
R10,00
  0
ENDBLK
  5
13D
  8
0
  0
BLOCK
  8
0
  2
*U10
 70
     1
 10
0.0
 20
0.0
 30
0.0
  3
*U10
  1

  0
TEXT
  5
13F
  8
0
 62
     0
 10
587.62070404127439
 20
528.10270796438965
 30
0.0
 40
3.5
  1
R10,50
  0
ENDBLK
  5
141
  8
0
  0
ENDSEC
  0
SECTION
  2
ENTITIES
  0
POLYLINE
  5
A8
  8
0
 66
     1
 10
0.0
 20
0.0
 30
0.0
 70
     1
  0
VERTEX
  5
129
  8
0
 10
59.917567249088727
 20
93.547766861084028
 30
0.0
  0
VERTEX
  5
12A
  8
0
 10
539.91756724908873
 20
93.547766861084014
 30
0.0
 42
0.4142135623730951
  0
VERTEX
  5
12B
  8
0
 10
550.41756724908873
 20
104.047766861084
 30
0.0
  0
VERTEX
  5
12C
  8
0
 10
550.41756724908873
 20
489.04776686108409
 30
0.0
 42
0.4142135623730951
  0
VERTEX
  5
12D
  8
0
 10
539.91756724908873
 20
499.54776686108403
 30
0.0
  0
VERTEX
  5
12E
  8
0
 10
59.917567249088727
 20
499.54776686108403
 30
0.0
 42
0.4142135623730951
  0
VERTEX
  5
12F
  8
0
 10
49.417567249088741
 20
489.04776686108403
 30
0.0
  0
VERTEX
  5
130
  8
0
 10
49.417567249088741
 20
104.047766861084
 30
0.0
 42
0.4142135623730951
  0
SEQEND
  5
131
  8
0
  0
ENDSEC
  0
EOF
