  0
SECTION
  2
HEADER
  9
$ACADVER
  1
AC1015
  9
$ACADMAINTVER
 70
     6
  9
$DWGCODEPAGE
  3
ANSI_1252
  9
$INSBASE
 10
0.0
 20
0.0
 30
0.0
  9
$EXTMIN
 10
1.000000000000000E+20
 20
1.000000000000000E+20
 30
1.000000000000000E+20
  9
$EXTMAX
 10
-1.000000000000000E+20
 20
-1.000000000000000E+20
 30
-1.000000000000000E+20
  9
$LIMMIN
 10
0.0
 20
0.0
  9
$LIMMAX
 10
12.0
 20
9.0
  9
$ORTHOMODE
 70
     0
  9
$REGENMODE
 70
     1
  9
$FILLMODE
 70
     1
  9
$QTEXTMODE
 70
     0
  9
$MIRRTEXT
 70
     1
  9
$LTSCALE
 40
1.0
  9
$ATTMODE
 70
     1
  9
$TEXTSIZE
 40
0.2
  9
$TRACEWID
 40
0.05
  9
$TEXTSTYLE
  7
Standard
  9
$CLAYER
  8
0
  9
$CELTYPE
  6
ByLayer
  9
$CECOLOR
 62
   256
  9
$CELTSCALE
 40
1.0
  9
$DISPSILH
 70
     0
  9
$DIMSCALE
 40
1.0
  9
$DIMASZ
 40
0.18
  9
$DIMEXO
 40
0.0625
  9
$DIMDLI
 40
0.38
  9
$DIMRND
 40
0.0
  9
$DIMDLE
 40
0.0
  9
$DIMEXE
 40
0.18
  9
$DIMTP
 40
0.0
  9
$DIMTM
 40
0.0
  9
$DIMTXT
 40
0.18
  9
$DIMCEN
 40
0.09
  9
$DIMTSZ
 40
0.0
  9
$DIMTOL
 70
     0
  9
$DIMLIM
 70
     0
  9
$DIMTIH
 70
     1
  9
$DIMTOH
 70
     1
  9
$DIMSE1
 70
     0
  9
$DIMSE2
 70
     0
  9
$DIMTAD
 70
     0
  9
$DIMZIN
 70
     0
  9
$DIMBLK
  1

  9
$DIMASO
 70
     1
  9
$DIMSHO
 70
     1
  9
$DIMPOST
  1

  9
$DIMAPOST
  1

  9
$DIMALT
 70
     0
  9
$DIMALTD
 70
     2
  9
$DIMALTF
 40
25.4
  9
$DIMLFAC
 40
1.0
  9
$DIMTOFL
 70
     0
  9
$DIMTVP
 40
0.0
  9
$DIMTIX
 70
     0
  9
$DIMSOXD
 70
     0
  9
$DIMSAH
 70
     0
  9
$DIMBLK1
  1

  9
$DIMBLK2
  1

  9
$DIMSTYLE
  2
Standard
  9
$DIMCLRD
 70
     0
  9
$DIMCLRE
 70
     0
  9
$DIMCLRT
 70
     0
  9
$DIMTFAC
 40
1.0
  9
$DIMGAP
 40
0.09
  9
$DIMJUST
 70
     0
  9
$DIMSD1
 70
     0
  9
$DIMSD2
 70
     0
  9
$DIMTOLJ
 70
     1
  9
$DIMTZIN
 70
     0
  9
$DIMALTZ
 70
     0
  9
$DIMALTTZ
 70
     0
  9
$DIMUPT
 70
     0
  9
$DIMDEC
 70
     4
  9
$DIMTDEC
 70
     4
  9
$DIMALTU
 70
     2
  9
$DIMALTTD
 70
     2
  9
$DIMTXSTY
  7
Standard
  9
$DIMAUNIT
 70
     0
  9
$DIMADEC
 70
     0
  9
$DIMALTRND
 40
0.0
  9
$DIMAZIN
 70
     0
  9
$DIMDSEP
 70
    46
  9
$DIMATFIT
 70
     3
  9
$DIMFRAC
 70
     0
  9
$DIMLDRBLK
  1

  9
$DIMLUNIT
 70
     2
  9
$DIMLWD
 70
    -2
  9
$DIMLWE
 70
    -2
  9
$DIMTMOVE
 70
     0
  9
$LUNITS
 70
     2
  9
$LUPREC
 70
     4
  9
$SKETCHINC
 40
0.1
  9
$FILLETRAD
 40
0.5
  9
$AUNITS
 70
     0
  9
$AUPREC
 70
     0
  9
$MENU
  1
.
  9
$ELEVATION
 40
0.0
  9
$PELEVATION
 40
0.0
  9
$THICKNESS
 40
0.0
  9
$LIMCHECK
 70
     0
  9
$CHAMFERA
 40
0.5
  9
$CHAMFERB
 40
0.5
  9
$CHAMFERC
 40
1.0
  9
$CHAMFERD
 40
0.0
  9
$SKPOLY
 70
     0
  9
$TDCREATE
 40
2456510.503855463
  9
$TDUCREATE
 40
2456510.10802213
  9
$TDUPDATE
 40
2456510.503855475
  9
$TDUUPDATE
 40
2456510.108022141
  9
$TDINDWG
 40
0.0000000116
  9
$TDUSRTIMER
 40
0.0000000116
  9
$USRTIMER
 70
     1
  9
$ANGBASE
 50
0.0
  9
$ANGDIR
 70
     0
  9
$PDMODE
 70
     0
  9
$PDSIZE
 40
0.0
  9
$PLINEWID
 40
0.0
  9
$SPLFRAME
 70
     0
  9
$SPLINETYPE
 70
     6
  9
$SPLINESEGS
 70
     8
  9
$HANDSEED
  5
649
  9
$SURFTAB1
 70
     6
  9
$SURFTAB2
 70
     6
  9
$SURFTYPE
 70
     6
  9
$SURFU
 70
     6
  9
$SURFV
 70
     6
  9
$UCSBASE
  2

  9
$UCSNAME
  2

  9
$UCSORG
 10
0.0
 20
0.0
 30
0.0
  9
$UCSXDIR
 10
1.0
 20
0.0
 30
0.0
  9
$UCSYDIR
 10
0.0
 20
1.0
 30
0.0
  9
$UCSORTHOREF
  2

  9
$UCSORTHOVIEW
 70
     0
  9
$UCSORGTOP
 10
0.0
 20
0.0
 30
0.0
  9
$UCSORGBOTTOM
 10
0.0
 20
0.0
 30
0.0
  9
$UCSORGLEFT
 10
0.0
 20
0.0
 30
0.0
  9
$UCSORGRIGHT
 10
0.0
 20
0.0
 30
0.0
  9
$UCSORGFRONT
 10
0.0
 20
0.0
 30
0.0
  9
$UCSORGBACK
 10
0.0
 20
0.0
 30
0.0
  9
$PUCSBASE
  2

  9
$PUCSNAME
  2

  9
$PUCSORG
 10
0.0
 20
0.0
 30
0.0
  9
$PUCSXDIR
 10
1.0
 20
0.0
 30
0.0
  9
$PUCSYDIR
 10
0.0
 20
1.0
 30
0.0
  9
$PUCSORTHOREF
  2

  9
$PUCSORTHOVIEW
 70
     0
  9
$PUCSORGTOP
 10
0.0
 20
0.0
 30
0.0
  9
$PUCSORGBOTTOM
 10
0.0
 20
0.0
 30
0.0
  9
$PUCSORGLEFT
 10
0.0
 20
0.0
 30
0.0
  9
$PUCSORGRIGHT
 10
0.0
 20
0.0
 30
0.0
  9
$PUCSORGFRONT
 10
0.0
 20
0.0
 30
0.0
  9
$PUCSORGBACK
 10
0.0
 20
0.0
 30
0.0
  9
$USERI1
 70
     0
  9
$USERI2
 70
     0
  9
$USERI3
 70
     0
  9
$USERI4
 70
     0
  9
$USERI5
 70
     0
  9
$USERR1
 40
0.0
  9
$USERR2
 40
0.0
  9
$USERR3
 40
0.0
  9
$USERR4
 40
0.0
  9
$USERR5
 40
0.0
  9
$WORLDVIEW
 70
     1
  9
$SHADEDGE
 70
     3
  9
$SHADEDIF
 70
    70
  9
$TILEMODE
 70
     1
  9
$MAXACTVP
 70
    64
  9
$PINSBASE
 10
0.0
 20
0.0
 30
0.0
  9
$PLIMCHECK
 70
     0
  9
$PEXTMIN
 10
1.000000000000000E+20
 20
1.000000000000000E+20
 30
1.000000000000000E+20
  9
$PEXTMAX
 10
-1.000000000000000E+20
 20
-1.000000000000000E+20
 30
-1.000000000000000E+20
  9
$PLIMMIN
 10
0.0
 20
0.0
  9
$PLIMMAX
 10
12.0
 20
9.0
  9
$UNITMODE
 70
     0
  9
$VISRETAIN
 70
     1
  9
$PLINEGEN
 70
     0
  9
$PSLTSCALE
 70
     1
  9
$TREEDEPTH
 70
  3020
  9
$CMLSTYLE
  2
Standard
  9
$CMLJUST
 70
     0
  9
$CMLSCALE
 40
1.0
  9
$PROXYGRAPHICS
 70
     1
  9
$MEASUREMENT
 70
     0
  9
$CELWEIGHT
370
    -1
  9
$ENDCAPS
280
     0
  9
$JOINSTYLE
280
     0
  9
$LWDISPLAY
290
     1
  9
$INSUNITS
 70
     1
  9
$HYPERLINKBASE
  1

  9
$STYLESHEET
  1

  9
$XEDIT
290
     1
  9
$CEPSNTYPE
380
     0
  9
$PSTYLEMODE
290
     1
  9
$FINGERPRINTGUID
  2
{ED3F3D90-6D91-4408-8AE8-1764B0552CF4}
  9
$VERSIONGUID
  2
{FAEB1C32-E019-11D5-929B-00C0DF256EC4}
  9
$EXTNAMES
290
     1
  9
$PSVPSCALE
 40
0.0
  9
$OLESTARTUP
290
     0
  0
ENDSEC
  0
SECTION
  2
CLASSES
  0
CLASS
  1
ACDBDICTIONARYWDFLT
  2
AcDbDictionaryWithDefault
  3
ObjectDBX Classes
 90
        0
280
     0
281
     0
  0
CLASS
  1
VISUALSTYLE
  2
AcDbVisualStyle
  3
ObjectDBX Classes
 90
     4095
280
     0
281
     0
  0
CLASS
  1
ACDBPLACEHOLDER
  2
AcDbPlaceHolder
  3
ObjectDBX Classes
 90
        0
280
     0
281
     0
  0
CLASS
  1
LAYOUT
  2
AcDbLayout
  3
ObjectDBX Classes
 90
        0
280
     0
281
     0
  0
ENDSEC
  0
SECTION
  2
TABLES
  0
TABLE
  2
VPORT
  5
8
330
0
100
AcDbSymbolTable
 70
     1
  0
VPORT
  5
29
330
8
100
AcDbSymbolTableRecord
100
AcDbViewportTableRecord
  2
*Active
 70
     0
 10
0.0
 20
0.0
 11
1.0
 21
1.0
 12
0.0
 22
0.0
 13
0.0
 23
0.0
 14
0.5
 24
0.5
 15
0.5
 25
0.5
 16
0.0
 26
0.0
 36
1.0
 17
437.350996120046
 27
767.6422910678551
 37
0.0
 40
1535.28458213571
 41
0.97898477381755
 42
50.0
 43
0.0
 44
0.0
 50
0.0
 51
0.0
 71
     0
 72
   100
 73
     1
 74
     3
 75
     0
 76
     0
 77
     0
 78
     0
281
     0
 65
     1
110
0.0
120
0.0
130
0.0
111
1.0
121
0.0
131
0.0
112
0.0
122
1.0
132
0.0
 79
     0
146
0.0
  0
ENDTAB
  0
TABLE
  2
LTYPE
  5
5
330
0
100
AcDbSymbolTable
 70
     1
  0
LTYPE
  5
14
330
5
100
AcDbSymbolTableRecord
100
AcDbLinetypeTableRecord
  2
ByBlock
 70
     0
  3

 72
    65
 73
     0
 40
0.0
  0
LTYPE
  5
15
330
5
100
AcDbSymbolTableRecord
100
AcDbLinetypeTableRecord
  2
ByLayer
 70
     0
  3

 72
    65
 73
     0
 40
0.0
  0
LTYPE
  5
16
330
5
100
AcDbSymbolTableRecord
100
AcDbLinetypeTableRecord
  2
Continuous
 70
     0
  3
Solid line
 72
    65
 73
     0
 40
0.0
  0
ENDTAB
  0
TABLE
  2
LAYER
  5
2
330
0
100
AcDbSymbolTable
 70
     2
  0
LAYER
  5
10
330
2
100
AcDbSymbolTableRecord
100
AcDbLayerTableRecord
  2
0
 70
     0
 62
     7
  6
Continuous
370
    -3
390
F
  0
LAYER
  5
3B
330
2
100
AcDbSymbolTableRecord
100
AcDbLayerTableRecord
  2
Layer 1
 70
     0
 62
     7
  6
Continuous
370
    -3
390
F
  0
ENDTAB
  0
TABLE
  2
STYLE
  5
3
330
0
100
AcDbSymbolTable
 70
     1
  0
STYLE
  5
11
330
3
100
AcDbSymbolTableRecord
100
AcDbTextStyleTableRecord
  2
Standard
 70
     0
 40
0.0
 41
1.0
 50
0.0
 71
     0
 42
0.2
  3
txt
  4

  0
ENDTAB
  0
TABLE
  2
VIEW
  5
6
330
0
100
AcDbSymbolTable
 70
     0
  0
ENDTAB
  0
TABLE
  2
UCS
  5
7
330
0
100
AcDbSymbolTable
 70
     0
  0
ENDTAB
  0
TABLE
  2
APPID
  5
9
330
0
100
AcDbSymbolTable
 70
     1
  0
APPID
  5
12
330
9
100
AcDbSymbolTableRecord
100
AcDbRegAppTableRecord
  2
ACAD
 70
     0
  0
ENDTAB
  0
TABLE
  2
DIMSTYLE
  5
A
330
0
100
AcDbSymbolTable
 70
     1
100
AcDbDimStyleTable
  0
DIMSTYLE
105
27
330
A
100
AcDbSymbolTableRecord
100
AcDbDimStyleTableRecord
  2
Standard
 70
     0
340
11
  0
ENDTAB
  0
TABLE
  2
BLOCK_RECORD
  5
1
330
0
100
AcDbSymbolTable
 70
     3
  0
BLOCK_RECORD
  5
1F
330
1
100
AcDbSymbolTableRecord
100
AcDbBlockTableRecord
  2
*Model_Space
340
22
  0
BLOCK_RECORD
  5
1B
330
1
100
AcDbSymbolTableRecord
100
AcDbBlockTableRecord
  2
*Paper_Space
340
1E
  0
BLOCK_RECORD
  5
23
330
1
100
AcDbSymbolTableRecord
100
AcDbBlockTableRecord
  2
*Paper_Space0
340
26
  0
BLOCK_RECORD
  5
3C
330
1
100
AcDbSymbolTableRecord
100
AcDbBlockTableRecord
  2
block 2
340
0
102
{BLKREFS
331
3D
102
}
  0
BLOCK_RECORD
  5
635
330
1
100
AcDbSymbolTableRecord
100
AcDbBlockTableRecord
  2
block 3
340
0
102
{BLKREFS
331
636
102
}
  0
ENDTAB
  0
ENDSEC
  0
SECTION
  2
BLOCKS
  0
BLOCK
  5
20
330
1F
100
AcDbEntity
  8
0
100
AcDbBlockBegin
  2
*Model_Space
 70
     0
 71
     0
 10
0.0
 20
0.0
 30
0.0
  3
*Model_Space
  1

  0
ENDBLK
  5
21
330
1F
100
AcDbEntity
  8
0
100
AcDbBlockEnd
  0
BLOCK
  5
1C
330
1B
100
AcDbEntity
 67
     1
  8
0
100
AcDbBlockBegin
  2
*Paper_Space
 70
     0
 71
     0
 10
0.0
 20
0.0
 30
0.0
  3
*Paper_Space
  1

  0
ENDBLK
  5
1D
330
1B
100
AcDbEntity
 67
     1
  8
0
100
AcDbBlockEnd
  0
BLOCK
  5
24
330
23
100
AcDbEntity
  8
0
100
AcDbBlockBegin
  2
*Paper_Space0
 70
     0
 71
     0
 10
0.0
 20
0.0
 30
0.0
  3
*Paper_Space0
  1

  0
ENDBLK
  5
25
330
23
100
AcDbEntity
  8
0
100
AcDbBlockEnd
  0
BLOCK
  5
3E
330
3C
100
AcDbEntity
  8
0
100
AcDbBlockBegin
  2
block 2
 70
     0
 71
     0
 10
0.0
 20
0.0
 30
0.0
  3
block 2
  1

  0
POLYLINE
  5
40
330
3C
100
AcDbEntity
  8
Layer 1
 62
     7
370
    15
100
AcDb2dPolyline
 66
     1
 10
0.0
 20
0.0
 30
0.0
  0
VERTEX
  5
41
330
40
100
AcDbEntity
  8
Layer 1
 62
     7
370
    15
100
AcDbVertex
100
AcDb2dVertex
 10
222.9097357298629
 20
637.0653345846573
 30
0.0
  0
VERTEX
  5
42
330
40
100
AcDbEntity
  8
Layer 1
 62
     7
370
    15
100
AcDbVertex
100
AcDb2dVertex
 10
662.9094073863561
 20
637.0653345846573
 30
0.0
  0
SEQEND
  5
43
330
40
100
AcDbEntity
  8
Layer 1
370
    15
  0
POLYLINE
  5
44
330
3C
100
AcDbEntity
  8
Layer 1
 62
     7
370
    15
100
AcDb2dPolyline
 66
     1
 10
0.0
 20
0.0
 30
0.0
  0
VERTEX
  5
45
330
44
100
AcDbEntity
  8
Layer 1
 62
     7
370
    15
100
AcDbVertex
100
AcDb2dVertex
 10
222.9097357298629
 20
641.0644014239354
 30
0.0
  0
VERTEX
  5
46
330
44
100
AcDbEntity
  8
Layer 1
 62
     7
370
    15
100
AcDbVertex
100
AcDb2dVertex
 10
662.9094073863561
 20
641.0644014239354
 30
0.0
  0
SEQEND
  5
47
330
44
100
AcDbEntity
  8
Layer 1
370
    15
  0
SPLINE
  5
48
330
3C
100
AcDbEntity
  8
Layer 1
 62
     7
370
    15
100
AcDbSpline
210
0.0
220
0.0
230
1.0
 70
     8
 71
     3
 72
     8
 73
     4
 74
     0
 42
0.0000000001
 43
0.0000000001
 40
0.0
 40
0.0
 40
0.0
 40
0.0
 40
1.0
 40
1.0
 40
1.0
 40
1.0
 10
212.9112073577965
 20
647.0643797210464
 30
0.0
 10
212.9112073577965
 20
641.5418916581909
 30
0.0
 10
217.3875921765559
 20
637.0653345846573
 30
0.0
 10
222.9097357298629
 20
637.0653345846573
 30
0.0
  0
SPLINE
  5
49
330
3C
100
AcDbEntity
  8
Layer 1
 62
     7
370
    15
100
AcDbSpline
210
0.0
220
0.0
230
1.0
 70
     8
 71
     3
 72
     8
 73
     4
 74
     0
 42
0.0000000001
 43
0.0000000001
 40
0.0
 40
0.0
 40
0.0
 40
0.0
 40
1.0
 40
1.0
 40
1.0
 40
1.0
 10
216.9097574327517
 20
647.0643797210464
 30
0.0
 10
216.9097574327517
 20
643.7505423737846
 30
0.0
 10
219.5964151469238
 20
641.0644014239354
 30
0.0
 10
222.9097357298629
 20
641.0644014239354
 30
0.0
  0
POLYLINE
  5
4A
330
3C
100
AcDbEntity
  8
Layer 1
 62
     7
370
    15
100
AcDb2dPolyline
 66
     1
 10
0.0
 20
0.0
 30
0.0
  0
VERTEX
  5
4B
330
4A
100
AcDbEntity
  8
Layer 1
 62
     7
370
    15
100
AcDbVertex
100
AcDb2dVertex
 10
212.9112073577965
 20
1127.063849273356
 30
0.0
  0
VERTEX
  5
4C
330
4A
100
AcDbEntity
  8
Layer 1
 62
     7
370
    15
100
AcDbVertex
100
AcDb2dVertex
 10
212.9112073577965
 20
647.0643797210464
 30
0.0
  0
SEQEND
  5
4D
330
4A
100
AcDbEntity
  8
Layer 1
370
    15
  0
POLYLINE
  5
4E
330
3C
100
AcDbEntity
  8
Layer 1
 62
     7
370
    15
100
AcDb2dPolyline
 66
     1
 10
0.0
 20
0.0
 30
0.0
  0
VERTEX
  5
4F
330
4E
100
AcDbEntity
  8
Layer 1
 62
     7
370
    15
100
AcDbVertex
100
AcDb2dVertex
 10
216.9097574327517
 20
1127.063849273356
 30
0.0
  0
VERTEX
  5
50
330
4E
100
AcDbEntity
  8
Layer 1
 62
     7
370
    15
100
AcDbVertex
100
AcDb2dVertex
 10
216.9097574327517
 20
647.0643797210464
 30
0.0
  0
SEQEND
  5
51
330
4E
100
AcDbEntity
  8
Layer 1
370
    15
  0
SPLINE
  5
52
330
3C
100
AcDbEntity
  8
Layer 1
 62
     7
370
    15
100
AcDbSpline
210
0.0
220
0.0
230
1.0
 70
     8
 71
     3
 72
     8
 73
     4
 74
     0
 42
0.0000000001
 43
0.0000000001
 40
0.0
 40
0.0
 40
0.0
 40
0.0
 40
1.0
 40
1.0
 40
1.0
 40
1.0
 10
222.9097357298629
 20
1137.062549900196
 30
0.0
 10
217.3875921765559
 20
1137.062549900196
 30
0.0
 10
212.9112073577965
 20
1132.585992826663
 30
0.0
 10
212.9112073577965
 20
1127.063849273356
 30
0.0
  0
SPLINE
  5
53
330
3C
100
AcDbEntity
  8
Layer 1
 62
     7
370
    15
100
AcDbSpline
210
0.0
220
0.0
230
1.0
 70
     8
 71
     3
 72
     8
 73
     4
 74
     0
 42
0.0000000001
 43
0.0000000001
 40
0.0
 40
0.0
 40
0.0
 40
0.0
 40
1.0
 40
1.0
 40
1.0
 40
1.0
 10
222.9097357298629
 20
1133.063999825241
 30
0.0
 10
219.5964151469238
 20
1133.063999825241
 30
0.0
 10
216.9097574327517
 20
1130.377342111069
 30
0.0
 10
216.9097574327517
 20
1127.063849273356
 30
0.0
  0
POLYLINE
  5
54
330
3C
100
AcDbEntity
  8
Layer 1
 62
     7
370
    15
100
AcDb2dPolyline
 66
     1
 10
0.0
 20
0.0
 30
0.0
  0
VERTEX
  5
55
330
54
100
AcDbEntity
  8
Layer 1
 62
     7
370
    15
100
AcDbVertex
100
AcDb2dVertex
 10
662.9094073863561
 20
1137.062549900196
 30
0.0
  0
VERTEX
  5
56
330
54
100
AcDbEntity
  8
Layer 1
 62
     7
370
    15
100
AcDbVertex
100
AcDb2dVertex
 10
222.9097357298629
 20
1137.062549900196
 30
0.0
  0
SEQEND
  5
57
330
54
100
AcDbEntity
  8
Layer 1
370
    15
  0
POLYLINE
  5
58
330
3C
100
AcDbEntity
  8
Layer 1
 62
     7
370
    15
100
AcDb2dPolyline
 66
     1
 10
0.0
 20
0.0
 30
0.0
  0
VERTEX
  5
59
330
58
100
AcDbEntity
  8
Layer 1
 62
     7
370
    15
100
AcDbVertex
100
AcDb2dVertex
 10
662.9094073863561
 20
1133.063999825241
 30
0.0
  0
VERTEX
  5
5A
330
58
100
AcDbEntity
  8
Layer 1
 62
     7
370
    15
100
AcDbVertex
100
AcDb2dVertex
 10
222.9097357298629
 20
1133.063999825241
 30
0.0
  0
SEQEND
  5
5B
330
58
100
AcDbEntity
  8
Layer 1
370
    15
  0
SPLINE
  5
5C
330
3C
100
AcDbEntity
  8
Layer 1
 62
     7
370
    15
100
AcDbSpline
210
0.0
220
0.0
230
1.0
 70
     8
 71
     3
 72
     8
 73
     4
 74
     0
 42
0.0000000001
 43
0.0000000001
 40
0.0
 40
0.0
 40
0.0
 40
0.0
 40
1.0
 40
1.0
 40
1.0
 40
1.0
 10
672.9081080131966
 20
1127.063849273356
 30
0.0
 10
672.9081080131966
 20
1132.585992826663
 30
0.0
 10
668.431550939663
 20
1137.062549900196
 30
0.0
 10
662.9094073863561
 20
1137.062549900196
 30
0.0
  0
SPLINE
  5
5D
330
3C
100
AcDbEntity
  8
Layer 1
 62
     7
370
    15
100
AcDbSpline
210
0.0
220
0.0
230
1.0
 70
     8
 71
     3
 72
     8
 73
     4
 74
     0
 42
0.0000000001
 43
0.0000000001
 40
0.0
 40
0.0
 40
0.0
 40
0.0
 40
1.0
 40
1.0
 40
1.0
 40
1.0
 10
668.9097301930157
 20
1127.063849273356
 30
0.0
 10
668.9097301930157
 20
1130.377342111069
 30
0.0
 10
666.2229002240693
 20
1133.063999825241
 30
0.0
 10
662.9094073863561
 20
1133.063999825241
 30
0.0
  0
POLYLINE
  5
5E
330
3C
100
AcDbEntity
  8
Layer 1
 62
     7
370
    15
100
AcDb2dPolyline
 66
     1
 10
0.0
 20
0.0
 30
0.0
  0
VERTEX
  5
5F
330
5E
100
AcDbEntity
  8
Layer 1
 62
     7
370
    15
100
AcDbVertex
100
AcDb2dVertex
 10
630.9092934620644
 20
655.0253063683617
 30
0.0
  0
VERTEX
  5
60
330
5E
100
AcDbEntity
  8
Layer 1
 62
     7
370
    15
100
AcDbVertex
100
AcDb2dVertex
 10
254.910194163703
 20
655.0253063683617
 30
0.0
  0
SEQEND
  5
61
330
5E
100
AcDbEntity
  8
Layer 1
370
    15
  0
SPLINE
  5
62
330
3C
100
AcDbEntity
  8
Layer 1
 62
     7
370
    15
100
AcDbSpline
210
0.0
220
0.0
230
1.0
 70
     8
 71
     3
 72
     8
 73
     4
 74
     0
 42
0.0000000001
 43
0.0000000001
 40
0.0
 40
0.0
 40
0.0
 40
0.0
 40
1.0
 40
1.0
 40
1.0
 40
1.0
 10
630.9092934620644
 20
655.0253063683617
 30
0.0
 10
644.1856579335716
 20
655.0253063683617
 30
0.0
 10
654.9488252485892
 20
665.7877846642823
 30
0.0
 10
654.9488252485892
 20
679.0644936453381
 30
0.0
  0
SPLINE
  5
63
330
3C
100
AcDbEntity
  8
Layer 1
 62
     7
370
    15
100
AcDbSpline
210
0.0
220
0.0
230
1.0
 70
     8
 71
     3
 72
     8
 73
     4
 74
     0
 42
0.0000000001
 43
0.0000000001
 40
0.0
 40
0.0
 40
0.0
 40
0.0
 40
1.0
 40
1.0
 40
1.0
 40
1.0
 10
230.8706623771782
 20
679.0644936453381
 30
0.0
 10
230.8706623771782
 20
665.7877846642823
 30
0.0
 10
241.6333129278729
 20
655.0253063683617
 30
0.0
 10
254.910194163703
 20
655.0253063683617
 30
0.0
  0
POLYLINE
  5
64
330
3C
100
AcDbEntity
  8
Layer 1
 62
     7
370
    15
100
AcDb2dPolyline
 66
     1
 10
0.0
 20
0.0
 30
0.0
  0
VERTEX
  5
65
330
64
100
AcDbEntity
  8
Layer 1
 62
     7
370
    15
100
AcDbVertex
100
AcDb2dVertex
 10
654.9488252485892
 20
1095.06356309429
 30
0.0
  0
VERTEX
  5
66
330
64
100
AcDbEntity
  8
Layer 1
 62
     7
370
    15
100
AcDbVertex
100
AcDb2dVertex
 10
654.9488252485892
 20
679.0644936453381
 30
0.0
  0
SEQEND
  5
67
330
64
100
AcDbEntity
  8
Layer 1
370
    15
  0
POLYLINE
  5
68
330
3C
100
AcDbEntity
  8
Layer 1
 62
     7
370
    15
100
AcDb2dPolyline
 66
     1
 10
0.0
 20
0.0
 30
0.0
  0
VERTEX
  5
69
330
68
100
AcDbEntity
  8
Layer 1
 62
     7
370
    15
100
AcDbVertex
100
AcDb2dVertex
 10
230.8706623771782
 20
679.0644936453381
 30
0.0
  0
VERTEX
  5
6A
330
68
100
AcDbEntity
  8
Layer 1
 62
     7
370
    15
100
AcDbVertex
100
AcDb2dVertex
 10
230.8706623771782
 20
986.3399669300644
 30
0.0
  0
SEQEND
  5
6B
330
68
100
AcDbEntity
  8
Layer 1
370
    15
  0
SPLINE
  5
6C
330
3C
100
AcDbEntity
  8
Layer 1
 62
     7
370
    15
100
AcDbSpline
210
0.0
220
0.0
230
1.0
 70
     8
 71
     3
 72
     8
 73
     4
 74
     0
 42
0.0000000001
 43
0.0000000001
 40
0.0
 40
0.0
 40
0.0
 40
0.0
 40
1.0
 40
1.0
 40
1.0
 40
1.0
 10
654.9488252485892
 20
1095.06356309429
 30
0.0
 10
654.9488252485892
 20
1108.340272075346
 30
0.0
 10
644.1856579335716
 20
1119.10292262604
 30
0.0
 10
630.9092934620644
 20
1119.10292262604
 30
0.0
  0
SPLINE
  5
6D
330
3C
100
AcDbEntity
  8
Layer 1
 62
     7
370
    15
100
AcDbSpline
210
0.0
220
0.0
230
1.0
 70
     8
 71
     3
 72
     8
 73
     4
 74
     0
 42
0.0000000001
 43
0.0000000001
 40
0.0
 40
0.0
 40
0.0
 40
0.0
 40
1.0
 40
1.0
 40
1.0
 40
1.0
 10
238.7904201334448
 20
1005.459557854104
 30
0.0
 10
233.7195840887055
 20
1000.38854955459
 30
0.0
 10
230.8706623771782
 20
993.5112776921604
 30
0.0
 10
230.8706623771782
 20
986.3399669300644
 30
0.0
  0
POLYLINE
  5
6E
330
3C
100
AcDbEntity
  8
Layer 1
 62
     7
370
    15
100
AcDb2dPolyline
 66
     1
 10
0.0
 20
0.0
 30
0.0
  0
VERTEX
  5
6F
330
6E
100
AcDbEntity
  8
Layer 1
 62
     7
370
    15
100
AcDbVertex
100
AcDb2dVertex
 10
363.6337903279284
 20
1119.10292262604
 30
0.0
  0
VERTEX
  5
70
330
6E
100
AcDbEntity
  8
Layer 1
 62
     7
370
    15
100
AcDbVertex
100
AcDb2dVertex
 10
630.9092934620644
 20
1119.10292262604
 30
0.0
  0
SEQEND
  5
71
330
6E
100
AcDbEntity
  8
Layer 1
370
    15
  0
SPLINE
  5
72
330
3C
100
AcDbEntity
  8
Layer 1
 62
     7
370
    15
100
AcDbSpline
210
0.0
220
0.0
230
1.0
 70
     8
 71
     3
 72
     8
 73
     4
 74
     0
 42
0.0000000001
 43
0.0000000001
 40
0.0
 40
0.0
 40
0.0
 40
0.0
 40
1.0
 40
1.0
 40
1.0
 40
1.0
 10
363.6337903279284
 20
1119.10292262604
 30
0.0
 10
356.4628240753809
 20
1119.10292262604
 30
0.0
 10
349.585035448628
 20
1116.254173169287
 30
0.0
 10
344.5141994038888
 20
1111.183337124548
 30
0.0
  0
POLYLINE
  5
73
330
3C
100
AcDbEntity
  8
Layer 1
 62
     7
370
    15
100
AcDb2dPolyline
 66
     1
 10
0.0
 20
0.0
 30
0.0
  0
VERTEX
  5
74
330
73
100
AcDbEntity
  8
Layer 1
 62
     7
370
    15
100
AcDbVertex
100
AcDb2dVertex
 10
238.7904201334448
 20
1005.459557854104
 30
0.0
  0
VERTEX
  5
75
330
73
100
AcDbEntity
  8
Layer 1
 62
     7
370
    15
100
AcDbVertex
100
AcDb2dVertex
 10
344.5141994038888
 20
1111.183337124548
 30
0.0
  0
SEQEND
  5
76
330
73
100
AcDbEntity
  8
Layer 1
370
    15
  0
SPLINE
  5
77
330
3C
100
AcDbEntity
  8
Layer 1
 62
     7
370
    15
100
AcDbSpline
210
0.0
220
0.0
230
1.0
 70
     8
 71
     3
 72
     8
 73
     4
 74
     0
 42
0.0000000001
 43
0.0000000001
 40
0.0
 40
0.0
 40
0.0
 40
0.0
 40
1.0
 40
1.0
 40
1.0
 40
1.0
 10
662.9094073863561
 20
641.0644014239354
 30
0.0
 10
666.2229002240693
 20
641.0644014239354
 30
0.0
 10
668.9097301930157
 20
643.7505423737846
 30
0.0
 10
668.9097301930157
 20
647.0643797210464
 30
0.0
  0
POLYLINE
  5
78
330
3C
100
AcDbEntity
  8
Layer 1
 62
     7
370
    15
100
AcDb2dPolyline
 66
     1
 10
0.0
 20
0.0
 30
0.0
  0
VERTEX
  5
79
330
78
100
AcDbEntity
  8
Layer 1
 62
     7
370
    15
100
AcDbVertex
100
AcDb2dVertex
 10
668.9097301930157
 20
647.0643797210464
 30
0.0
  0
VERTEX
  5
7A
330
78
100
AcDbEntity
  8
Layer 1
 62
     7
370
    15
100
AcDbVertex
100
AcDb2dVertex
 10
668.9097301930157
 20
1127.063849273356
 30
0.0
  0
SEQEND
  5
7B
330
78
100
AcDbEntity
  8
Layer 1
370
    15
  0
SPLINE
  5
7C
330
3C
100
AcDbEntity
  8
Layer 1
 62
     7
370
    15
100
AcDbSpline
210
0.0
220
0.0
230
1.0
 70
    11
 71
     3
 72
    17
 73
    13
 74
     0
 42
0.0000000001
 43
0.0000000001
 40
0.0
 40
0.0
 40
0.0
 40
0.0
 40
1.0
 40
1.0
 40
1.0
 40
2.0
 40
2.0
 40
2.0
 40
3.0
 40
3.0
 40
3.0
 40
4.0
 40
4.0
 40
4.0
 40
4.0
 10
242.4885578820862
 20
1089.984803329934
 30
0.0
 10
242.4885578820862
 20
1080.320104710389
 30
0.0
 10
250.3239107989642
 20
1072.484924048285
 30
0.0
 10
259.9889539280583
 20
1072.484924048285
 30
0.0
 10
269.6534802928297
 20
1072.484924048285
 30
0.0
 10
277.4886609549334
 20
1080.320104710389
 30
0.0
 10
277.4886609549334
 20
1089.984803329934
 30
0.0
 10
277.4886609549334
 20
1099.649846459029
 30
0.0
 10
269.6534802928297
 20
1107.485027121132
 30
0.0
 10
259.9889539280583
 20
1107.485027121132
 30
0.0
 10
250.3239107989642
 20
1107.485027121132
 30
0.0
 10
242.4885578820862
 20
1099.649846459029
 30
0.0
 10
242.4885578820862
 20
1089.984803329934
 30
0.0
  0
POLYLINE
  5
7D
330
3C
100
AcDbEntity
  8
Layer 1
 62
     7
370
    15
100
AcDb2dPolyline
 66
     1
 10
0.0
 20
0.0
 30
0.0
  0
VERTEX
  5
7E
330
7D
100
AcDbEntity
  8
Layer 1
 62
     7
370
    15
100
AcDbVertex
100
AcDb2dVertex
 10
672.9081080131966
 20
647.0643797210464
 30
0.0
  0
VERTEX
  5
7F
330
7D
100
AcDbEntity
  8
Layer 1
 62
     7
370
    15
100
AcDbVertex
100
AcDb2dVertex
 10
672.9081080131966
 20
1127.063849273356
 30
0.0
  0
SEQEND
  5
80
330
7D
100
AcDbEntity
  8
Layer 1
370
    15
  0
SPLINE
  5
81
330
3C
100
AcDbEntity
  8
Layer 1
 62
     7
370
    15
100
AcDbSpline
210
0.0
220
0.0
230
1.0
 70
     8
 71
     3
 72
     8
 73
     4
 74
     0
 42
0.0000000001
 43
0.0000000001
 40
0.0
 40
0.0
 40
0.0
 40
0.0
 40
1.0
 40
1.0
 40
1.0
 40
1.0
 10
662.9094073863561
 20
637.0653345846573
 30
0.0
 10
668.431550939663
 20
637.0653345846573
 30
0.0
 10
672.9081080131966
 20
641.5418916581909
 30
0.0
 10
672.9081080131966
 20
647.0643797210464
 30
0.0
  0
POLYLINE
  5
82
330
3C
100
AcDbEntity
  8
Layer 1
 62
     7
370
    15
100
AcDb2dPolyline
 66
     1
 10
0.0
 20
0.0
 30
0.0
  0
VERTEX
  5
83
330
82
100
AcDbEntity
  8
Layer 1
 62
     7
370
    15
100
AcDbVertex
100
AcDb2dVertex
 10
222.9097357298629
 20
637.0643010560117
 30
0.0
  0
VERTEX
  5
84
330
82
100
AcDbEntity
  8
Layer 1
 62
     7
370
    15
100
AcDbVertex
100
AcDb2dVertex
 10
662.9094073863561
 20
637.0643010560117
 30
0.0
  0
SEQEND
  5
85
330
82
100
AcDbEntity
  8
Layer 1
370
    15
  0
SPLINE
  5
86
330
3C
100
AcDbEntity
  8
Layer 1
 62
     7
370
    15
100
AcDbSpline
210
0.0
220
0.0
230
1.0
 70
     8
 71
     3
 72
     8
 73
     4
 74
     0
 42
0.0000000001
 43
0.0000000001
 40
0.0
 40
0.0
 40
0.0
 40
0.0
 40
1.0
 40
1.0
 40
1.0
 40
1.0
 10
212.9100015743767
 20
647.0643797210464
 30
0.0
 10
212.9100015743767
 20
641.5415471486424
 30
0.0
 10
217.3872476670074
 20
637.0643010560117
 30
0.0
 10
222.9097357298629
 20
637.0643010560117
 30
0.0
  0
POLYLINE
  5
87
330
3C
100
AcDbEntity
  8
Layer 1
 62
     7
370
    15
100
AcDb2dPolyline
 66
     1
 10
0.0
 20
0.0
 30
0.0
  0
VERTEX
  5
88
330
87
100
AcDbEntity
  8
Layer 1
 62
     7
370
    15
100
AcDbVertex
100
AcDb2dVertex
 10
212.9100015743767
 20
1127.063849273356
 30
0.0
  0
VERTEX
  5
89
330
87
100
AcDbEntity
  8
Layer 1
 62
     7
370
    15
100
AcDbVertex
100
AcDb2dVertex
 10
212.9100015743767
 20
647.0643797210464
 30
0.0
  0
SEQEND
  5
8A
330
87
100
AcDbEntity
  8
Layer 1
370
    15
  0
SPLINE
  5
8B
330
3C
100
AcDbEntity
  8
Layer 1
 62
     7
370
    15
100
AcDbSpline
210
0.0
220
0.0
230
1.0
 70
     8
 71
     3
 72
     8
 73
     4
 74
     0
 42
0.0000000001
 43
0.0000000001
 40
0.0
 40
0.0
 40
0.0
 40
0.0
 40
1.0
 40
1.0
 40
1.0
 40
1.0
 10
222.9097357298629
 20
1137.063755683616
 30
0.0
 10
217.3872476670074
 20
1137.063755683616
 30
0.0
 10
212.9100015743767
 20
1132.586509590985
 30
0.0
 10
212.9100015743767
 20
1127.063849273356
 30
0.0
  0
POLYLINE
  5
8C
330
3C
100
AcDbEntity
  8
Layer 1
 62
     7
370
    15
100
AcDb2dPolyline
 66
     1
 10
0.0
 20
0.0
 30
0.0
  0
VERTEX
  5
8D
330
8C
100
AcDbEntity
  8
Layer 1
 62
     7
370
    15
100
AcDbVertex
100
AcDb2dVertex
 10
662.9094073863561
 20
1137.063755683616
 30
0.0
  0
VERTEX
  5
8E
330
8C
100
AcDbEntity
  8
Layer 1
 62
     7
370
    15
100
AcDbVertex
100
AcDb2dVertex
 10
222.9097357298629
 20
1137.063755683616
 30
0.0
  0
SEQEND
  5
8F
330
8C
100
AcDbEntity
  8
Layer 1
370
    15
  0
SPLINE
  5
90
330
3C
100
AcDbEntity
  8
Layer 1
 62
     7
370
    15
100
AcDbSpline
210
0.0
220
0.0
230
1.0
 70
     8
 71
     3
 72
     8
 73
     4
 74
     0
 42
0.0000000001
 43
0.0000000001
 40
0.0
 40
0.0
 40
0.0
 40
0.0
 40
1.0
 40
1.0
 40
1.0
 40
1.0
 10
672.9094860513907
 20
1127.063849273356
 30
0.0
 10
672.9094860513907
 20
1132.586509590985
 30
0.0
 10
668.4322399587601
 20
1137.063755683616
 30
0.0
 10
662.9094073863561
 20
1137.063755683616
 30
0.0
  0
POLYLINE
  5
91
330
3C
100
AcDbEntity
  8
Layer 1
 62
     7
370
    15
100
AcDb2dPolyline
 66
     1
 10
0.0
 20
0.0
 30
0.0
  0
VERTEX
  5
92
330
91
100
AcDbEntity
  8
Layer 1
 62
     7
370
    15
100
AcDbVertex
100
AcDb2dVertex
 10
672.9094860513907
 20
647.0643797210464
 30
0.0
  0
VERTEX
  5
93
330
91
100
AcDbEntity
  8
Layer 1
 62
     7
370
    15
100
AcDbVertex
100
AcDb2dVertex
 10
672.9094860513907
 20
1127.063849273356
 30
0.0
  0
SEQEND
  5
94
330
91
100
AcDbEntity
  8
Layer 1
370
    15
  0
SPLINE
  5
95
330
3C
100
AcDbEntity
  8
Layer 1
 62
     7
370
    15
100
AcDbSpline
210
0.0
220
0.0
230
1.0
 70
     8
 71
     3
 72
     8
 73
     4
 74
     0
 42
0.0000000001
 43
0.0000000001
 40
0.0
 40
0.0
 40
0.0
 40
0.0
 40
1.0
 40
1.0
 40
1.0
 40
1.0
 10
662.9094073863561
 20
637.0643010560117
 30
0.0
 10
668.4322399587601
 20
637.0643010560117
 30
0.0
 10
672.9094860513907
 20
641.5415471486424
 30
0.0
 10
672.9094860513907
 20
647.0643797210464
 30
0.0
  0
SPLINE
  5
96
330
3C
100
AcDbEntity
  8
Layer 1
 62
     7
370
    15
100
AcDbSpline
210
0.0
220
0.0
230
1.0
 70
     8
 71
     3
 72
     8
 73
     4
 74
     0
 42
0.0000000001
 43
0.0000000001
 40
0.0
 40
0.0
 40
0.0
 40
0.0
 40
1.0
 40
1.0
 40
1.0
 40
1.0
 10
363.6337903279284
 20
1109.980826545421
 30
0.0
 10
358.8819701251232
 20
1109.980826545421
 30
0.0
 10
354.3247978172348
 20
1108.093258729053
 30
0.0
 10
350.9642794261478
 20
1104.733084847515
 30
0.0
  0
POLYLINE
  5
97
330
3C
100
AcDbEntity
  8
Layer 1
 62
     7
370
    15
100
AcDb2dPolyline
 66
     1
 10
0.0
 20
0.0
 30
0.0
  0
VERTEX
  5
98
330
97
100
AcDbEntity
  8
Layer 1
 62
     7
370
    15
100
AcDbVertex
100
AcDb2dVertex
 10
350.9642794261478
 20
1104.733084847515
 30
0.0
  0
VERTEX
  5
99
330
97
100
AcDbEntity
  8
Layer 1
 62
     7
370
    15
100
AcDbVertex
100
AcDb2dVertex
 10
245.2405001557038
 20
999.0093055770707
 30
0.0
  0
SEQEND
  5
9A
330
97
100
AcDbEntity
  8
Layer 1
370
    15
  0
SPLINE
  5
9B
330
3C
100
AcDbEntity
  8
Layer 1
 62
     7
370
    15
100
AcDbSpline
210
0.0
220
0.0
230
1.0
 70
     8
 71
     3
 72
     8
 73
     4
 74
     0
 42
0.0000000001
 43
0.0000000001
 40
0.0
 40
0.0
 40
0.0
 40
0.0
 40
1.0
 40
1.0
 40
1.0
 40
1.0
 10
239.9929307125712
 20
679.0644936453381
 30
0.0
 10
239.9929307125712
 20
670.8255477923631
 30
0.0
 10
246.6714205655023
 20
664.1472301942063
 30
0.0
 10
254.910194163703
 20
664.1472301942063
 30
0.0
  0
POLYLINE
  5
9C
330
3C
100
AcDbEntity
  8
Layer 1
 62
     7
370
    15
100
AcDb2dPolyline
 66
     1
 10
0.0
 20
0.0
 30
0.0
  0
VERTEX
  5
9D
330
9C
100
AcDbEntity
  8
Layer 1
 62
     7
370
    15
100
AcDbVertex
100
AcDb2dVertex
 10
239.9929307125712
 20
986.3399669300644
 30
0.0
  0
VERTEX
  5
9E
330
9C
100
AcDbEntity
  8
Layer 1
 62
     7
370
    15
100
AcDbVertex
100
AcDb2dVertex
 10
239.9929307125712
 20
679.0644936453381
 30
0.0
  0
SEQEND
  5
9F
330
9C
100
AcDbEntity
  8
Layer 1
370
    15
  0
POLYLINE
  5
A0
330
3C
100
AcDbEntity
  8
Layer 1
 62
     7
370
    15
100
AcDb2dPolyline
 66
     1
 10
0.0
 20
0.0
 30
0.0
  0
VERTEX
  5
A1
330
A0
100
AcDbEntity
  8
Layer 1
 62
     7
370
    15
100
AcDbVertex
100
AcDb2dVertex
 10
254.910194163703
 20
664.1472301942063
 30
0.0
  0
VERTEX
  5
A2
330
A0
100
AcDbEntity
  8
Layer 1
 62
     7
370
    15
100
AcDbVertex
100
AcDb2dVertex
 10
630.9092934620644
 20
664.1472301942063
 30
0.0
  0
SEQEND
  5
A3
330
A0
100
AcDbEntity
  8
Layer 1
370
    15
  0
SPLINE
  5
A4
330
3C
100
AcDbEntity
  8
Layer 1
 62
     7
370
    15
100
AcDbSpline
210
0.0
220
0.0
230
1.0
 70
     8
 71
     3
 72
     8
 73
     4
 74
     0
 42
0.0000000001
 43
0.0000000001
 40
0.0
 40
0.0
 40
0.0
 40
0.0
 40
1.0
 40
1.0
 40
1.0
 40
1.0
 10
630.9092934620644
 20
664.1472301942063
 30
0.0
 10
639.1478948054909
 20
664.1472301942063
 30
0.0
 10
645.8262124036477
 20
670.8255477923631
 30
0.0
 10
645.8262124036477
 20
679.0644936453381
 30
0.0
  0
POLYLINE
  5
A5
330
3C
100
AcDbEntity
  8
Layer 1
 62
     7
370
    15
100
AcDb2dPolyline
 66
     1
 10
0.0
 20
0.0
 30
0.0
  0
VERTEX
  5
A6
330
A5
100
AcDbEntity
  8
Layer 1
 62
     7
370
    15
100
AcDbVertex
100
AcDb2dVertex
 10
630.9092934620644
 20
1109.980826545421
 30
0.0
  0
VERTEX
  5
A7
330
A5
100
AcDbEntity
  8
Layer 1
 62
     7
370
    15
100
AcDbVertex
100
AcDb2dVertex
 10
363.6337903279284
 20
1109.980826545421
 30
0.0
  0
SEQEND
  5
A8
330
A5
100
AcDbEntity
  8
Layer 1
370
    15
  0
SPLINE
  5
A9
330
3C
100
AcDbEntity
  8
Layer 1
 62
     7
370
    15
100
AcDbSpline
210
0.0
220
0.0
230
1.0
 70
     8
 71
     3
 72
     8
 73
     4
 74
     0
 42
0.0000000001
 43
0.0000000001
 40
0.0
 40
0.0
 40
0.0
 40
0.0
 40
1.0
 40
1.0
 40
1.0
 40
1.0
 10
645.8262124036477
 20
1095.06356309429
 30
0.0
 10
645.8262124036477
 20
1103.30233669249
 30
0.0
 10
639.1478948054909
 20
1109.980826545421
 30
0.0
 10
630.9092934620644
 20
1109.980826545421
 30
0.0
  0
POLYLINE
  5
AA
330
3C
100
AcDbEntity
  8
Layer 1
 62
     7
370
    15
100
AcDb2dPolyline
 66
     1
 10
0.0
 20
0.0
 30
0.0
  0
VERTEX
  5
AB
330
AA
100
AcDbEntity
  8
Layer 1
 62
     7
370
    15
100
AcDbVertex
100
AcDb2dVertex
 10
645.8262124036477
 20
679.0644936453381
 30
0.0
  0
VERTEX
  5
AC
330
AA
100
AcDbEntity
  8
Layer 1
 62
     7
370
    15
100
AcDbVertex
100
AcDb2dVertex
 10
645.8262124036477
 20
1095.06356309429
 30
0.0
  0
SEQEND
  5
AD
330
AA
100
AcDbEntity
  8
Layer 1
370
    15
  0
SPLINE
  5
AE
330
3C
100
AcDbEntity
  8
Layer 1
 62
     7
370
    15
100
AcDbSpline
210
0.0
220
0.0
230
1.0
 70
     8
 71
     3
 72
     8
 73
     4
 74
     0
 42
0.0000000001
 43
0.0000000001
 40
0.0
 40
0.0
 40
0.0
 40
0.0
 40
1.0
 40
1.0
 40
1.0
 40
1.0
 10
245.2405001557038
 20
999.0093055770707
 30
0.0
 10
241.8804985289396
 20
995.648959440758
 30
0.0
 10
239.9929307125712
 20
991.0917871328695
 30
0.0
 10
239.9929307125712
 20
986.3399669300644
 30
0.0
  0
POLYLINE
  5
AF
330
3C
100
AcDbEntity
  8
Layer 1
 62
     7
370
    15
100
AcDb2dPolyline
 66
     1
 10
0.0
 20
0.0
 30
0.0
  0
VERTEX
  5
B0
330
AF
100
AcDbEntity
  8
Layer 1
 62
     7
370
    15
100
AcDbVertex
100
AcDb2dVertex
 10
552.4096922447101
 20
1097.01262586507
 30
0.0
  0
VERTEX
  5
B1
330
AF
100
AcDbEntity
  8
Layer 1
 62
     7
370
    15
100
AcDbVertex
100
AcDb2dVertex
 10
397.2591280473866
 20
1097.01262586507
 30
0.0
  0
SEQEND
  5
B2
330
AF
100
AcDbEntity
  8
Layer 1
370
    15
  0
SPLINE
  5
B3
330
3C
100
AcDbEntity
  8
Layer 1
 62
     7
370
    15
100
AcDbSpline
210
0.0
220
0.0
230
1.0
 70
     8
 71
     3
 72
     8
 73
     4
 74
     0
 42
0.0000000001
 43
0.0000000001
 40
0.0
 40
0.0
 40
0.0
 40
0.0
 40
1.0
 40
1.0
 40
1.0
 40
1.0
 10
397.2591280473866
 20
1097.01262586507
 30
0.0
 10
375.9226181785888
 20
1097.01262586507
 30
0.0
 10
355.4603012891731
 20
1088.536829697484
 30
0.0
 10
340.3730223758442
 20
1073.449895293704
 30
0.0
  0
SPLINE
  5
B4
330
3C
100
AcDbEntity
  8
Layer 1
 62
     7
370
    15
100
AcDbSpline
210
0.0
220
0.0
230
1.0
 70
     8
 71
     3
 72
     8
 73
     4
 74
     0
 42
0.0000000001
 43
0.0000000001
 40
0.0
 40
0.0
 40
0.0
 40
0.0
 40
1.0
 40
1.0
 40
1.0
 40
1.0
 10
276.5236897095149
 20
1009.600734882148
 30
0.0
 10
261.4367553057346
 20
994.5132837140453
 30
0.0
 10
252.9609591381487
 20
974.0511390794039
 30
0.0
 10
252.9609591381487
 20
952.7144569558318
 30
0.0
  0
POLYLINE
  5
B5
330
3C
100
AcDbEntity
  8
Layer 1
 62
     7
370
    15
100
AcDb2dPolyline
 66
     1
 10
0.0
 20
0.0
 30
0.0
  0
VERTEX
  5
B6
330
B5
100
AcDbEntity
  8
Layer 1
 62
     7
370
    15
100
AcDbVertex
100
AcDb2dVertex
 10
252.9609591381487
 20
952.7144569558318
 30
0.0
  0
VERTEX
  5
B7
330
B5
100
AcDbEntity
  8
Layer 1
 62
     7
370
    15
100
AcDbVertex
100
AcDb2dVertex
 10
252.9609591381487
 20
757.5642671174666
 30
0.0
  0
SEQEND
  5
B8
330
B5
100
AcDbEntity
  8
Layer 1
370
    15
  0
POLYLINE
  5
B9
330
3C
100
AcDbEntity
  8
Layer 1
 62
     7
370
    15
100
AcDb2dPolyline
 66
     1
 10
0.0
 20
0.0
 30
0.0
  0
VERTEX
  5
BA
330
B9
100
AcDbEntity
  8
Layer 1
 62
     7
370
    15
100
AcDbVertex
100
AcDb2dVertex
 10
333.4099676358315
 20
677.1152586197837
 30
0.0
  0
VERTEX
  5
BB
330
B9
100
AcDbEntity
  8
Layer 1
 62
     7
370
    15
100
AcDbVertex
100
AcDb2dVertex
 10
552.4096922447101
 20
677.1152586197837
 30
0.0
  0
SEQEND
  5
BC
330
B9
100
AcDbEntity
  8
Layer 1
370
    15
  0
SPLINE
  5
BD
330
3C
100
AcDbEntity
  8
Layer 1
 62
     7
370
    15
100
AcDbSpline
210
0.0
220
0.0
230
1.0
 70
     8
 71
     3
 72
     8
 73
     4
 74
     0
 42
0.0000000001
 43
0.0000000001
 40
0.0
 40
0.0
 40
0.0
 40
0.0
 40
1.0
 40
1.0
 40
1.0
 40
1.0
 10
552.4096922447101
 20
677.1152586197837
 30
0.0
 10
596.8407442084288
 20
677.1152586197837
 30
0.0
 10
632.8585284876187
 20
713.1337319180708
 30
0.0
 10
632.8585284876187
 20
757.5642671174666
 30
0.0
  0
POLYLINE
  5
BE
330
3C
100
AcDbEntity
  8
Layer 1
 62
     7
370
    15
100
AcDb2dPolyline
 66
     1
 10
0.0
 20
0.0
 30
0.0
  0
VERTEX
  5
BF
330
BE
100
AcDbEntity
  8
Layer 1
 62
     7
370
    15
100
AcDbVertex
100
AcDb2dVertex
 10
632.8585284876187
 20
757.5642671174666
 30
0.0
  0
VERTEX
  5
C0
330
BE
100
AcDbEntity
  8
Layer 1
 62
     7
370
    15
100
AcDbVertex
100
AcDb2dVertex
 10
632.8585284876187
 20
1016.563617367387
 30
0.0
  0
SEQEND
  5
C1
330
BE
100
AcDbEntity
  8
Layer 1
370
    15
  0
SPLINE
  5
C2
330
3C
100
AcDbEntity
  8
Layer 1
 62
     7
370
    15
100
AcDbSpline
210
0.0
220
0.0
230
1.0
 70
     8
 71
     3
 72
     8
 73
     4
 74
     0
 42
0.0000000001
 43
0.0000000001
 40
0.0
 40
0.0
 40
0.0
 40
0.0
 40
1.0
 40
1.0
 40
1.0
 40
1.0
 10
632.8585284876187
 20
1016.563617367387
 30
0.0
 10
632.8585284876187
 20
1060.994669331106
 30
0.0
 10
596.8407442084288
 20
1097.01262586507
 30
0.0
 10
552.4096922447101
 20
1097.01262586507
 30
0.0
  0
SPLINE
  5
C3
330
3C
100
AcDbEntity
  8
Layer 1
 62
     7
370
    15
100
AcDbSpline
210
0.0
220
0.0
230
1.0
 70
     8
 71
     3
 72
     8
 73
     4
 74
     0
 42
0.0000000001
 43
0.0000000001
 40
0.0
 40
0.0
 40
0.0
 40
0.0
 40
1.0
 40
1.0
 40
1.0
 40
1.0
 10
252.9609591381487
 20
757.5642671174666
 30
0.0
 10
252.9609591381487
 20
713.1337319180708
 30
0.0
 10
288.9789156721129
 20
677.1152586197837
 30
0.0
 10
333.4099676358315
 20
677.1152586197837
 30
0.0
  0
POLYLINE
  5
C4
330
3C
100
AcDbEntity
  8
Layer 1
 62
     7
370
    15
100
AcDb2dPolyline
 66
     1
 10
0.0
 20
0.0
 30
0.0
  0
VERTEX
  5
C5
330
C4
100
AcDbEntity
  8
Layer 1
 62
     7
370
    15
100
AcDbVertex
100
AcDb2dVertex
 10
340.3730223758442
 20
1073.449895293704
 30
0.0
  0
VERTEX
  5
C6
330
C4
100
AcDbEntity
  8
Layer 1
 62
     7
370
    15
100
AcDbVertex
100
AcDb2dVertex
 10
276.5236897095149
 20
1009.600734882148
 30
0.0
  0
SEQEND
  5
C7
330
C4
100
AcDbEntity
  8
Layer 1
370
    15
  0
SPLINE
  5
C8
330
3C
100
AcDbEntity
  8
Layer 1
 62
     7
370
    15
100
AcDbSpline
210
0.0
220
0.0
230
1.0
 70
    11
 71
     3
 72
    17
 73
    13
 74
     0
 42
0.0000000001
 43
0.0000000001
 40
0.0
 40
0.0
 40
0.0
 40
0.0
 40
1.0
 40
1.0
 40
1.0
 40
2.0
 40
2.0
 40
2.0
 40
3.0
 40
3.0
 40
3.0
 40
4.0
 40
4.0
 40
4.0
 40
4.0
 10
387.4094278002831
 20
948.5641504247513
 30
0.0
 10
387.4094278002831
 20
917.0837291544096
 30
0.0
 10
412.9296616263683
 20
891.5638398378729
 30
0.0
 10
444.4097383871615
 20
891.5638398378729
 30
0.0
 10
475.8896428931804
 20
891.5638398378729
 30
0.0
 10
501.4098767192656
 20
917.0837291544096
 30
0.0
 10
501.4098767192656
 20
948.5641504247513
 30
0.0
 10
501.4098767192656
 20
980.0440549307702
 30
0.0
 10
475.8896428931804
 20
1005.563944247307
 30
0.0
 10
444.4097383871615
 20
1005.563944247307
 30
0.0
 10
412.9296616263683
 20
1005.563944247307
 30
0.0
 10
387.4094278002831
 20
980.0440549307702
 30
0.0
 10
387.4094278002831
 20
948.5641504247513
 30
0.0
  0
SPLINE
  5
C9
330
3C
100
AcDbEntity
  8
Layer 1
 62
     7
370
    15
100
AcDbSpline
210
0.0
220
0.0
230
1.0
 70
    11
 71
     3
 72
    17
 73
    13
 74
     0
 42
0.0000000001
 43
0.0000000001
 40
0.0
 40
0.0
 40
0.0
 40
0.0
 40
1.0
 40
1.0
 40
1.0
 40
2.0
 40
2.0
 40
2.0
 40
3.0
 40
3.0
 40
3.0
 40
4.0
 40
4.0
 40
4.0
 40
4.0
 10
389.4098224937934
 20
948.5641504247513
 30
0.0
 10
389.4098224937934
 20
918.1885712765293
 30
0.0
 10
414.0339869841652
 20
893.5637177670606
 30
0.0
 10
444.4097383871615
 20
893.5637177670606
 30
0.0
 10
474.7858342997063
 20
893.5637177670606
 30
0.0
 10
499.4099987900781
 20
918.1885712765293
 30
0.0
 10
499.4099987900781
 20
948.5641504247513
 30
0.0
 10
499.4099987900781
 20
978.9397295729734
 30
0.0
 10
474.7858342997063
 20
1003.564066318119
 30
0.0
 10
444.4097383871615
 20
1003.564066318119
 30
0.0
 10
414.0339869841652
 20
1003.564066318119
 30
0.0
 10
389.4098224937934
 20
978.9397295729734
 30
0.0
 10
389.4098224937934
 20
948.5641504247513
 30
0.0
  0
SPLINE
  5
CA
330
3C
100
AcDbEntity
  8
Layer 1
 62
     7
370
    15
100
AcDbSpline
210
0.0
220
0.0
230
1.0
 70
    11
 71
     3
 72
    17
 73
    13
 74
     0
 42
0.0000000001
 43
0.0000000001
 40
0.0
 40
0.0
 40
0.0
 40
0.0
 40
1.0
 40
1.0
 40
1.0
 40
2.0
 40
2.0
 40
2.0
 40
3.0
 40
3.0
 40
3.0
 40
4.0
 40
4.0
 40
4.0
 40
4.0
 10
399.4097289040538
 20
948.5641504247513
 30
0.0
 10
399.4097289040538
 20
923.7110593393847
 30
0.0
 10
419.5566473017949
 20
903.5641409416437
 30
0.0
 10
444.4097383871615
 20
903.5641409416437
 30
0.0
 10
469.2626572177538
 20
903.5641409416437
 30
0.0
 10
489.4095756154949
 20
923.7110593393847
 30
0.0
 10
489.4095756154949
 20
948.5641504247513
 30
0.0
 10
489.4095756154949
 20
973.4167247457951
 30
0.0
 10
469.2626572177538
 20
993.564159907859
 30
0.0
 10
444.4097383871615
 20
993.564159907859
 30
0.0
 10
419.5566473017949
 20
993.564159907859
 30
0.0
 10
399.4097289040538
 20
973.4167247457951
 30
0.0
 10
399.4097289040538
 20
948.5641504247513
 30
0.0
  0
SPLINE
  5
CB
330
3C
100
AcDbEntity
  8
Layer 1
 62
     7
370
    25
100
AcDbSpline
210
0.0
220
0.0
230
1.0
 70
    11
 71
     3
 72
    17
 73
    13
 74
     0
 42
0.0000000001
 43
0.0000000001
 40
0.0
 40
0.0
 40
0.0
 40
0.0
 40
1.0
 40
1.0
 40
1.0
 40
2.0
 40
2.0
 40
2.0
 40
3.0
 40
3.0
 40
3.0
 40
4.0
 40
4.0
 40
4.0
 40
4.0
 10
389.4098224937934
 20
948.5641504247513
 30
0.0
 10
389.4098224937934
 20
918.1885712765293
 30
0.0
 10
414.0339869841652
 20
893.5637177670606
 30
0.0
 10
444.4097383871615
 20
893.5637177670606
 30
0.0
 10
474.7858342997063
 20
893.5637177670606
 30
0.0
 10
499.4099987900781
 20
918.1885712765293
 30
0.0
 10
499.4099987900781
 20
948.5641504247513
 30
0.0
 10
499.4099987900781
 20
978.9397295729734
 30
0.0
 10
474.7858342997063
 20
1003.564066318119
 30
0.0
 10
444.4097383871615
 20
1003.564066318119
 30
0.0
 10
414.0339869841652
 20
1003.564066318119
 30
0.0
 10
389.4098224937934
 20
978.9397295729734
 30
0.0
 10
389.4098224937934
 20
948.5641504247513
 30
0.0
  0
POLYLINE
  5
CC
330
3C
100
AcDbEntity
  8
Layer 1
370
     0
100
AcDb2dPolyline
 66
     1
 10
0.0
 20
0.0
 30
0.0
  0
VERTEX
  5
CD
330
CC
100
AcDbEntity
  8
Layer 1
370
     0
100
AcDbVertex
100
AcDb2dVertex
 10
212.9112073577965
 20
1333.5349673858
 30
0.0
  0
VERTEX
  5
CE
330
CC
100
AcDbEntity
  8
Layer 1
370
     0
100
AcDbVertex
100
AcDb2dVertex
 10
242.9112710981263
 20
1338.535178973092
 30
0.0
  0
VERTEX
  5
CF
330
CC
100
AcDbEntity
  8
Layer 1
370
     0
100
AcDbVertex
100
AcDb2dVertex
 10
242.9112710981263
 20
1328.534928053283
 30
0.0
  0
SEQEND
  5
D0
330
CC
100
AcDbEntity
  8
Layer 1
370
     0
  0
HATCH
  5
D1
330
3C
100
AcDbEntity
  8
Layer 1
 62
     7
100
AcDbHatch
 10
0.0
 20
0.0
 30
0.0
210
0.0
220
0.0
230
1.0
  2
SOLID
 70
     1
 71
     0
 91
        1
 92
        1
 93
        3
 72
     1
 10
212.9112073577965
 20
1333.5349673858
 11
242.9112710981263
 21
1338.535178973092
 72
     1
 10
242.9112710981263
 20
1338.535178973092
 11
242.9112710981263
 21
1328.534928053283
 72
     1
 10
242.9112710981263
 20
1328.534928053283
 11
212.9112073577965
 21
1333.5349673858
 97
        0
 75
     2
 76
     1
 98
        0
  0
POLYLINE
  5
D2
330
3C
100
AcDbEntity
  8
Layer 1
370
     0
100
AcDb2dPolyline
 66
     1
 10
0.0
 20
0.0
 30
0.0
  0
VERTEX
  5
D3
330
D2
100
AcDbEntity
  8
Layer 1
370
     0
100
AcDbVertex
100
AcDb2dVertex
 10
672.9081080131966
 20
1333.5349673858
 30
0.0
  0
VERTEX
  5
D4
330
D2
100
AcDbEntity
  8
Layer 1
370
     0
100
AcDbVertex
100
AcDb2dVertex
 10
642.9078720180925
 20
1328.534928053283
 30
0.0
  0
VERTEX
  5
D5
330
D2
100
AcDbEntity
  8
Layer 1
370
     0
100
AcDbVertex
100
AcDb2dVertex
 10
642.9078720180925
 20
1338.535178973092
 30
0.0
  0
SEQEND
  5
D6
330
D2
100
AcDbEntity
  8
Layer 1
370
     0
  0
HATCH
  5
D7
330
3C
100
AcDbEntity
  8
Layer 1
 62
     7
100
AcDbHatch
 10
0.0
 20
0.0
 30
0.0
210
0.0
220
0.0
230
1.0
  2
SOLID
 70
     1
 71
     0
 91
        1
 92
        1
 93
        3
 72
     1
 10
672.9081080131966
 20
1333.5349673858
 11
642.9078720180925
 21
1328.534928053283
 72
     1
 10
642.9078720180925
 20
1328.534928053283
 11
642.9078720180925
 21
1338.535178973092
 72
     1
 10
642.9078720180925
 20
1338.535178973092
 11
672.9081080131966
 21
1333.5349673858
 97
        0
 75
     2
 76
     1
 98
        0
  0
POLYLINE
  5
D8
330
3C
100
AcDbEntity
  8
Layer 1
 62
     7
370
    25
100
AcDb2dPolyline
 66
     1
 10
0.0
 20
0.0
 30
0.0
  0
VERTEX
  5
D9
330
D8
100
AcDbEntity
  8
Layer 1
 62
     7
370
    25
100
AcDbVertex
100
AcDb2dVertex
 10
212.9112073577965
 20
1192.261592312612
 30
0.0
  0
VERTEX
  5
DA
330
D8
100
AcDbEntity
  8
Layer 1
 62
     7
370
    25
100
AcDbVertex
100
AcDb2dVertex
 10
212.9112073577965
 20
1343.534873796061
 30
0.0
  0
SEQEND
  5
DB
330
D8
100
AcDbEntity
  8
Layer 1
370
    25
  0
POLYLINE
  5
DC
330
3C
100
AcDbEntity
  8
Layer 1
 62
     7
370
    25
100
AcDb2dPolyline
 66
     1
 10
0.0
 20
0.0
 30
0.0
  0
VERTEX
  5
DD
330
DC
100
AcDbEntity
  8
Layer 1
 62
     7
370
    25
100
AcDbVertex
100
AcDb2dVertex
 10
672.9081080131966
 20
1178.425055315203
 30
0.0
  0
VERTEX
  5
DE
330
DC
100
AcDbEntity
  8
Layer 1
 62
     7
370
    25
100
AcDbVertex
100
AcDb2dVertex
 10
672.9081080131966
 20
1343.534873796061
 30
0.0
  0
SEQEND
  5
DF
330
DC
100
AcDbEntity
  8
Layer 1
370
    25
  0
POLYLINE
  5
E0
330
3C
100
AcDbEntity
  8
Layer 1
 62
     7
370
    25
100
AcDb2dPolyline
 66
     1
 10
0.0
 20
0.0
 30
0.0
  0
VERTEX
  5
E1
330
E0
100
AcDbEntity
  8
Layer 1
 62
     7
370
    25
100
AcDbVertex
100
AcDb2dVertex
 10
212.9112073577965
 20
1333.5349673858
 30
0.0
  0
VERTEX
  5
E2
330
E0
100
AcDbEntity
  8
Layer 1
 62
     7
370
    25
100
AcDbVertex
100
AcDb2dVertex
 10
672.9081080131966
 20
1333.5349673858
 30
0.0
  0
SEQEND
  5
E3
330
E0
100
AcDbEntity
  8
Layer 1
370
    25
  0
POLYLINE
  5
E4
330
3C
100
AcDbEntity
  8
Layer 1
 62
     7
370
    25
100
AcDb2dPolyline
 66
     1
 10
0.0
 20
0.0
 30
0.0
  0
VERTEX
  5
E5
330
E4
100
AcDbEntity
  8
Layer 1
 62
     7
370
    25
100
AcDbVertex
100
AcDb2dVertex
 10
394.6970105350063
 20
1345.772291058956
 30
0.0
  0
VERTEX
  5
E6
330
E4
100
AcDbEntity
  8
Layer 1
 62
     7
370
    25
100
AcDbVertex
100
AcDb2dVertex
 10
394.6970105350063
 20
1388.105624381706
 30
0.0
  0
SEQEND
  5
E7
330
E4
100
AcDbEntity
  8
Layer 1
370
    25
  0
POLYLINE
  5
E8
330
3C
100
AcDbEntity
  8
Layer 1
 62
     7
370
    25
100
AcDb2dPolyline
 66
     1
 10
0.0
 20
0.0
 30
0.0
  0
VERTEX
  5
E9
330
E8
100
AcDbEntity
  8
Layer 1
 62
     7
370
    25
100
AcDbVertex
100
AcDb2dVertex
 10
394.6970105350063
 20
1388.105624381706
 30
0.0
  0
VERTEX
  5
EA
330
E8
100
AcDbEntity
  8
Layer 1
 62
     7
370
    25
100
AcDbVertex
100
AcDb2dVertex
 10
378.8218382842008
 20
1359.88340216654
 30
0.0
  0
SEQEND
  5
EB
330
E8
100
AcDbEntity
  8
Layer 1
370
    25
  0
POLYLINE
  5
EC
330
3C
100
AcDbEntity
  8
Layer 1
 62
     7
370
    25
100
AcDb2dPolyline
 66
     1
 10
0.0
 20
0.0
 30
0.0
  0
VERTEX
  5
ED
330
EC
100
AcDbEntity
  8
Layer 1
 62
     7
370
    25
100
AcDbVertex
100
AcDb2dVertex
 10
378.8218382842008
 20
1359.88340216654
 30
0.0
  0
VERTEX
  5
EE
330
EC
100
AcDbEntity
  8
Layer 1
 62
     7
370
    25
100
AcDbVertex
100
AcDb2dVertex
 10
399.9886772003501
 20
1359.88340216654
 30
0.0
  0
SEQEND
  5
EF
330
EC
100
AcDbEntity
  8
Layer 1
370
    25
  0
POLYLINE
  5
F0
330
3C
100
AcDbEntity
  8
Layer 1
 62
     7
370
    25
100
AcDb2dPolyline
 66
     1
 10
0.0
 20
0.0
 30
0.0
  0
VERTEX
  5
F1
330
F0
100
AcDbEntity
  8
Layer 1
 62
     7
370
    25
100
AcDbVertex
100
AcDb2dVertex
 10
410.571666021489
 20
1366.938785465557
 30
0.0
  0
VERTEX
  5
F2
330
F0
100
AcDbEntity
  8
Layer 1
 62
     7
370
    25
100
AcDbVertex
100
AcDb2dVertex
 10
426.4468382722945
 20
1366.938785465557
 30
0.0
  0
SEQEND
  5
F3
330
F0
100
AcDbEntity
  8
Layer 1
370
    25
  0
POLYLINE
  5
F4
330
3C
100
AcDbEntity
  8
Layer 1
 62
     7
370
    25
100
AcDb2dPolyline
 66
     1
 10
0.0
 20
0.0
 30
0.0
  0
VERTEX
  5
F5
330
F4
100
AcDbEntity
  8
Layer 1
 62
     7
370
    25
100
AcDbVertex
100
AcDb2dVertex
 10
426.4468382722945
 20
1366.938785465557
 30
0.0
  0
VERTEX
  5
F6
330
F4
100
AcDbEntity
  8
Layer 1
 62
     7
370
    25
100
AcDbVertex
100
AcDb2dVertex
 10
431.7381604280898
 20
1359.88340216654
 30
0.0
  0
SEQEND
  5
F7
330
F4
100
AcDbEntity
  8
Layer 1
370
    25
  0
POLYLINE
  5
F8
330
3C
100
AcDbEntity
  8
Layer 1
 62
     7
370
    25
100
AcDb2dPolyline
 66
     1
 10
0.0
 20
0.0
 30
0.0
  0
VERTEX
  5
F9
330
F8
100
AcDbEntity
  8
Layer 1
 62
     7
370
    25
100
AcDbVertex
100
AcDb2dVertex
 10
431.7381604280898
 20
1359.88340216654
 30
0.0
  0
VERTEX
  5
FA
330
F8
100
AcDbEntity
  8
Layer 1
 62
     7
370
    25
100
AcDbVertex
100
AcDb2dVertex
 10
431.7381604280898
 20
1352.828018867522
 30
0.0
  0
SEQEND
  5
FB
330
F8
100
AcDbEntity
  8
Layer 1
370
    25
  0
POLYLINE
  5
FC
330
3C
100
AcDbEntity
  8
Layer 1
 62
     7
370
    25
100
AcDb2dPolyline
 66
     1
 10
0.0
 20
0.0
 30
0.0
  0
VERTEX
  5
FD
330
FC
100
AcDbEntity
  8
Layer 1
 62
     7
370
    25
100
AcDbVertex
100
AcDb2dVertex
 10
431.7381604280898
 20
1352.828018867522
 30
0.0
  0
VERTEX
  5
FE
330
FC
100
AcDbEntity
  8
Layer 1
 62
     7
370
    25
100
AcDbVertex
100
AcDb2dVertex
 10
426.4468382722945
 20
1345.772291058956
 30
0.0
  0
SEQEND
  5
FF
330
FC
100
AcDbEntity
  8
Layer 1
370
    25
  0
POLYLINE
  5
100
330
3C
100
AcDbEntity
  8
Layer 1
 62
     7
370
    25
100
AcDb2dPolyline
 66
     1
 10
0.0
 20
0.0
 30
0.0
  0
VERTEX
  5
101
330
100
100
AcDbEntity
  8
Layer 1
 62
     7
370
    25
100
AcDbVertex
100
AcDb2dVertex
 10
426.4468382722945
 20
1345.772291058956
 30
0.0
  0
VERTEX
  5
102
330
100
100
AcDbEntity
  8
Layer 1
 62
     7
370
    25
100
AcDbVertex
100
AcDb2dVertex
 10
415.8633326868328
 20
1345.772291058956
 30
0.0
  0
SEQEND
  5
103
330
100
100
AcDbEntity
  8
Layer 1
370
    25
  0
POLYLINE
  5
104
330
3C
100
AcDbEntity
  8
Layer 1
 62
     7
370
    25
100
AcDb2dPolyline
 66
     1
 10
0.0
 20
0.0
 30
0.0
  0
VERTEX
  5
105
330
104
100
AcDbEntity
  8
Layer 1
 62
     7
370
    25
100
AcDbVertex
100
AcDb2dVertex
 10
415.8633326868328
 20
1345.772291058956
 30
0.0
  0
VERTEX
  5
106
330
104
100
AcDbEntity
  8
Layer 1
 62
     7
370
    25
100
AcDbVertex
100
AcDb2dVertex
 10
410.571666021489
 20
1352.828018867522
 30
0.0
  0
SEQEND
  5
107
330
104
100
AcDbEntity
  8
Layer 1
370
    25
  0
POLYLINE
  5
108
330
3C
100
AcDbEntity
  8
Layer 1
 62
     7
370
    25
100
AcDb2dPolyline
 66
     1
 10
0.0
 20
0.0
 30
0.0
  0
VERTEX
  5
109
330
108
100
AcDbEntity
  8
Layer 1
 62
     7
370
    25
100
AcDbVertex
100
AcDb2dVertex
 10
410.571666021489
 20
1352.828018867522
 30
0.0
  0
VERTEX
  5
10A
330
108
100
AcDbEntity
  8
Layer 1
 62
     7
370
    25
100
AcDbVertex
100
AcDb2dVertex
 10
410.571666021489
 20
1373.994513274123
 30
0.0
  0
SEQEND
  5
10B
330
108
100
AcDbEntity
  8
Layer 1
370
    25
  0
POLYLINE
  5
10C
330
3C
100
AcDbEntity
  8
Layer 1
 62
     7
370
    25
100
AcDb2dPolyline
 66
     1
 10
0.0
 20
0.0
 30
0.0
  0
VERTEX
  5
10D
330
10C
100
AcDbEntity
  8
Layer 1
 62
     7
370
    25
100
AcDbVertex
100
AcDb2dVertex
 10
410.571666021489
 20
1373.994513274123
 30
0.0
  0
VERTEX
  5
10E
330
10C
100
AcDbEntity
  8
Layer 1
 62
     7
370
    25
100
AcDbVertex
100
AcDb2dVertex
 10
421.1551716069508
 20
1388.105624381706
 30
0.0
  0
SEQEND
  5
10F
330
10C
100
AcDbEntity
  8
Layer 1
370
    25
  0
POLYLINE
  5
110
330
3C
100
AcDbEntity
  8
Layer 1
 62
     7
370
    25
100
AcDb2dPolyline
 66
     1
 10
0.0
 20
0.0
 30
0.0
  0
VERTEX
  5
111
330
110
100
AcDbEntity
  8
Layer 1
 62
     7
370
    25
100
AcDbVertex
100
AcDb2dVertex
 10
421.1551716069508
 20
1388.105624381706
 30
0.0
  0
VERTEX
  5
112
330
110
100
AcDbEntity
  8
Layer 1
 62
     7
370
    25
100
AcDbVertex
100
AcDb2dVertex
 10
426.4468382722945
 20
1388.105624381706
 30
0.0
  0
SEQEND
  5
113
330
110
100
AcDbEntity
  8
Layer 1
370
    25
  0
POLYLINE
  5
114
330
3C
100
AcDbEntity
  8
Layer 1
 62
     7
370
    25
100
AcDb2dPolyline
 66
     1
 10
0.0
 20
0.0
 30
0.0
  0
VERTEX
  5
115
330
114
100
AcDbEntity
  8
Layer 1
 62
     7
370
    25
100
AcDbVertex
100
AcDb2dVertex
 10
447.6133326788953
 20
1345.772291058956
 30
0.0
  0
VERTEX
  5
116
330
114
100
AcDbEntity
  8
Layer 1
 62
     7
370
    25
100
AcDbVertex
100
AcDb2dVertex
 10
442.3216660135515
 20
1352.828018867522
 30
0.0
  0
SEQEND
  5
117
330
114
100
AcDbEntity
  8
Layer 1
370
    25
  0
POLYLINE
  5
118
330
3C
100
AcDbEntity
  8
Layer 1
 62
     7
370
    25
100
AcDb2dPolyline
 66
     1
 10
0.0
 20
0.0
 30
0.0
  0
VERTEX
  5
119
330
118
100
AcDbEntity
  8
Layer 1
 62
     7
370
    25
100
AcDbVertex
100
AcDb2dVertex
 10
442.3216660135515
 20
1352.828018867522
 30
0.0
  0
VERTEX
  5
11A
330
118
100
AcDbEntity
  8
Layer 1
 62
     7
370
    25
100
AcDbVertex
100
AcDb2dVertex
 10
442.3216660135515
 20
1381.050241082689
 30
0.0
  0
SEQEND
  5
11B
330
118
100
AcDbEntity
  8
Layer 1
370
    25
  0
POLYLINE
  5
11C
330
3C
100
AcDbEntity
  8
Layer 1
 62
     7
370
    25
100
AcDb2dPolyline
 66
     1
 10
0.0
 20
0.0
 30
0.0
  0
VERTEX
  5
11D
330
11C
100
AcDbEntity
  8
Layer 1
 62
     7
370
    25
100
AcDbVertex
100
AcDb2dVertex
 10
442.3216660135515
 20
1381.050241082689
 30
0.0
  0
VERTEX
  5
11E
330
11C
100
AcDbEntity
  8
Layer 1
 62
     7
370
    25
100
AcDbVertex
100
AcDb2dVertex
 10
447.6133326788953
 20
1388.105624381706
 30
0.0
  0
SEQEND
  5
11F
330
11C
100
AcDbEntity
  8
Layer 1
370
    25
  0
POLYLINE
  5
120
330
3C
100
AcDbEntity
  8
Layer 1
 62
     7
370
    25
100
AcDb2dPolyline
 66
     1
 10
0.0
 20
0.0
 30
0.0
  0
VERTEX
  5
121
330
120
100
AcDbEntity
  8
Layer 1
 62
     7
370
    25
100
AcDbVertex
100
AcDb2dVertex
 10
447.6133326788953
 20
1388.105624381706
 30
0.0
  0
VERTEX
  5
122
330
120
100
AcDbEntity
  8
Layer 1
 62
     7
370
    25
100
AcDbVertex
100
AcDb2dVertex
 10
452.9049993442391
 20
1388.105624381706
 30
0.0
  0
SEQEND
  5
123
330
120
100
AcDbEntity
  8
Layer 1
370
    25
  0
POLYLINE
  5
124
330
3C
100
AcDbEntity
  8
Layer 1
 62
     7
370
    25
100
AcDb2dPolyline
 66
     1
 10
0.0
 20
0.0
 30
0.0
  0
VERTEX
  5
125
330
124
100
AcDbEntity
  8
Layer 1
 62
     7
370
    25
100
AcDbVertex
100
AcDb2dVertex
 10
452.9049993442391
 20
1388.105624381706
 30
0.0
  0
VERTEX
  5
126
330
124
100
AcDbEntity
  8
Layer 1
 62
     7
370
    25
100
AcDbVertex
100
AcDb2dVertex
 10
458.196838264357
 20
1381.050241082689
 30
0.0
  0
SEQEND
  5
127
330
124
100
AcDbEntity
  8
Layer 1
370
    25
  0
POLYLINE
  5
128
330
3C
100
AcDbEntity
  8
Layer 1
 62
     7
370
    25
100
AcDb2dPolyline
 66
     1
 10
0.0
 20
0.0
 30
0.0
  0
VERTEX
  5
129
330
128
100
AcDbEntity
  8
Layer 1
 62
     7
370
    25
100
AcDbVertex
100
AcDb2dVertex
 10
458.196838264357
 20
1381.050241082689
 30
0.0
  0
VERTEX
  5
12A
330
128
100
AcDbEntity
  8
Layer 1
 62
     7
370
    25
100
AcDbVertex
100
AcDb2dVertex
 10
458.196838264357
 20
1352.828018867522
 30
0.0
  0
SEQEND
  5
12B
330
128
100
AcDbEntity
  8
Layer 1
370
    25
  0
POLYLINE
  5
12C
330
3C
100
AcDbEntity
  8
Layer 1
 62
     7
370
    25
100
AcDb2dPolyline
 66
     1
 10
0.0
 20
0.0
 30
0.0
  0
VERTEX
  5
12D
330
12C
100
AcDbEntity
  8
Layer 1
 62
     7
370
    25
100
AcDbVertex
100
AcDb2dVertex
 10
458.196838264357
 20
1352.828018867522
 30
0.0
  0
VERTEX
  5
12E
330
12C
100
AcDbEntity
  8
Layer 1
 62
     7
370
    25
100
AcDbVertex
100
AcDb2dVertex
 10
452.9049993442391
 20
1345.772291058956
 30
0.0
  0
SEQEND
  5
12F
330
12C
100
AcDbEntity
  8
Layer 1
370
    25
  0
POLYLINE
  5
130
330
3C
100
AcDbEntity
  8
Layer 1
 62
     7
370
    25
100
AcDb2dPolyline
 66
     1
 10
0.0
 20
0.0
 30
0.0
  0
VERTEX
  5
131
330
130
100
AcDbEntity
  8
Layer 1
 62
     7
370
    25
100
AcDbVertex
100
AcDb2dVertex
 10
452.9049993442391
 20
1345.772291058956
 30
0.0
  0
VERTEX
  5
132
330
130
100
AcDbEntity
  8
Layer 1
 62
     7
370
    25
100
AcDbVertex
100
AcDb2dVertex
 10
447.6133326788953
 20
1345.772291058956
 30
0.0
  0
SEQEND
  5
133
330
130
100
AcDbEntity
  8
Layer 1
370
    25
  0
POLYLINE
  5
134
330
3C
100
AcDbEntity
  8
Layer 1
370
     0
100
AcDb2dPolyline
 66
     1
 10
0.0
 20
0.0
 30
0.0
  0
VERTEX
  5
135
330
134
100
AcDbEntity
  8
Layer 1
370
     0
100
AcDbVertex
100
AcDb2dVertex
 10
112.910076197901
 20
1137.062549900196
 30
0.0
  0
VERTEX
  5
136
330
134
100
AcDbEntity
  8
Layer 1
370
     0
100
AcDbVertex
100
AcDb2dVertex
 10
117.9101155304183
 20
1107.062486159866
 30
0.0
  0
VERTEX
  5
137
330
134
100
AcDbEntity
  8
Layer 1
370
     0
100
AcDbVertex
100
AcDb2dVertex
 10
107.9098646106093
 20
1107.062486159866
 30
0.0
  0
SEQEND
  5
138
330
134
100
AcDbEntity
  8
Layer 1
370
     0
  0
HATCH
  5
139
330
3C
100
AcDbEntity
  8
Layer 1
 62
     7
100
AcDbHatch
 10
0.0
 20
0.0
 30
0.0
210
0.0
220
0.0
230
1.0
  2
SOLID
 70
     1
 71
     0
 91
        1
 92
        1
 93
        3
 72
     1
 10
112.910076197901
 20
1137.062549900196
 11
117.9101155304183
 21
1107.062486159866
 72
     1
 10
117.9101155304183
 20
1107.062486159866
 11
107.9098646106093
 21
1107.062486159866
 72
     1
 10
107.9098646106093
 20
1107.062486159866
 11
112.910076197901
 21
1137.062549900196
 97
        0
 75
     2
 76
     1
 98
        0
  0
POLYLINE
  5
13A
330
3C
100
AcDbEntity
  8
Layer 1
370
     0
100
AcDb2dPolyline
 66
     1
 10
0.0
 20
0.0
 30
0.0
  0
VERTEX
  5
13B
330
13A
100
AcDbEntity
  8
Layer 1
370
     0
100
AcDbVertex
100
AcDb2dVertex
 10
112.910076197901
 20
637.0653345846573
 30
0.0
  0
VERTEX
  5
13C
330
13A
100
AcDbEntity
  8
Layer 1
370
     0
100
AcDbVertex
100
AcDb2dVertex
 10
107.9098646106093
 20
667.0655705797615
 30
0.0
  0
VERTEX
  5
13D
330
13A
100
AcDbEntity
  8
Layer 1
370
     0
100
AcDbVertex
100
AcDb2dVertex
 10
117.9101155304183
 20
667.0655705797615
 30
0.0
  0
SEQEND
  5
13E
330
13A
100
AcDbEntity
  8
Layer 1
370
     0
  0
HATCH
  5
13F
330
3C
100
AcDbEntity
  8
Layer 1
 62
     7
100
AcDbHatch
 10
0.0
 20
0.0
 30
0.0
210
0.0
220
0.0
230
1.0
  2
SOLID
 70
     1
 71
     0
 91
        1
 92
        1
 93
        3
 72
     1
 10
112.910076197901
 20
637.0653345846573
 11
107.9098646106093
 21
667.0655705797615
 72
     1
 10
107.9098646106093
 20
667.0655705797615
 11
117.9101155304183
 21
667.0655705797615
 72
     1
 10
117.9101155304183
 20
667.0655705797615
 11
112.910076197901
 21
637.0653345846573
 97
        0
 75
     2
 76
     1
 98
        0
  0
POLYLINE
  5
140
330
3C
100
AcDbEntity
  8
Layer 1
 62
     7
370
    25
100
AcDb2dPolyline
 66
     1
 10
0.0
 20
0.0
 30
0.0
  0
VERTEX
  5
141
330
140
100
AcDbEntity
  8
Layer 1
 62
     7
370
    25
100
AcDbVertex
100
AcDb2dVertex
 10
172.2928425676039
 20
1137.062549900196
 30
0.0
  0
VERTEX
  5
142
330
140
100
AcDbEntity
  8
Layer 1
 62
     7
370
    25
100
AcDbVertex
100
AcDb2dVertex
 10
102.9101697876405
 20
1137.062549900196
 30
0.0
  0
SEQEND
  5
143
330
140
100
AcDbEntity
  8
Layer 1
370
    25
  0
POLYLINE
  5
144
330
3C
100
AcDbEntity
  8
Layer 1
 62
     7
370
    25
100
AcDb2dPolyline
 66
     1
 10
0.0
 20
0.0
 30
0.0
  0
VERTEX
  5
145
330
144
100
AcDbEntity
  8
Layer 1
 62
     7
370
    25
100
AcDbVertex
100
AcDb2dVertex
 10
171.4854844406356
 20
637.0653345846573
 30
0.0
  0
VERTEX
  5
146
330
144
100
AcDbEntity
  8
Layer 1
 62
     7
370
    25
100
AcDbVertex
100
AcDb2dVertex
 10
102.9101697876405
 20
637.0653345846573
 30
0.0
  0
SEQEND
  5
147
330
144
100
AcDbEntity
  8
Layer 1
370
    25
  0
POLYLINE
  5
148
330
3C
100
AcDbEntity
  8
Layer 1
 62
     7
370
    25
100
AcDb2dPolyline
 66
     1
 10
0.0
 20
0.0
 30
0.0
  0
VERTEX
  5
149
330
148
100
AcDbEntity
  8
Layer 1
 62
     7
370
    25
100
AcDbVertex
100
AcDb2dVertex
 10
112.910076197901
 20
1137.062549900196
 30
0.0
  0
VERTEX
  5
14A
330
148
100
AcDbEntity
  8
Layer 1
 62
     7
370
    25
100
AcDbVertex
100
AcDb2dVertex
 10
112.910076197901
 20
637.0653345846573
 30
0.0
  0
SEQEND
  5
14B
330
148
100
AcDbEntity
  8
Layer 1
370
    25
  0
POLYLINE
  5
14C
330
3C
100
AcDbEntity
  8
Layer 1
 62
     7
370
    25
100
AcDb2dPolyline
 66
     1
 10
0.0
 20
0.0
 30
0.0
  0
VERTEX
  5
14D
330
14C
100
AcDbEntity
  8
Layer 1
 62
     7
370
    25
100
AcDbVertex
100
AcDb2dVertex
 10
93.6173692257276
 20
822.976122841131
 30
0.0
  0
VERTEX
  5
14E
330
14C
100
AcDbEntity
  8
Layer 1
 62
     7
370
    25
100
AcDbVertex
100
AcDb2dVertex
 10
100.672752524745
 20
828.267961761249
 30
0.0
  0
SEQEND
  5
14F
330
14C
100
AcDbEntity
  8
Layer 1
370
    25
  0
POLYLINE
  5
150
330
3C
100
AcDbEntity
  8
Layer 1
 62
     7
370
    25
100
AcDb2dPolyline
 66
     1
 10
0.0
 20
0.0
 30
0.0
  0
VERTEX
  5
151
330
150
100
AcDbEntity
  8
Layer 1
 62
     7
370
    25
100
AcDbVertex
100
AcDb2dVertex
 10
100.672752524745
 20
828.267961761249
 30
0.0
  0
VERTEX
  5
152
330
150
100
AcDbEntity
  8
Layer 1
 62
     7
370
    25
100
AcDbVertex
100
AcDb2dVertex
 10
100.672752524745
 20
838.8512950919365
 30
0.0
  0
SEQEND
  5
153
330
150
100
AcDbEntity
  8
Layer 1
370
    25
  0
POLYLINE
  5
154
330
3C
100
AcDbEntity
  8
Layer 1
 62
     7
370
    25
100
AcDb2dPolyline
 66
     1
 10
0.0
 20
0.0
 30
0.0
  0
VERTEX
  5
155
330
154
100
AcDbEntity
  8
Layer 1
 62
     7
370
    25
100
AcDbVertex
100
AcDb2dVertex
 10
100.672752524745
 20
838.8512950919365
 30
0.0
  0
VERTEX
  5
156
330
154
100
AcDbEntity
  8
Layer 1
 62
     7
370
    25
100
AcDbVertex
100
AcDb2dVertex
 10
93.6173692257276
 20
844.1426172477318
 30
0.0
  0
SEQEND
  5
157
330
154
100
AcDbEntity
  8
Layer 1
370
    25
  0
POLYLINE
  5
158
330
3C
100
AcDbEntity
  8
Layer 1
 62
     7
370
    25
100
AcDb2dPolyline
 66
     1
 10
0.0
 20
0.0
 30
0.0
  0
VERTEX
  5
159
330
158
100
AcDbEntity
  8
Layer 1
 62
     7
370
    25
100
AcDbVertex
100
AcDb2dVertex
 10
93.6173692257276
 20
844.1426172477318
 30
0.0
  0
VERTEX
  5
15A
330
158
100
AcDbEntity
  8
Layer 1
 62
     7
370
    25
100
AcDbVertex
100
AcDb2dVertex
 10
79.50625811814427
 20
844.1426172477318
 30
0.0
  0
SEQEND
  5
15B
330
158
100
AcDbEntity
  8
Layer 1
370
    25
  0
POLYLINE
  5
15C
330
3C
100
AcDbEntity
  8
Layer 1
 62
     7
370
    25
100
AcDb2dPolyline
 66
     1
 10
0.0
 20
0.0
 30
0.0
  0
VERTEX
  5
15D
330
15C
100
AcDbEntity
  8
Layer 1
 62
     7
370
    25
100
AcDbVertex
100
AcDb2dVertex
 10
79.50625811814427
 20
844.1426172477318
 30
0.0
  0
VERTEX
  5
15E
330
15C
100
AcDbEntity
  8
Layer 1
 62
     7
370
    25
100
AcDbVertex
100
AcDb2dVertex
 10
72.45087481912687
 20
838.8512950919365
 30
0.0
  0
SEQEND
  5
15F
330
15C
100
AcDbEntity
  8
Layer 1
370
    25
  0
POLYLINE
  5
160
330
3C
100
AcDbEntity
  8
Layer 1
 62
     7
370
    25
100
AcDb2dPolyline
 66
     1
 10
0.0
 20
0.0
 30
0.0
  0
VERTEX
  5
161
330
160
100
AcDbEntity
  8
Layer 1
 62
     7
370
    25
100
AcDbVertex
100
AcDb2dVertex
 10
72.45087481912687
 20
838.8512950919365
 30
0.0
  0
VERTEX
  5
162
330
160
100
AcDbEntity
  8
Layer 1
 62
     7
370
    25
100
AcDbVertex
100
AcDb2dVertex
 10
72.45087481912687
 20
822.976122841131
 30
0.0
  0
SEQEND
  5
163
330
160
100
AcDbEntity
  8
Layer 1
370
    25
  0
POLYLINE
  5
164
330
3C
100
AcDbEntity
  8
Layer 1
 62
     7
370
    25
100
AcDb2dPolyline
 66
     1
 10
0.0
 20
0.0
 30
0.0
  0
VERTEX
  5
165
330
164
100
AcDbEntity
  8
Layer 1
 62
     7
370
    25
100
AcDbVertex
100
AcDb2dVertex
 10
72.45087481912687
 20
822.976122841131
 30
0.0
  0
VERTEX
  5
166
330
164
100
AcDbEntity
  8
Layer 1
 62
     7
370
    25
100
AcDbVertex
100
AcDb2dVertex
 10
58.33941920199501
 20
822.976122841131
 30
0.0
  0
SEQEND
  5
167
330
164
100
AcDbEntity
  8
Layer 1
370
    25
  0
POLYLINE
  5
168
330
3C
100
AcDbEntity
  8
Layer 1
 62
     7
370
    25
100
AcDb2dPolyline
 66
     1
 10
0.0
 20
0.0
 30
0.0
  0
VERTEX
  5
169
330
168
100
AcDbEntity
  8
Layer 1
 62
     7
370
    25
100
AcDbVertex
100
AcDb2dVertex
 10
58.33941920199501
 20
822.976122841131
 30
0.0
  0
VERTEX
  5
16A
330
168
100
AcDbEntity
  8
Layer 1
 62
     7
370
    25
100
AcDbVertex
100
AcDb2dVertex
 10
58.33941920199501
 20
844.1426172477318
 30
0.0
  0
SEQEND
  5
16B
330
168
100
AcDbEntity
  8
Layer 1
370
    25
  0
POLYLINE
  5
16C
330
3C
100
AcDbEntity
  8
Layer 1
 62
     7
370
    25
100
AcDb2dPolyline
 66
     1
 10
0.0
 20
0.0
 30
0.0
  0
VERTEX
  5
16D
330
16C
100
AcDbEntity
  8
Layer 1
 62
     7
370
    25
100
AcDbVertex
100
AcDb2dVertex
 10
100.672752524745
 20
860.0177894985372
 30
0.0
  0
VERTEX
  5
16E
330
16C
100
AcDbEntity
  8
Layer 1
 62
     7
370
    25
100
AcDbVertex
100
AcDb2dVertex
 10
93.6173692257276
 20
854.7261228331935
 30
0.0
  0
SEQEND
  5
16F
330
16C
100
AcDbEntity
  8
Layer 1
370
    25
  0
POLYLINE
  5
170
330
3C
100
AcDbEntity
  8
Layer 1
 62
     7
370
    25
100
AcDb2dPolyline
 66
     1
 10
0.0
 20
0.0
 30
0.0
  0
VERTEX
  5
171
330
170
100
AcDbEntity
  8
Layer 1
 62
     7
370
    25
100
AcDbVertex
100
AcDb2dVertex
 10
93.6173692257276
 20
854.7261228331935
 30
0.0
  0
VERTEX
  5
172
330
170
100
AcDbEntity
  8
Layer 1
 62
     7
370
    25
100
AcDbVertex
100
AcDb2dVertex
 10
65.39514701056093
 20
854.7261228331935
 30
0.0
  0
SEQEND
  5
173
330
170
100
AcDbEntity
  8
Layer 1
370
    25
  0
POLYLINE
  5
174
330
3C
100
AcDbEntity
  8
Layer 1
 62
     7
370
    25
100
AcDb2dPolyline
 66
     1
 10
0.0
 20
0.0
 30
0.0
  0
VERTEX
  5
175
330
174
100
AcDbEntity
  8
Layer 1
 62
     7
370
    25
100
AcDbVertex
100
AcDb2dVertex
 10
65.39514701056093
 20
854.7261228331935
 30
0.0
  0
VERTEX
  5
176
330
174
100
AcDbEntity
  8
Layer 1
 62
     7
370
    25
100
AcDbVertex
100
AcDb2dVertex
 10
58.33941920199501
 20
860.0177894985372
 30
0.0
  0
SEQEND
  5
177
330
174
100
AcDbEntity
  8
Layer 1
370
    25
  0
POLYLINE
  5
178
330
3C
100
AcDbEntity
  8
Layer 1
 62
     7
370
    25
100
AcDb2dPolyline
 66
     1
 10
0.0
 20
0.0
 30
0.0
  0
VERTEX
  5
179
330
178
100
AcDbEntity
  8
Layer 1
 62
     7
370
    25
100
AcDbVertex
100
AcDb2dVertex
 10
58.33941920199501
 20
860.0177894985372
 30
0.0
  0
VERTEX
  5
17A
330
178
100
AcDbEntity
  8
Layer 1
 62
     7
370
    25
100
AcDbVertex
100
AcDb2dVertex
 10
58.33941920199501
 20
865.309456163881
 30
0.0
  0
SEQEND
  5
17B
330
178
100
AcDbEntity
  8
Layer 1
370
    25
  0
POLYLINE
  5
17C
330
3C
100
AcDbEntity
  8
Layer 1
 62
     7
370
    25
100
AcDb2dPolyline
 66
     1
 10
0.0
 20
0.0
 30
0.0
  0
VERTEX
  5
17D
330
17C
100
AcDbEntity
  8
Layer 1
 62
     7
370
    25
100
AcDbVertex
100
AcDb2dVertex
 10
58.33941920199501
 20
865.309456163881
 30
0.0
  0
VERTEX
  5
17E
330
17C
100
AcDbEntity
  8
Layer 1
 62
     7
370
    25
100
AcDbVertex
100
AcDb2dVertex
 10
65.39514701056093
 20
870.6007783196762
 30
0.0
  0
SEQEND
  5
17F
330
17C
100
AcDbEntity
  8
Layer 1
370
    25
  0
POLYLINE
  5
180
330
3C
100
AcDbEntity
  8
Layer 1
 62
     7
370
    25
100
AcDb2dPolyline
 66
     1
 10
0.0
 20
0.0
 30
0.0
  0
VERTEX
  5
181
330
180
100
AcDbEntity
  8
Layer 1
 62
     7
370
    25
100
AcDbVertex
100
AcDb2dVertex
 10
65.39514701056093
 20
870.6007783196762
 30
0.0
  0
VERTEX
  5
182
330
180
100
AcDbEntity
  8
Layer 1
 62
     7
370
    25
100
AcDbVertex
100
AcDb2dVertex
 10
93.6173692257276
 20
870.6007783196762
 30
0.0
  0
SEQEND
  5
183
330
180
100
AcDbEntity
  8
Layer 1
370
    25
  0
POLYLINE
  5
184
330
3C
100
AcDbEntity
  8
Layer 1
 62
     7
370
    25
100
AcDb2dPolyline
 66
     1
 10
0.0
 20
0.0
 30
0.0
  0
VERTEX
  5
185
330
184
100
AcDbEntity
  8
Layer 1
 62
     7
370
    25
100
AcDbVertex
100
AcDb2dVertex
 10
93.6173692257276
 20
870.6007783196762
 30
0.0
  0
VERTEX
  5
186
330
184
100
AcDbEntity
  8
Layer 1
 62
     7
370
    25
100
AcDbVertex
100
AcDb2dVertex
 10
100.672752524745
 20
865.309456163881
 30
0.0
  0
SEQEND
  5
187
330
184
100
AcDbEntity
  8
Layer 1
370
    25
  0
POLYLINE
  5
188
330
3C
100
AcDbEntity
  8
Layer 1
 62
     7
370
    25
100
AcDb2dPolyline
 66
     1
 10
0.0
 20
0.0
 30
0.0
  0
VERTEX
  5
189
330
188
100
AcDbEntity
  8
Layer 1
 62
     7
370
    25
100
AcDbVertex
100
AcDb2dVertex
 10
100.672752524745
 20
865.309456163881
 30
0.0
  0
VERTEX
  5
18A
330
188
100
AcDbEntity
  8
Layer 1
 62
     7
370
    25
100
AcDbVertex
100
AcDb2dVertex
 10
100.672752524745
 20
860.0177894985372
 30
0.0
  0
SEQEND
  5
18B
330
188
100
AcDbEntity
  8
Layer 1
370
    25
  0
POLYLINE
  5
18C
330
3C
100
AcDbEntity
  8
Layer 1
 62
     7
370
    25
100
AcDb2dPolyline
 66
     1
 10
0.0
 20
0.0
 30
0.0
  0
VERTEX
  5
18D
330
18C
100
AcDbEntity
  8
Layer 1
 62
     7
370
    25
100
AcDbVertex
100
AcDb2dVertex
 10
100.672752524745
 20
886.4759505704817
 30
0.0
  0
VERTEX
  5
18E
330
18C
100
AcDbEntity
  8
Layer 1
 62
     7
370
    25
100
AcDbVertex
100
AcDb2dVertex
 10
93.6173692257276
 20
881.184283905138
 30
0.0
  0
SEQEND
  5
18F
330
18C
100
AcDbEntity
  8
Layer 1
370
    25
  0
POLYLINE
  5
190
330
3C
100
AcDbEntity
  8
Layer 1
 62
     7
370
    25
100
AcDb2dPolyline
 66
     1
 10
0.0
 20
0.0
 30
0.0
  0
VERTEX
  5
191
330
190
100
AcDbEntity
  8
Layer 1
 62
     7
370
    25
100
AcDbVertex
100
AcDb2dVertex
 10
93.6173692257276
 20
881.184283905138
 30
0.0
  0
VERTEX
  5
192
330
190
100
AcDbEntity
  8
Layer 1
 62
     7
370
    25
100
AcDbVertex
100
AcDb2dVertex
 10
65.39514701056093
 20
881.184283905138
 30
0.0
  0
SEQEND
  5
193
330
190
100
AcDbEntity
  8
Layer 1
370
    25
  0
POLYLINE
  5
194
330
3C
100
AcDbEntity
  8
Layer 1
 62
     7
370
    25
100
AcDb2dPolyline
 66
     1
 10
0.0
 20
0.0
 30
0.0
  0
VERTEX
  5
195
330
194
100
AcDbEntity
  8
Layer 1
 62
     7
370
    25
100
AcDbVertex
100
AcDb2dVertex
 10
65.39514701056093
 20
881.184283905138
 30
0.0
  0
VERTEX
  5
196
330
194
100
AcDbEntity
  8
Layer 1
 62
     7
370
    25
100
AcDbVertex
100
AcDb2dVertex
 10
58.33941920199501
 20
886.4759505704817
 30
0.0
  0
SEQEND
  5
197
330
194
100
AcDbEntity
  8
Layer 1
370
    25
  0
POLYLINE
  5
198
330
3C
100
AcDbEntity
  8
Layer 1
 62
     7
370
    25
100
AcDb2dPolyline
 66
     1
 10
0.0
 20
0.0
 30
0.0
  0
VERTEX
  5
199
330
198
100
AcDbEntity
  8
Layer 1
 62
     7
370
    25
100
AcDbVertex
100
AcDb2dVertex
 10
58.33941920199501
 20
886.4759505704817
 30
0.0
  0
VERTEX
  5
19A
330
198
100
AcDbEntity
  8
Layer 1
 62
     7
370
    25
100
AcDbVertex
100
AcDb2dVertex
 10
58.33941920199501
 20
891.7677894905997
 30
0.0
  0
SEQEND
  5
19B
330
198
100
AcDbEntity
  8
Layer 1
370
    25
  0
POLYLINE
  5
19C
330
3C
100
AcDbEntity
  8
Layer 1
 62
     7
370
    25
100
AcDb2dPolyline
 66
     1
 10
0.0
 20
0.0
 30
0.0
  0
VERTEX
  5
19D
330
19C
100
AcDbEntity
  8
Layer 1
 62
     7
370
    25
100
AcDbVertex
100
AcDb2dVertex
 10
58.33941920199501
 20
891.7677894905997
 30
0.0
  0
VERTEX
  5
19E
330
19C
100
AcDbEntity
  8
Layer 1
 62
     7
370
    25
100
AcDbVertex
100
AcDb2dVertex
 10
65.39514701056093
 20
897.0594561559435
 30
0.0
  0
SEQEND
  5
19F
330
19C
100
AcDbEntity
  8
Layer 1
370
    25
  0
POLYLINE
  5
1A0
330
3C
100
AcDbEntity
  8
Layer 1
 62
     7
370
    25
100
AcDb2dPolyline
 66
     1
 10
0.0
 20
0.0
 30
0.0
  0
VERTEX
  5
1A1
330
1A0
100
AcDbEntity
  8
Layer 1
 62
     7
370
    25
100
AcDbVertex
100
AcDb2dVertex
 10
65.39514701056093
 20
897.0594561559435
 30
0.0
  0
VERTEX
  5
1A2
330
1A0
100
AcDbEntity
  8
Layer 1
 62
     7
370
    25
100
AcDbVertex
100
AcDb2dVertex
 10
93.6173692257276
 20
897.0594561559435
 30
0.0
  0
SEQEND
  5
1A3
330
1A0
100
AcDbEntity
  8
Layer 1
370
    25
  0
POLYLINE
  5
1A4
330
3C
100
AcDbEntity
  8
Layer 1
 62
     7
370
    25
100
AcDb2dPolyline
 66
     1
 10
0.0
 20
0.0
 30
0.0
  0
VERTEX
  5
1A5
330
1A4
100
AcDbEntity
  8
Layer 1
 62
     7
370
    25
100
AcDbVertex
100
AcDb2dVertex
 10
93.6173692257276
 20
897.0594561559435
 30
0.0
  0
VERTEX
  5
1A6
330
1A4
100
AcDbEntity
  8
Layer 1
 62
     7
370
    25
100
AcDbVertex
100
AcDb2dVertex
 10
100.672752524745
 20
891.7677894905997
 30
0.0
  0
SEQEND
  5
1A7
330
1A4
100
AcDbEntity
  8
Layer 1
370
    25
  0
POLYLINE
  5
1A8
330
3C
100
AcDbEntity
  8
Layer 1
 62
     7
370
    25
100
AcDb2dPolyline
 66
     1
 10
0.0
 20
0.0
 30
0.0
  0
VERTEX
  5
1A9
330
1A8
100
AcDbEntity
  8
Layer 1
 62
     7
370
    25
100
AcDbVertex
100
AcDb2dVertex
 10
100.672752524745
 20
891.7677894905997
 30
0.0
  0
VERTEX
  5
1AA
330
1A8
100
AcDbEntity
  8
Layer 1
 62
     7
370
    25
100
AcDbVertex
100
AcDb2dVertex
 10
100.672752524745
 20
886.4759505704817
 30
0.0
  0
SEQEND
  5
1AB
330
1A8
100
AcDbEntity
  8
Layer 1
370
    25
  0
POLYLINE
  5
1AC
330
3C
100
AcDbEntity
  8
Layer 1
370
     0
100
AcDb2dPolyline
 66
     1
 10
0.0
 20
0.0
 30
0.0
  0
VERTEX
  5
1AD
330
1AC
100
AcDbEntity
  8
Layer 1
370
     0
100
AcDbVertex
100
AcDb2dVertex
 10
916.4984074314657
 20
677.1152586197837
 30
0.0
  0
VERTEX
  5
1AE
330
1AC
100
AcDbEntity
  8
Layer 1
370
     0
100
AcDbVertex
100
AcDb2dVertex
 10
911.4988848632712
 20
707.1151501053394
 30
0.0
  0
VERTEX
  5
1AF
330
1AC
100
AcDbEntity
  8
Layer 1
370
     0
100
AcDbVertex
100
AcDb2dVertex
 10
921.4982745092088
 20
707.1151501053394
 30
0.0
  0
SEQEND
  5
1B0
330
1AC
100
AcDbEntity
  8
Layer 1
370
     0
  0
HATCH
  5
1B1
330
3C
100
AcDbEntity
  8
Layer 1
 62
     7
100
AcDbHatch
 10
0.0
 20
0.0
 30
0.0
210
0.0
220
0.0
230
1.0
  2
SOLID
 70
     1
 71
     0
 91
        1
 92
        1
 93
        3
 72
     1
 10
916.4984074314657
 20
677.1152586197837
 11
911.4988848632712
 21
707.1151501053394
 72
     1
 10
911.4988848632712
 20
707.1151501053394
 11
921.4982745092088
 21
707.1151501053394
 72
     1
 10
921.4982745092088
 20
707.1151501053394
 11
916.4984074314657
 21
677.1152586197837
 97
        0
 75
     2
 76
     1
 98
        0
  0
POLYLINE
  5
1B2
330
3C
100
AcDbEntity
  8
Layer 1
370
     0
100
AcDb2dPolyline
 66
     1
 10
0.0
 20
0.0
 30
0.0
  0
VERTEX
  5
1B3
330
1B2
100
AcDbEntity
  8
Layer 1
370
     0
100
AcDbVertex
100
AcDb2dVertex
 10
916.4984074314657
 20
1097.01262586507
 30
0.0
  0
VERTEX
  5
1B4
330
1B2
100
AcDbEntity
  8
Layer 1
370
     0
100
AcDbVertex
100
AcDb2dVertex
 10
921.4982745092088
 20
1067.012734379514
 30
0.0
  0
VERTEX
  5
1B5
330
1B2
100
AcDbEntity
  8
Layer 1
370
     0
100
AcDbVertex
100
AcDb2dVertex
 10
911.4988848632712
 20
1067.012734379514
 30
0.0
  0
SEQEND
  5
1B6
330
1B2
100
AcDbEntity
  8
Layer 1
370
     0
  0
HATCH
  5
1B7
330
3C
100
AcDbEntity
  8
Layer 1
 62
     7
100
AcDbHatch
 10
0.0
 20
0.0
 30
0.0
210
0.0
220
0.0
230
1.0
  2
SOLID
 70
     1
 71
     0
 91
        1
 92
        1
 93
        3
 72
     1
 10
916.4984074314657
 20
1097.01262586507
 11
921.4982745092088
 21
1067.012734379514
 72
     1
 10
921.4982745092088
 20
1067.012734379514
 11
911.4988848632712
 21
1067.012734379514
 72
     1
 10
911.4988848632712
 20
1067.012734379514
 11
916.4984074314657
 21
1097.01262586507
 97
        0
 75
     2
 76
     1
 98
        0
  0
POLYLINE
  5
1B8
330
3C
100
AcDbEntity
  8
Layer 1
 62
     7
370
    25
100
AcDb2dPolyline
 66
     1
 10
0.0
 20
0.0
 30
0.0
  0
VERTEX
  5
1B9
330
1B8
100
AcDbEntity
  8
Layer 1
 62
     7
370
    25
100
AcDbVertex
100
AcDb2dVertex
 10
714.8049477379654
 20
677.1152586197837
 30
0.0
  0
VERTEX
  5
1BA
330
1B8
100
AcDbEntity
  8
Layer 1
 62
     7
370
    25
100
AcDbVertex
100
AcDb2dVertex
 10
926.498830606049
 20
677.1152586197837
 30
0.0
  0
SEQEND
  5
1BB
330
1B8
100
AcDbEntity
  8
Layer 1
370
    25
  0
POLYLINE
  5
1BC
330
3C
100
AcDbEntity
  8
Layer 1
 62
     7
370
    25
100
AcDb2dPolyline
 66
     1
 10
0.0
 20
0.0
 30
0.0
  0
VERTEX
  5
1BD
330
1BC
100
AcDbEntity
  8
Layer 1
 62
     7
370
    25
100
AcDbVertex
100
AcDb2dVertex
 10
712.8774168139681
 20
1097.01262586507
 30
0.0
  0
VERTEX
  5
1BE
330
1BC
100
AcDbEntity
  8
Layer 1
 62
     7
370
    25
100
AcDbVertex
100
AcDb2dVertex
 10
926.498830606049
 20
1097.01262586507
 30
0.0
  0
SEQEND
  5
1BF
330
1BC
100
AcDbEntity
  8
Layer 1
370
    25
  0
POLYLINE
  5
1C0
330
3C
100
AcDbEntity
  8
Layer 1
 62
     7
370
    25
100
AcDb2dPolyline
 66
     1
 10
0.0
 20
0.0
 30
0.0
  0
VERTEX
  5
1C1
330
1C0
100
AcDbEntity
  8
Layer 1
 62
     7
370
    25
100
AcDbVertex
100
AcDb2dVertex
 10
916.4984074314657
 20
677.1152586197837
 30
0.0
  0
VERTEX
  5
1C2
330
1C0
100
AcDbEntity
  8
Layer 1
 62
     7
370
    25
100
AcDbVertex
100
AcDb2dVertex
 10
916.4984074314657
 20
1097.01262586507
 30
0.0
  0
SEQEND
  5
1C3
330
1C0
100
AcDbEntity
  8
Layer 1
370
    25
  0
POLYLINE
  5
1C4
330
3C
100
AcDbEntity
  8
Layer 1
 62
     7
370
    25
100
AcDb2dPolyline
 66
     1
 10
0.0
 20
0.0
 30
0.0
  0
VERTEX
  5
1C5
330
1C4
100
AcDbEntity
  8
Layer 1
 62
     7
370
    25
100
AcDbVertex
100
AcDb2dVertex
 10
904.2614282678583
 20
838.8512950919365
 30
0.0
  0
VERTEX
  5
1C6
330
1C4
100
AcDbEntity
  8
Layer 1
 62
     7
370
    25
100
AcDbVertex
100
AcDb2dVertex
 10
861.9284394546568
 20
838.8512950919365
 30
0.0
  0
SEQEND
  5
1C7
330
1C4
100
AcDbEntity
  8
Layer 1
370
    25
  0
POLYLINE
  5
1C8
330
3C
100
AcDbEntity
  8
Layer 1
 62
     7
370
    25
100
AcDb2dPolyline
 66
     1
 10
0.0
 20
0.0
 30
0.0
  0
VERTEX
  5
1C9
330
1C8
100
AcDbEntity
  8
Layer 1
 62
     7
370
    25
100
AcDbVertex
100
AcDb2dVertex
 10
861.9284394546568
 20
838.8512950919365
 30
0.0
  0
VERTEX
  5
1CA
330
1C8
100
AcDbEntity
  8
Layer 1
 62
     7
370
    25
100
AcDbVertex
100
AcDb2dVertex
 10
890.1506616698235
 20
822.976122841131
 30
0.0
  0
SEQEND
  5
1CB
330
1C8
100
AcDbEntity
  8
Layer 1
370
    25
  0
POLYLINE
  5
1CC
330
3C
100
AcDbEntity
  8
Layer 1
 62
     7
370
    25
100
AcDb2dPolyline
 66
     1
 10
0.0
 20
0.0
 30
0.0
  0
VERTEX
  5
1CD
330
1CC
100
AcDbEntity
  8
Layer 1
 62
     7
370
    25
100
AcDbVertex
100
AcDb2dVertex
 10
890.1506616698235
 20
822.976122841131
 30
0.0
  0
VERTEX
  5
1CE
330
1CC
100
AcDbEntity
  8
Layer 1
 62
     7
370
    25
100
AcDbVertex
100
AcDb2dVertex
 10
890.1506616698235
 20
844.1426172477318
 30
0.0
  0
SEQEND
  5
1CF
330
1CC
100
AcDbEntity
  8
Layer 1
370
    25
  0
POLYLINE
  5
1D0
330
3C
100
AcDbEntity
  8
Layer 1
 62
     7
370
    25
100
AcDb2dPolyline
 66
     1
 10
0.0
 20
0.0
 30
0.0
  0
VERTEX
  5
1D1
330
1D0
100
AcDbEntity
  8
Layer 1
 62
     7
370
    25
100
AcDbVertex
100
AcDb2dVertex
 10
868.9836504988999
 20
854.7261228331935
 30
0.0
  0
VERTEX
  5
1D2
330
1D0
100
AcDbEntity
  8
Layer 1
 62
     7
370
    25
100
AcDbVertex
100
AcDb2dVertex
 10
861.9284394546568
 20
860.0177894985372
 30
0.0
  0
SEQEND
  5
1D3
330
1D0
100
AcDbEntity
  8
Layer 1
370
    25
  0
POLYLINE
  5
1D4
330
3C
100
AcDbEntity
  8
Layer 1
 62
     7
370
    25
100
AcDb2dPolyline
 66
     1
 10
0.0
 20
0.0
 30
0.0
  0
VERTEX
  5
1D5
330
1D4
100
AcDbEntity
  8
Layer 1
 62
     7
370
    25
100
AcDbVertex
100
AcDb2dVertex
 10
861.9284394546568
 20
860.0177894985372
 30
0.0
  0
VERTEX
  5
1D6
330
1D4
100
AcDbEntity
  8
Layer 1
 62
     7
370
    25
100
AcDbVertex
100
AcDb2dVertex
 10
861.9284394546568
 20
870.6007783196762
 30
0.0
  0
SEQEND
  5
1D7
330
1D4
100
AcDbEntity
  8
Layer 1
370
    25
  0
POLYLINE
  5
1D8
330
3C
100
AcDbEntity
  8
Layer 1
 62
     7
370
    25
100
AcDb2dPolyline
 66
     1
 10
0.0
 20
0.0
 30
0.0
  0
VERTEX
  5
1D9
330
1D8
100
AcDbEntity
  8
Layer 1
 62
     7
370
    25
100
AcDbVertex
100
AcDb2dVertex
 10
861.9284394546568
 20
870.6007783196762
 30
0.0
  0
VERTEX
  5
1DA
330
1D8
100
AcDbEntity
  8
Layer 1
 62
     7
370
    25
100
AcDbVertex
100
AcDb2dVertex
 10
868.9836504988999
 20
875.8926172397943
 30
0.0
  0
SEQEND
  5
1DB
330
1D8
100
AcDbEntity
  8
Layer 1
370
    25
  0
POLYLINE
  5
1DC
330
3C
100
AcDbEntity
  8
Layer 1
 62
     7
370
    25
100
AcDb2dPolyline
 66
     1
 10
0.0
 20
0.0
 30
0.0
  0
VERTEX
  5
1DD
330
1DC
100
AcDbEntity
  8
Layer 1
 62
     7
370
    25
100
AcDbVertex
100
AcDb2dVertex
 10
868.9836504988999
 20
875.8926172397943
 30
0.0
  0
VERTEX
  5
1DE
330
1DC
100
AcDbEntity
  8
Layer 1
 62
     7
370
    25
100
AcDbVertex
100
AcDb2dVertex
 10
876.0398950717887
 20
875.8926172397943
 30
0.0
  0
SEQEND
  5
1DF
330
1DC
100
AcDbEntity
  8
Layer 1
370
    25
  0
POLYLINE
  5
1E0
330
3C
100
AcDbEntity
  8
Layer 1
 62
     7
370
    25
100
AcDb2dPolyline
 66
     1
 10
0.0
 20
0.0
 30
0.0
  0
VERTEX
  5
1E1
330
1E0
100
AcDbEntity
  8
Layer 1
 62
     7
370
    25
100
AcDbVertex
100
AcDb2dVertex
 10
876.0398950717887
 20
875.8926172397943
 30
0.0
  0
VERTEX
  5
1E2
330
1E0
100
AcDbEntity
  8
Layer 1
 62
     7
370
    25
100
AcDbVertex
100
AcDb2dVertex
 10
883.0951061160318
 20
870.6007783196762
 30
0.0
  0
SEQEND
  5
1E3
330
1E0
100
AcDbEntity
  8
Layer 1
370
    25
  0
POLYLINE
  5
1E4
330
3C
100
AcDbEntity
  8
Layer 1
 62
     7
370
    25
100
AcDb2dPolyline
 66
     1
 10
0.0
 20
0.0
 30
0.0
  0
VERTEX
  5
1E5
330
1E4
100
AcDbEntity
  8
Layer 1
 62
     7
370
    25
100
AcDbVertex
100
AcDb2dVertex
 10
883.0951061160318
 20
870.6007783196762
 30
0.0
  0
VERTEX
  5
1E6
330
1E4
100
AcDbEntity
  8
Layer 1
 62
     7
370
    25
100
AcDbVertex
100
AcDb2dVertex
 10
883.0951061160318
 20
860.0177894985372
 30
0.0
  0
SEQEND
  5
1E7
330
1E4
100
AcDbEntity
  8
Layer 1
370
    25
  0
POLYLINE
  5
1E8
330
3C
100
AcDbEntity
  8
Layer 1
 62
     7
370
    25
100
AcDb2dPolyline
 66
     1
 10
0.0
 20
0.0
 30
0.0
  0
VERTEX
  5
1E9
330
1E8
100
AcDbEntity
  8
Layer 1
 62
     7
370
    25
100
AcDbVertex
100
AcDb2dVertex
 10
883.0951061160318
 20
860.0177894985372
 30
0.0
  0
VERTEX
  5
1EA
330
1E8
100
AcDbEntity
  8
Layer 1
 62
     7
370
    25
100
AcDbVertex
100
AcDb2dVertex
 10
890.1506616698235
 20
854.7261228331935
 30
0.0
  0
SEQEND
  5
1EB
330
1E8
100
AcDbEntity
  8
Layer 1
370
    25
  0
POLYLINE
  5
1EC
330
3C
100
AcDbEntity
  8
Layer 1
 62
     7
370
    25
100
AcDb2dPolyline
 66
     1
 10
0.0
 20
0.0
 30
0.0
  0
VERTEX
  5
1ED
330
1EC
100
AcDbEntity
  8
Layer 1
 62
     7
370
    25
100
AcDbVertex
100
AcDb2dVertex
 10
890.1506616698235
 20
854.7261228331935
 30
0.0
  0
VERTEX
  5
1EE
330
1EC
100
AcDbEntity
  8
Layer 1
 62
     7
370
    25
100
AcDbVertex
100
AcDb2dVertex
 10
904.2614282678583
 20
854.7261228331935
 30
0.0
  0
SEQEND
  5
1EF
330
1EC
100
AcDbEntity
  8
Layer 1
370
    25
  0
POLYLINE
  5
1F0
330
3C
100
AcDbEntity
  8
Layer 1
 62
     7
370
    25
100
AcDb2dPolyline
 66
     1
 10
0.0
 20
0.0
 30
0.0
  0
VERTEX
  5
1F1
330
1F0
100
AcDbEntity
  8
Layer 1
 62
     7
370
    25
100
AcDbVertex
100
AcDb2dVertex
 10
904.2614282678583
 20
854.7261228331935
 30
0.0
  0
VERTEX
  5
1F2
330
1F0
100
AcDbEntity
  8
Layer 1
 62
     7
370
    25
100
AcDbVertex
100
AcDb2dVertex
 10
904.2614282678583
 20
875.8926172397943
 30
0.0
  0
SEQEND
  5
1F3
330
1F0
100
AcDbEntity
  8
Layer 1
370
    25
  0
POLYLINE
  5
1F4
330
3C
100
AcDbEntity
  8
Layer 1
 62
     7
370
    25
100
AcDb2dPolyline
 66
     1
 10
0.0
 20
0.0
 30
0.0
  0
VERTEX
  5
1F5
330
1F4
100
AcDbEntity
  8
Layer 1
 62
     7
370
    25
100
AcDbVertex
100
AcDb2dVertex
 10
904.2614282678583
 20
891.7677894905997
 30
0.0
  0
VERTEX
  5
1F6
330
1F4
100
AcDbEntity
  8
Layer 1
 62
     7
370
    25
100
AcDbVertex
100
AcDb2dVertex
 10
897.2058727140666
 20
886.4759505704817
 30
0.0
  0
SEQEND
  5
1F7
330
1F4
100
AcDbEntity
  8
Layer 1
370
    25
  0
POLYLINE
  5
1F8
330
3C
100
AcDbEntity
  8
Layer 1
 62
     7
370
    25
100
AcDb2dPolyline
 66
     1
 10
0.0
 20
0.0
 30
0.0
  0
VERTEX
  5
1F9
330
1F8
100
AcDbEntity
  8
Layer 1
 62
     7
370
    25
100
AcDbVertex
100
AcDb2dVertex
 10
897.2058727140666
 20
886.4759505704817
 30
0.0
  0
VERTEX
  5
1FA
330
1F8
100
AcDbEntity
  8
Layer 1
 62
     7
370
    25
100
AcDbVertex
100
AcDb2dVertex
 10
868.9836504988999
 20
886.4759505704817
 30
0.0
  0
SEQEND
  5
1FB
330
1F8
100
AcDbEntity
  8
Layer 1
370
    25
  0
POLYLINE
  5
1FC
330
3C
100
AcDbEntity
  8
Layer 1
 62
     7
370
    25
100
AcDb2dPolyline
 66
     1
 10
0.0
 20
0.0
 30
0.0
  0
VERTEX
  5
1FD
330
1FC
100
AcDbEntity
  8
Layer 1
 62
     7
370
    25
100
AcDbVertex
100
AcDb2dVertex
 10
868.9836504988999
 20
886.4759505704817
 30
0.0
  0
VERTEX
  5
1FE
330
1FC
100
AcDbEntity
  8
Layer 1
 62
     7
370
    25
100
AcDbVertex
100
AcDb2dVertex
 10
861.9284394546568
 20
891.7677894905997
 30
0.0
  0
SEQEND
  5
1FF
330
1FC
100
AcDbEntity
  8
Layer 1
370
    25
  0
POLYLINE
  5
200
330
3C
100
AcDbEntity
  8
Layer 1
 62
     7
370
    25
100
AcDb2dPolyline
 66
     1
 10
0.0
 20
0.0
 30
0.0
  0
VERTEX
  5
201
330
200
100
AcDbEntity
  8
Layer 1
 62
     7
370
    25
100
AcDbVertex
100
AcDb2dVertex
 10
861.9284394546568
 20
891.7677894905997
 30
0.0
  0
VERTEX
  5
202
330
200
100
AcDbEntity
  8
Layer 1
 62
     7
370
    25
100
AcDbVertex
100
AcDb2dVertex
 10
861.9284394546568
 20
897.0594561559435
 30
0.0
  0
SEQEND
  5
203
330
200
100
AcDbEntity
  8
Layer 1
370
    25
  0
POLYLINE
  5
204
330
3C
100
AcDbEntity
  8
Layer 1
 62
     7
370
    25
100
AcDb2dPolyline
 66
     1
 10
0.0
 20
0.0
 30
0.0
  0
VERTEX
  5
205
330
204
100
AcDbEntity
  8
Layer 1
 62
     7
370
    25
100
AcDbVertex
100
AcDb2dVertex
 10
861.9284394546568
 20
897.0594561559435
 30
0.0
  0
VERTEX
  5
206
330
204
100
AcDbEntity
  8
Layer 1
 62
     7
370
    25
100
AcDbVertex
100
AcDb2dVertex
 10
868.9836504988999
 20
902.3511228212873
 30
0.0
  0
SEQEND
  5
207
330
204
100
AcDbEntity
  8
Layer 1
370
    25
  0
POLYLINE
  5
208
330
3C
100
AcDbEntity
  8
Layer 1
 62
     7
370
    25
100
AcDb2dPolyline
 66
     1
 10
0.0
 20
0.0
 30
0.0
  0
VERTEX
  5
209
330
208
100
AcDbEntity
  8
Layer 1
 62
     7
370
    25
100
AcDbVertex
100
AcDb2dVertex
 10
868.9836504988999
 20
902.3511228212873
 30
0.0
  0
VERTEX
  5
20A
330
208
100
AcDbEntity
  8
Layer 1
 62
     7
370
    25
100
AcDbVertex
100
AcDb2dVertex
 10
897.2058727140666
 20
902.3511228212873
 30
0.0
  0
SEQEND
  5
20B
330
208
100
AcDbEntity
  8
Layer 1
370
    25
  0
POLYLINE
  5
20C
330
3C
100
AcDbEntity
  8
Layer 1
 62
     7
370
    25
100
AcDb2dPolyline
 66
     1
 10
0.0
 20
0.0
 30
0.0
  0
VERTEX
  5
20D
330
20C
100
AcDbEntity
  8
Layer 1
 62
     7
370
    25
100
AcDbVertex
100
AcDb2dVertex
 10
897.2058727140666
 20
902.3511228212873
 30
0.0
  0
VERTEX
  5
20E
330
20C
100
AcDbEntity
  8
Layer 1
 62
     7
370
    25
100
AcDbVertex
100
AcDb2dVertex
 10
904.2614282678583
 20
897.0594561559435
 30
0.0
  0
SEQEND
  5
20F
330
20C
100
AcDbEntity
  8
Layer 1
370
    25
  0
POLYLINE
  5
210
330
3C
100
AcDbEntity
  8
Layer 1
 62
     7
370
    25
100
AcDb2dPolyline
 66
     1
 10
0.0
 20
0.0
 30
0.0
  0
VERTEX
  5
211
330
210
100
AcDbEntity
  8
Layer 1
 62
     7
370
    25
100
AcDbVertex
100
AcDb2dVertex
 10
904.2614282678583
 20
897.0594561559435
 30
0.0
  0
VERTEX
  5
212
330
210
100
AcDbEntity
  8
Layer 1
 62
     7
370
    25
100
AcDbVertex
100
AcDb2dVertex
 10
904.2614282678583
 20
891.7677894905997
 30
0.0
  0
SEQEND
  5
213
330
210
100
AcDbEntity
  8
Layer 1
370
    25
  0
POLYLINE
  5
214
330
3C
100
AcDbEntity
  8
Layer 1
370
     0
100
AcDb2dPolyline
 66
     1
 10
0.0
 20
0.0
 30
0.0
  0
VERTEX
  5
215
330
214
100
AcDbEntity
  8
Layer 1
370
     0
100
AcDbVertex
100
AcDb2dVertex
 10
632.8585284876187
 20
1237.063681060092
 30
0.0
  0
VERTEX
  5
216
330
214
100
AcDbEntity
  8
Layer 1
370
     0
100
AcDbVertex
100
AcDb2dVertex
 10
602.8586370020631
 20
1232.0634694728
 30
0.0
  0
VERTEX
  5
217
330
214
100
AcDbEntity
  8
Layer 1
370
     0
100
AcDbVertex
100
AcDb2dVertex
 10
602.8586370020631
 20
1242.063720392609
 30
0.0
  0
SEQEND
  5
218
330
214
100
AcDbEntity
  8
Layer 1
370
     0
  0
HATCH
  5
219
330
3C
100
AcDbEntity
  8
Layer 1
 62
     7
100
AcDbHatch
 10
0.0
 20
0.0
 30
0.0
210
0.0
220
0.0
230
1.0
  2
SOLID
 70
     1
 71
     0
 91
        1
 92
        1
 93
        3
 72
     1
 10
632.8585284876187
 20
1237.063681060092
 11
602.8586370020631
 21
1232.0634694728
 72
     1
 10
602.8586370020631
 20
1232.0634694728
 11
602.8586370020631
 21
1242.063720392609
 72
     1
 10
602.8586370020631
 20
1242.063720392609
 11
632.8585284876187
 21
1237.063681060092
 97
        0
 75
     2
 76
     1
 98
        0
  0
POLYLINE
  5
21A
330
3C
100
AcDbEntity
  8
Layer 1
370
     0
100
AcDb2dPolyline
 66
     1
 10
0.0
 20
0.0
 30
0.0
  0
VERTEX
  5
21B
330
21A
100
AcDbEntity
  8
Layer 1
370
     0
100
AcDbVertex
100
AcDb2dVertex
 10
252.9609591381487
 20
1237.063681060092
 30
0.0
  0
VERTEX
  5
21C
330
21A
100
AcDbEntity
  8
Layer 1
370
     0
100
AcDbVertex
100
AcDb2dVertex
 10
282.9610228784785
 20
1242.063720392609
 30
0.0
  0
VERTEX
  5
21D
330
21A
100
AcDbEntity
  8
Layer 1
370
     0
100
AcDbVertex
100
AcDb2dVertex
 10
282.9610228784785
 20
1232.0634694728
 30
0.0
  0
SEQEND
  5
21E
330
21A
100
AcDbEntity
  8
Layer 1
370
     0
  0
HATCH
  5
21F
330
3C
100
AcDbEntity
  8
Layer 1
 62
     7
100
AcDbHatch
 10
0.0
 20
0.0
 30
0.0
210
0.0
220
0.0
230
1.0
  2
SOLID
 70
     1
 71
     0
 91
        1
 92
        1
 93
        3
 72
     1
 10
252.9609591381487
 20
1237.063681060092
 11
282.9610228784785
 21
1242.063720392609
 72
     1
 10
282.9610228784785
 20
1242.063720392609
 11
282.9610228784785
 21
1232.0634694728
 72
     1
 10
282.9610228784785
 20
1232.0634694728
 11
252.9609591381487
 21
1237.063681060092
 97
        0
 75
     2
 76
     1
 98
        0
  0
POLYLINE
  5
220
330
3C
100
AcDbEntity
  8
Layer 1
 62
     7
370
    25
100
AcDb2dPolyline
 66
     1
 10
0.0
 20
0.0
 30
0.0
  0
VERTEX
  5
221
330
220
100
AcDbEntity
  8
Layer 1
 62
     7
370
    25
100
AcDbVertex
100
AcDb2dVertex
 10
632.8585284876187
 20
1187.28480737462
 30
0.0
  0
VERTEX
  5
222
330
220
100
AcDbEntity
  8
Layer 1
 62
     7
370
    25
100
AcDbVertex
100
AcDb2dVertex
 10
632.8585284876187
 20
1247.063587470352
 30
0.0
  0
SEQEND
  5
223
330
220
100
AcDbEntity
  8
Layer 1
370
    25
  0
POLYLINE
  5
224
330
3C
100
AcDbEntity
  8
Layer 1
 62
     7
370
    25
100
AcDb2dPolyline
 66
     1
 10
0.0
 20
0.0
 30
0.0
  0
VERTEX
  5
225
330
224
100
AcDbEntity
  8
Layer 1
 62
     7
370
    25
100
AcDbVertex
100
AcDb2dVertex
 10
252.9609591381487
 20
1177.949115373915
 30
0.0
  0
VERTEX
  5
226
330
224
100
AcDbEntity
  8
Layer 1
 62
     7
370
    25
100
AcDbVertex
100
AcDb2dVertex
 10
252.9609591381487
 20
1247.063587470352
 30
0.0
  0
SEQEND
  5
227
330
224
100
AcDbEntity
  8
Layer 1
370
    25
  0
POLYLINE
  5
228
330
3C
100
AcDbEntity
  8
Layer 1
 62
     7
370
    25
100
AcDb2dPolyline
 66
     1
 10
0.0
 20
0.0
 30
0.0
  0
VERTEX
  5
229
330
228
100
AcDbEntity
  8
Layer 1
 62
     7
370
    25
100
AcDbVertex
100
AcDb2dVertex
 10
632.8585284876187
 20
1237.063681060092
 30
0.0
  0
VERTEX
  5
22A
330
228
100
AcDbEntity
  8
Layer 1
 62
     7
370
    25
100
AcDbVertex
100
AcDb2dVertex
 10
252.9609591381487
 20
1237.063681060092
 30
0.0
  0
SEQEND
  5
22B
330
228
100
AcDbEntity
  8
Layer 1
370
    25
  0
POLYLINE
  5
22C
330
3C
100
AcDbEntity
  8
Layer 1
 62
     7
370
    25
100
AcDb2dPolyline
 66
     1
 10
0.0
 20
0.0
 30
0.0
  0
VERTEX
  5
22D
330
22C
100
AcDbEntity
  8
Layer 1
 62
     7
370
    25
100
AcDbVertex
100
AcDb2dVertex
 10
378.8218382842008
 20
1256.356215777491
 30
0.0
  0
VERTEX
  5
22E
330
22C
100
AcDbEntity
  8
Layer 1
 62
     7
370
    25
100
AcDbVertex
100
AcDb2dVertex
 10
384.1135049495446
 20
1249.300832478473
 30
0.0
  0
SEQEND
  5
22F
330
22C
100
AcDbEntity
  8
Layer 1
370
    25
  0
POLYLINE
  5
230
330
3C
100
AcDbEntity
  8
Layer 1
 62
     7
370
    25
100
AcDb2dPolyline
 66
     1
 10
0.0
 20
0.0
 30
0.0
  0
VERTEX
  5
231
330
230
100
AcDbEntity
  8
Layer 1
 62
     7
370
    25
100
AcDbVertex
100
AcDb2dVertex
 10
384.1135049495446
 20
1249.300832478473
 30
0.0
  0
VERTEX
  5
232
330
230
100
AcDbEntity
  8
Layer 1
 62
     7
370
    25
100
AcDbVertex
100
AcDb2dVertex
 10
394.6970105350063
 20
1249.300832478473
 30
0.0
  0
SEQEND
  5
233
330
230
100
AcDbEntity
  8
Layer 1
370
    25
  0
POLYLINE
  5
234
330
3C
100
AcDbEntity
  8
Layer 1
 62
     7
370
    25
100
AcDb2dPolyline
 66
     1
 10
0.0
 20
0.0
 30
0.0
  0
VERTEX
  5
235
330
234
100
AcDbEntity
  8
Layer 1
 62
     7
370
    25
100
AcDbVertex
100
AcDb2dVertex
 10
394.6970105350063
 20
1249.300832478473
 30
0.0
  0
VERTEX
  5
236
330
234
100
AcDbEntity
  8
Layer 1
 62
     7
370
    25
100
AcDbVertex
100
AcDb2dVertex
 10
399.9886772003501
 20
1256.356215777491
 30
0.0
  0
SEQEND
  5
237
330
234
100
AcDbEntity
  8
Layer 1
370
    25
  0
POLYLINE
  5
238
330
3C
100
AcDbEntity
  8
Layer 1
 62
     7
370
    25
100
AcDb2dPolyline
 66
     1
 10
0.0
 20
0.0
 30
0.0
  0
VERTEX
  5
239
330
238
100
AcDbEntity
  8
Layer 1
 62
     7
370
    25
100
AcDbVertex
100
AcDb2dVertex
 10
399.9886772003501
 20
1256.356215777491
 30
0.0
  0
VERTEX
  5
23A
330
238
100
AcDbEntity
  8
Layer 1
 62
     7
370
    25
100
AcDbVertex
100
AcDb2dVertex
 10
399.9886772003501
 20
1263.411943586057
 30
0.0
  0
SEQEND
  5
23B
330
238
100
AcDbEntity
  8
Layer 1
370
    25
  0
POLYLINE
  5
23C
330
3C
100
AcDbEntity
  8
Layer 1
 62
     7
370
    25
100
AcDb2dPolyline
 66
     1
 10
0.0
 20
0.0
 30
0.0
  0
VERTEX
  5
23D
330
23C
100
AcDbEntity
  8
Layer 1
 62
     7
370
    25
100
AcDbVertex
100
AcDb2dVertex
 10
399.9886772003501
 20
1263.411943586057
 30
0.0
  0
VERTEX
  5
23E
330
23C
100
AcDbEntity
  8
Layer 1
 62
     7
370
    25
100
AcDbVertex
100
AcDb2dVertex
 10
394.6970105350063
 20
1270.467326885074
 30
0.0
  0
SEQEND
  5
23F
330
23C
100
AcDbEntity
  8
Layer 1
370
    25
  0
POLYLINE
  5
240
330
3C
100
AcDbEntity
  8
Layer 1
 62
     7
370
    25
100
AcDb2dPolyline
 66
     1
 10
0.0
 20
0.0
 30
0.0
  0
VERTEX
  5
241
330
240
100
AcDbEntity
  8
Layer 1
 62
     7
370
    25
100
AcDbVertex
100
AcDb2dVertex
 10
394.6970105350063
 20
1270.467326885074
 30
0.0
  0
VERTEX
  5
242
330
240
100
AcDbEntity
  8
Layer 1
 62
     7
370
    25
100
AcDbVertex
100
AcDb2dVertex
 10
389.4051716148883
 20
1270.467326885074
 30
0.0
  0
SEQEND
  5
243
330
240
100
AcDbEntity
  8
Layer 1
370
    25
  0
POLYLINE
  5
244
330
3C
100
AcDbEntity
  8
Layer 1
 62
     7
370
    25
100
AcDb2dPolyline
 66
     1
 10
0.0
 20
0.0
 30
0.0
  0
VERTEX
  5
245
330
244
100
AcDbEntity
  8
Layer 1
 62
     7
370
    25
100
AcDbVertex
100
AcDb2dVertex
 10
394.6970105350063
 20
1270.467326885074
 30
0.0
  0
VERTEX
  5
246
330
244
100
AcDbEntity
  8
Layer 1
 62
     7
370
    25
100
AcDbVertex
100
AcDb2dVertex
 10
399.9886772003501
 20
1277.523226948415
 30
0.0
  0
SEQEND
  5
247
330
244
100
AcDbEntity
  8
Layer 1
370
    25
  0
POLYLINE
  5
248
330
3C
100
AcDbEntity
  8
Layer 1
 62
     7
370
    25
100
AcDb2dPolyline
 66
     1
 10
0.0
 20
0.0
 30
0.0
  0
VERTEX
  5
249
330
248
100
AcDbEntity
  8
Layer 1
 62
     7
370
    25
100
AcDbVertex
100
AcDb2dVertex
 10
399.9886772003501
 20
1277.523226948415
 30
0.0
  0
VERTEX
  5
24A
330
248
100
AcDbEntity
  8
Layer 1
 62
     7
370
    25
100
AcDbVertex
100
AcDb2dVertex
 10
399.9886772003501
 20
1284.578437992657
 30
0.0
  0
SEQEND
  5
24B
330
248
100
AcDbEntity
  8
Layer 1
370
    25
  0
POLYLINE
  5
24C
330
3C
100
AcDbEntity
  8
Layer 1
 62
     7
370
    25
100
AcDb2dPolyline
 66
     1
 10
0.0
 20
0.0
 30
0.0
  0
VERTEX
  5
24D
330
24C
100
AcDbEntity
  8
Layer 1
 62
     7
370
    25
100
AcDbVertex
100
AcDb2dVertex
 10
399.9886772003501
 20
1284.578437992657
 30
0.0
  0
VERTEX
  5
24E
330
24C
100
AcDbEntity
  8
Layer 1
 62
     7
370
    25
100
AcDbVertex
100
AcDb2dVertex
 10
394.6970105350063
 20
1291.634338055998
 30
0.0
  0
SEQEND
  5
24F
330
24C
100
AcDbEntity
  8
Layer 1
370
    25
  0
POLYLINE
  5
250
330
3C
100
AcDbEntity
  8
Layer 1
 62
     7
370
    25
100
AcDb2dPolyline
 66
     1
 10
0.0
 20
0.0
 30
0.0
  0
VERTEX
  5
251
330
250
100
AcDbEntity
  8
Layer 1
 62
     7
370
    25
100
AcDbVertex
100
AcDb2dVertex
 10
394.6970105350063
 20
1291.634338055998
 30
0.0
  0
VERTEX
  5
252
330
250
100
AcDbEntity
  8
Layer 1
 62
     7
370
    25
100
AcDbVertex
100
AcDb2dVertex
 10
384.1135049495446
 20
1291.634338055998
 30
0.0
  0
SEQEND
  5
253
330
250
100
AcDbEntity
  8
Layer 1
370
    25
  0
POLYLINE
  5
254
330
3C
100
AcDbEntity
  8
Layer 1
 62
     7
370
    25
100
AcDb2dPolyline
 66
     1
 10
0.0
 20
0.0
 30
0.0
  0
VERTEX
  5
255
330
254
100
AcDbEntity
  8
Layer 1
 62
     7
370
    25
100
AcDbVertex
100
AcDb2dVertex
 10
384.1135049495446
 20
1291.634338055998
 30
0.0
  0
VERTEX
  5
256
330
254
100
AcDbEntity
  8
Layer 1
 62
     7
370
    25
100
AcDbVertex
100
AcDb2dVertex
 10
378.8218382842008
 20
1284.578437992657
 30
0.0
  0
SEQEND
  5
257
330
254
100
AcDbEntity
  8
Layer 1
370
    25
  0
POLYLINE
  5
258
330
3C
100
AcDbEntity
  8
Layer 1
 62
     7
370
    25
100
AcDb2dPolyline
 66
     1
 10
0.0
 20
0.0
 30
0.0
  0
VERTEX
  5
259
330
258
100
AcDbEntity
  8
Layer 1
 62
     7
370
    25
100
AcDbVertex
100
AcDb2dVertex
 10
415.8633326868328
 20
1249.300832478473
 30
0.0
  0
VERTEX
  5
25A
330
258
100
AcDbEntity
  8
Layer 1
 62
     7
370
    25
100
AcDbVertex
100
AcDb2dVertex
 10
426.4468382722945
 20
1249.300832478473
 30
0.0
  0
SEQEND
  5
25B
330
258
100
AcDbEntity
  8
Layer 1
370
    25
  0
POLYLINE
  5
25C
330
3C
100
AcDbEntity
  8
Layer 1
 62
     7
370
    25
100
AcDb2dPolyline
 66
     1
 10
0.0
 20
0.0
 30
0.0
  0
VERTEX
  5
25D
330
25C
100
AcDbEntity
  8
Layer 1
 62
     7
370
    25
100
AcDbVertex
100
AcDb2dVertex
 10
426.4468382722945
 20
1249.300832478473
 30
0.0
  0
VERTEX
  5
25E
330
25C
100
AcDbEntity
  8
Layer 1
 62
     7
370
    25
100
AcDbVertex
100
AcDb2dVertex
 10
431.7381604280898
 20
1256.356215777491
 30
0.0
  0
SEQEND
  5
25F
330
25C
100
AcDbEntity
  8
Layer 1
370
    25
  0
POLYLINE
  5
260
330
3C
100
AcDbEntity
  8
Layer 1
 62
     7
370
    25
100
AcDb2dPolyline
 66
     1
 10
0.0
 20
0.0
 30
0.0
  0
VERTEX
  5
261
330
260
100
AcDbEntity
  8
Layer 1
 62
     7
370
    25
100
AcDbVertex
100
AcDb2dVertex
 10
431.7381604280898
 20
1256.356215777491
 30
0.0
  0
VERTEX
  5
262
330
260
100
AcDbEntity
  8
Layer 1
 62
     7
370
    25
100
AcDbVertex
100
AcDb2dVertex
 10
431.7381604280898
 20
1263.411943586057
 30
0.0
  0
SEQEND
  5
263
330
260
100
AcDbEntity
  8
Layer 1
370
    25
  0
POLYLINE
  5
264
330
3C
100
AcDbEntity
  8
Layer 1
 62
     7
370
    25
100
AcDb2dPolyline
 66
     1
 10
0.0
 20
0.0
 30
0.0
  0
VERTEX
  5
265
330
264
100
AcDbEntity
  8
Layer 1
 62
     7
370
    25
100
AcDbVertex
100
AcDb2dVertex
 10
431.7381604280898
 20
1263.411943586057
 30
0.0
  0
VERTEX
  5
266
330
264
100
AcDbEntity
  8
Layer 1
 62
     7
370
    25
100
AcDbVertex
100
AcDb2dVertex
 10
426.4468382722945
 20
1270.467326885074
 30
0.0
  0
SEQEND
  5
267
330
264
100
AcDbEntity
  8
Layer 1
370
    25
  0
POLYLINE
  5
268
330
3C
100
AcDbEntity
  8
Layer 1
 62
     7
370
    25
100
AcDb2dPolyline
 66
     1
 10
0.0
 20
0.0
 30
0.0
  0
VERTEX
  5
269
330
268
100
AcDbEntity
  8
Layer 1
 62
     7
370
    25
100
AcDbVertex
100
AcDb2dVertex
 10
426.4468382722945
 20
1270.467326885074
 30
0.0
  0
VERTEX
  5
26A
330
268
100
AcDbEntity
  8
Layer 1
 62
     7
370
    25
100
AcDbVertex
100
AcDb2dVertex
 10
415.8633326868328
 20
1270.467326885074
 30
0.0
  0
SEQEND
  5
26B
330
268
100
AcDbEntity
  8
Layer 1
370
    25
  0
POLYLINE
  5
26C
330
3C
100
AcDbEntity
  8
Layer 1
 62
     7
370
    25
100
AcDb2dPolyline
 66
     1
 10
0.0
 20
0.0
 30
0.0
  0
VERTEX
  5
26D
330
26C
100
AcDbEntity
  8
Layer 1
 62
     7
370
    25
100
AcDbVertex
100
AcDb2dVertex
 10
415.8633326868328
 20
1270.467326885074
 30
0.0
  0
VERTEX
  5
26E
330
26C
100
AcDbEntity
  8
Layer 1
 62
     7
370
    25
100
AcDbVertex
100
AcDb2dVertex
 10
410.571666021489
 20
1277.523226948415
 30
0.0
  0
SEQEND
  5
26F
330
26C
100
AcDbEntity
  8
Layer 1
370
    25
  0
POLYLINE
  5
270
330
3C
100
AcDbEntity
  8
Layer 1
 62
     7
370
    25
100
AcDb2dPolyline
 66
     1
 10
0.0
 20
0.0
 30
0.0
  0
VERTEX
  5
271
330
270
100
AcDbEntity
  8
Layer 1
 62
     7
370
    25
100
AcDbVertex
100
AcDb2dVertex
 10
410.571666021489
 20
1277.523226948415
 30
0.0
  0
VERTEX
  5
272
330
270
100
AcDbEntity
  8
Layer 1
 62
     7
370
    25
100
AcDbVertex
100
AcDb2dVertex
 10
410.571666021489
 20
1284.578437992657
 30
0.0
  0
SEQEND
  5
273
330
270
100
AcDbEntity
  8
Layer 1
370
    25
  0
POLYLINE
  5
274
330
3C
100
AcDbEntity
  8
Layer 1
 62
     7
370
    25
100
AcDb2dPolyline
 66
     1
 10
0.0
 20
0.0
 30
0.0
  0
VERTEX
  5
275
330
274
100
AcDbEntity
  8
Layer 1
 62
     7
370
    25
100
AcDbVertex
100
AcDb2dVertex
 10
410.571666021489
 20
1284.578437992657
 30
0.0
  0
VERTEX
  5
276
330
274
100
AcDbEntity
  8
Layer 1
 62
     7
370
    25
100
AcDbVertex
100
AcDb2dVertex
 10
415.8633326868328
 20
1291.634338055998
 30
0.0
  0
SEQEND
  5
277
330
274
100
AcDbEntity
  8
Layer 1
370
    25
  0
POLYLINE
  5
278
330
3C
100
AcDbEntity
  8
Layer 1
 62
     7
370
    25
100
AcDb2dPolyline
 66
     1
 10
0.0
 20
0.0
 30
0.0
  0
VERTEX
  5
279
330
278
100
AcDbEntity
  8
Layer 1
 62
     7
370
    25
100
AcDbVertex
100
AcDb2dVertex
 10
415.8633326868328
 20
1291.634338055998
 30
0.0
  0
VERTEX
  5
27A
330
278
100
AcDbEntity
  8
Layer 1
 62
     7
370
    25
100
AcDbVertex
100
AcDb2dVertex
 10
426.4468382722945
 20
1291.634338055998
 30
0.0
  0
SEQEND
  5
27B
330
278
100
AcDbEntity
  8
Layer 1
370
    25
  0
POLYLINE
  5
27C
330
3C
100
AcDbEntity
  8
Layer 1
 62
     7
370
    25
100
AcDb2dPolyline
 66
     1
 10
0.0
 20
0.0
 30
0.0
  0
VERTEX
  5
27D
330
27C
100
AcDbEntity
  8
Layer 1
 62
     7
370
    25
100
AcDbVertex
100
AcDb2dVertex
 10
426.4468382722945
 20
1291.634338055998
 30
0.0
  0
VERTEX
  5
27E
330
27C
100
AcDbEntity
  8
Layer 1
 62
     7
370
    25
100
AcDbVertex
100
AcDb2dVertex
 10
431.7381604280898
 20
1284.578437992657
 30
0.0
  0
SEQEND
  5
27F
330
27C
100
AcDbEntity
  8
Layer 1
370
    25
  0
POLYLINE
  5
280
330
3C
100
AcDbEntity
  8
Layer 1
 62
     7
370
    25
100
AcDb2dPolyline
 66
     1
 10
0.0
 20
0.0
 30
0.0
  0
VERTEX
  5
281
330
280
100
AcDbEntity
  8
Layer 1
 62
     7
370
    25
100
AcDbVertex
100
AcDb2dVertex
 10
431.7381604280898
 20
1284.578437992657
 30
0.0
  0
VERTEX
  5
282
330
280
100
AcDbEntity
  8
Layer 1
 62
     7
370
    25
100
AcDbVertex
100
AcDb2dVertex
 10
431.7381604280898
 20
1277.523226948415
 30
0.0
  0
SEQEND
  5
283
330
280
100
AcDbEntity
  8
Layer 1
370
    25
  0
POLYLINE
  5
284
330
3C
100
AcDbEntity
  8
Layer 1
 62
     7
370
    25
100
AcDb2dPolyline
 66
     1
 10
0.0
 20
0.0
 30
0.0
  0
VERTEX
  5
285
330
284
100
AcDbEntity
  8
Layer 1
 62
     7
370
    25
100
AcDbVertex
100
AcDb2dVertex
 10
431.7381604280898
 20
1277.523226948415
 30
0.0
  0
VERTEX
  5
286
330
284
100
AcDbEntity
  8
Layer 1
 62
     7
370
    25
100
AcDbVertex
100
AcDb2dVertex
 10
426.4468382722945
 20
1270.467326885074
 30
0.0
  0
SEQEND
  5
287
330
284
100
AcDbEntity
  8
Layer 1
370
    25
  0
POLYLINE
  5
288
330
3C
100
AcDbEntity
  8
Layer 1
 62
     7
370
    25
100
AcDb2dPolyline
 66
     1
 10
0.0
 20
0.0
 30
0.0
  0
VERTEX
  5
289
330
288
100
AcDbEntity
  8
Layer 1
 62
     7
370
    25
100
AcDbVertex
100
AcDb2dVertex
 10
415.8633326868328
 20
1270.467326885074
 30
0.0
  0
VERTEX
  5
28A
330
288
100
AcDbEntity
  8
Layer 1
 62
     7
370
    25
100
AcDbVertex
100
AcDb2dVertex
 10
410.571666021489
 20
1263.411943586057
 30
0.0
  0
SEQEND
  5
28B
330
288
100
AcDbEntity
  8
Layer 1
370
    25
  0
POLYLINE
  5
28C
330
3C
100
AcDbEntity
  8
Layer 1
 62
     7
370
    25
100
AcDb2dPolyline
 66
     1
 10
0.0
 20
0.0
 30
0.0
  0
VERTEX
  5
28D
330
28C
100
AcDbEntity
  8
Layer 1
 62
     7
370
    25
100
AcDbVertex
100
AcDb2dVertex
 10
410.571666021489
 20
1263.411943586057
 30
0.0
  0
VERTEX
  5
28E
330
28C
100
AcDbEntity
  8
Layer 1
 62
     7
370
    25
100
AcDbVertex
100
AcDb2dVertex
 10
410.571666021489
 20
1256.356215777491
 30
0.0
  0
SEQEND
  5
28F
330
28C
100
AcDbEntity
  8
Layer 1
370
    25
  0
POLYLINE
  5
290
330
3C
100
AcDbEntity
  8
Layer 1
 62
     7
370
    25
100
AcDb2dPolyline
 66
     1
 10
0.0
 20
0.0
 30
0.0
  0
VERTEX
  5
291
330
290
100
AcDbEntity
  8
Layer 1
 62
     7
370
    25
100
AcDbVertex
100
AcDb2dVertex
 10
410.571666021489
 20
1256.356215777491
 30
0.0
  0
VERTEX
  5
292
330
290
100
AcDbEntity
  8
Layer 1
 62
     7
370
    25
100
AcDbVertex
100
AcDb2dVertex
 10
415.8633326868328
 20
1249.300832478473
 30
0.0
  0
SEQEND
  5
293
330
290
100
AcDbEntity
  8
Layer 1
370
    25
  0
POLYLINE
  5
294
330
3C
100
AcDbEntity
  8
Layer 1
 62
     7
370
    25
100
AcDb2dPolyline
 66
     1
 10
0.0
 20
0.0
 30
0.0
  0
VERTEX
  5
295
330
294
100
AcDbEntity
  8
Layer 1
 62
     7
370
    25
100
AcDbVertex
100
AcDb2dVertex
 10
447.6133326788953
 20
1249.300832478473
 30
0.0
  0
VERTEX
  5
296
330
294
100
AcDbEntity
  8
Layer 1
 62
     7
370
    25
100
AcDbVertex
100
AcDb2dVertex
 10
442.3216660135515
 20
1256.356215777491
 30
0.0
  0
SEQEND
  5
297
330
294
100
AcDbEntity
  8
Layer 1
370
    25
  0
POLYLINE
  5
298
330
3C
100
AcDbEntity
  8
Layer 1
 62
     7
370
    25
100
AcDb2dPolyline
 66
     1
 10
0.0
 20
0.0
 30
0.0
  0
VERTEX
  5
299
330
298
100
AcDbEntity
  8
Layer 1
 62
     7
370
    25
100
AcDbVertex
100
AcDb2dVertex
 10
442.3216660135515
 20
1256.356215777491
 30
0.0
  0
VERTEX
  5
29A
330
298
100
AcDbEntity
  8
Layer 1
 62
     7
370
    25
100
AcDbVertex
100
AcDb2dVertex
 10
442.3216660135515
 20
1284.578437992657
 30
0.0
  0
SEQEND
  5
29B
330
298
100
AcDbEntity
  8
Layer 1
370
    25
  0
POLYLINE
  5
29C
330
3C
100
AcDbEntity
  8
Layer 1
 62
     7
370
    25
100
AcDb2dPolyline
 66
     1
 10
0.0
 20
0.0
 30
0.0
  0
VERTEX
  5
29D
330
29C
100
AcDbEntity
  8
Layer 1
 62
     7
370
    25
100
AcDbVertex
100
AcDb2dVertex
 10
442.3216660135515
 20
1284.578437992657
 30
0.0
  0
VERTEX
  5
29E
330
29C
100
AcDbEntity
  8
Layer 1
 62
     7
370
    25
100
AcDbVertex
100
AcDb2dVertex
 10
447.6133326788953
 20
1291.634338055998
 30
0.0
  0
SEQEND
  5
29F
330
29C
100
AcDbEntity
  8
Layer 1
370
    25
  0
POLYLINE
  5
2A0
330
3C
100
AcDbEntity
  8
Layer 1
 62
     7
370
    25
100
AcDb2dPolyline
 66
     1
 10
0.0
 20
0.0
 30
0.0
  0
VERTEX
  5
2A1
330
2A0
100
AcDbEntity
  8
Layer 1
 62
     7
370
    25
100
AcDbVertex
100
AcDb2dVertex
 10
447.6133326788953
 20
1291.634338055998
 30
0.0
  0
VERTEX
  5
2A2
330
2A0
100
AcDbEntity
  8
Layer 1
 62
     7
370
    25
100
AcDbVertex
100
AcDb2dVertex
 10
452.9049993442391
 20
1291.634338055998
 30
0.0
  0
SEQEND
  5
2A3
330
2A0
100
AcDbEntity
  8
Layer 1
370
    25
  0
POLYLINE
  5
2A4
330
3C
100
AcDbEntity
  8
Layer 1
 62
     7
370
    25
100
AcDb2dPolyline
 66
     1
 10
0.0
 20
0.0
 30
0.0
  0
VERTEX
  5
2A5
330
2A4
100
AcDbEntity
  8
Layer 1
 62
     7
370
    25
100
AcDbVertex
100
AcDb2dVertex
 10
452.9049993442391
 20
1291.634338055998
 30
0.0
  0
VERTEX
  5
2A6
330
2A4
100
AcDbEntity
  8
Layer 1
 62
     7
370
    25
100
AcDbVertex
100
AcDb2dVertex
 10
458.196838264357
 20
1284.578437992657
 30
0.0
  0
SEQEND
  5
2A7
330
2A4
100
AcDbEntity
  8
Layer 1
370
    25
  0
POLYLINE
  5
2A8
330
3C
100
AcDbEntity
  8
Layer 1
 62
     7
370
    25
100
AcDb2dPolyline
 66
     1
 10
0.0
 20
0.0
 30
0.0
  0
VERTEX
  5
2A9
330
2A8
100
AcDbEntity
  8
Layer 1
 62
     7
370
    25
100
AcDbVertex
100
AcDb2dVertex
 10
458.196838264357
 20
1284.578437992657
 30
0.0
  0
VERTEX
  5
2AA
330
2A8
100
AcDbEntity
  8
Layer 1
 62
     7
370
    25
100
AcDbVertex
100
AcDb2dVertex
 10
458.196838264357
 20
1256.356215777491
 30
0.0
  0
SEQEND
  5
2AB
330
2A8
100
AcDbEntity
  8
Layer 1
370
    25
  0
POLYLINE
  5
2AC
330
3C
100
AcDbEntity
  8
Layer 1
 62
     7
370
    25
100
AcDb2dPolyline
 66
     1
 10
0.0
 20
0.0
 30
0.0
  0
VERTEX
  5
2AD
330
2AC
100
AcDbEntity
  8
Layer 1
 62
     7
370
    25
100
AcDbVertex
100
AcDb2dVertex
 10
458.196838264357
 20
1256.356215777491
 30
0.0
  0
VERTEX
  5
2AE
330
2AC
100
AcDbEntity
  8
Layer 1
 62
     7
370
    25
100
AcDbVertex
100
AcDb2dVertex
 10
452.9049993442391
 20
1249.300832478473
 30
0.0
  0
SEQEND
  5
2AF
330
2AC
100
AcDbEntity
  8
Layer 1
370
    25
  0
POLYLINE
  5
2B0
330
3C
100
AcDbEntity
  8
Layer 1
 62
     7
370
    25
100
AcDb2dPolyline
 66
     1
 10
0.0
 20
0.0
 30
0.0
  0
VERTEX
  5
2B1
330
2B0
100
AcDbEntity
  8
Layer 1
 62
     7
370
    25
100
AcDbVertex
100
AcDb2dVertex
 10
452.9049993442391
 20
1249.300832478473
 30
0.0
  0
VERTEX
  5
2B2
330
2B0
100
AcDbEntity
  8
Layer 1
 62
     7
370
    25
100
AcDbVertex
100
AcDb2dVertex
 10
447.6133326788953
 20
1249.300832478473
 30
0.0
  0
SEQEND
  5
2B3
330
2B0
100
AcDbEntity
  8
Layer 1
370
    25
  0
POLYLINE
  5
2B4
330
3C
100
AcDbEntity
  8
Layer 1
370
     0
100
AcDb2dPolyline
 66
     1
 10
0.0
 20
0.0
 30
0.0
  0
VERTEX
  5
2B5
330
2B4
100
AcDbEntity
  8
Layer 1
370
     0
100
AcDbVertex
100
AcDb2dVertex
 10
832.9090221442034
 20
948.5641504247513
 30
0.0
  0
VERTEX
  5
2B6
330
2B4
100
AcDbEntity
  8
Layer 1
370
     0
100
AcDbVertex
100
AcDb2dVertex
 10
837.9088892219464
 20
918.5640866844216
 30
0.0
  0
VERTEX
  5
2B7
330
2B4
100
AcDbEntity
  8
Layer 1
370
     0
100
AcDbVertex
100
AcDb2dVertex
 10
827.9094995760088
 20
918.5640866844216
 30
0.0
  0
SEQEND
  5
2B8
330
2B4
100
AcDbEntity
  8
Layer 1
370
     0
  0
HATCH
  5
2B9
330
3C
100
AcDbEntity
  8
Layer 1
 62
     7
100
AcDbHatch
 10
0.0
 20
0.0
 30
0.0
210
0.0
220
0.0
230
1.0
  2
SOLID
 70
     1
 71
     0
 91
        1
 92
        1
 93
        3
 72
     1
 10
832.9090221442034
 20
948.5641504247513
 11
837.9088892219464
 21
918.5640866844216
 72
     1
 10
837.9088892219464
 20
918.5640866844216
 11
827.9094995760088
 21
918.5640866844216
 72
     1
 10
827.9094995760088
 20
918.5640866844216
 11
832.9090221442034
 21
948.5641504247513
 97
        0
 75
     2
 76
     1
 98
        0
  0
POLYLINE
  5
2BA
330
3C
100
AcDbEntity
  8
Layer 1
370
     0
100
AcDb2dPolyline
 66
     1
 10
0.0
 20
0.0
 30
0.0
  0
VERTEX
  5
2BB
330
2BA
100
AcDbEntity
  8
Layer 1
370
     0
100
AcDbVertex
100
AcDb2dVertex
 10
832.9090221442034
 20
1137.062549900196
 30
0.0
  0
VERTEX
  5
2BC
330
2BA
100
AcDbEntity
  8
Layer 1
370
     0
100
AcDbVertex
100
AcDb2dVertex
 10
827.9094995760088
 20
1167.062441385752
 30
0.0
  0
VERTEX
  5
2BD
330
2BA
100
AcDbEntity
  8
Layer 1
370
     0
100
AcDbVertex
100
AcDb2dVertex
 10
837.9088892219464
 20
1167.062441385752
 30
0.0
  0
SEQEND
  5
2BE
330
2BA
100
AcDbEntity
  8
Layer 1
370
     0
  0
HATCH
  5
2BF
330
3C
100
AcDbEntity
  8
Layer 1
 62
     7
100
AcDbHatch
 10
0.0
 20
0.0
 30
0.0
210
0.0
220
0.0
230
1.0
  2
SOLID
 70
     1
 71
     0
 91
        1
 92
        1
 93
        3
 72
     1
 10
832.9090221442034
 20
1137.062549900196
 11
827.9094995760088
 21
1167.062441385752
 72
     1
 10
827.9094995760088
 20
1167.062441385752
 11
837.9088892219464
 21
1167.062441385752
 72
     1
 10
837.9088892219464
 20
1167.062441385752
 11
832.9090221442034
 21
1137.062549900196
 97
        0
 75
     2
 76
     1
 98
        0
  0
POLYLINE
  5
2C0
330
3C
100
AcDbEntity
  8
Layer 1
 62
     7
370
    25
100
AcDb2dPolyline
 66
     1
 10
0.0
 20
0.0
 30
0.0
  0
VERTEX
  5
2C1
330
2C0
100
AcDbEntity
  8
Layer 1
 62
     7
370
    25
100
AcDbVertex
100
AcDb2dVertex
 10
712.8016247132927
 20
948.5641504247513
 30
0.0
  0
VERTEX
  5
2C2
330
2C0
100
AcDbEntity
  8
Layer 1
 62
     7
370
    25
100
AcDbVertex
100
AcDb2dVertex
 10
842.9094453187865
 20
948.5641504247513
 30
0.0
  0
SEQEND
  5
2C3
330
2C0
100
AcDbEntity
  8
Layer 1
370
    25
  0
POLYLINE
  5
2C4
330
3C
100
AcDbEntity
  8
Layer 1
 62
     7
370
    25
100
AcDb2dPolyline
 66
     1
 10
0.0
 20
0.0
 30
0.0
  0
VERTEX
  5
2C5
330
2C4
100
AcDbEntity
  8
Layer 1
 62
     7
370
    25
100
AcDbVertex
100
AcDb2dVertex
 10
713.6842581766136
 20
1137.062549900196
 30
0.0
  0
VERTEX
  5
2C6
330
2C4
100
AcDbEntity
  8
Layer 1
 62
     7
370
    25
100
AcDbVertex
100
AcDb2dVertex
 10
842.9094453187865
 20
1137.062549900196
 30
0.0
  0
SEQEND
  5
2C7
330
2C4
100
AcDbEntity
  8
Layer 1
370
    25
  0
POLYLINE
  5
2C8
330
3C
100
AcDbEntity
  8
Layer 1
 62
     7
370
    25
100
AcDb2dPolyline
 66
     1
 10
0.0
 20
0.0
 30
0.0
  0
VERTEX
  5
2C9
330
2C8
100
AcDbEntity
  8
Layer 1
 62
     7
370
    25
100
AcDbVertex
100
AcDb2dVertex
 10
832.9090221442034
 20
948.5641504247513
 30
0.0
  0
VERTEX
  5
2CA
330
2C8
100
AcDbEntity
  8
Layer 1
 62
     7
370
    25
100
AcDbVertex
100
AcDb2dVertex
 10
832.9090221442034
 20
888.5640229440917
 30
0.0
  0
SEQEND
  5
2CB
330
2C8
100
AcDbEntity
  8
Layer 1
370
    25
  0
POLYLINE
  5
2CC
330
3C
100
AcDbEntity
  8
Layer 1
 62
     7
370
    25
100
AcDb2dPolyline
 66
     1
 10
0.0
 20
0.0
 30
0.0
  0
VERTEX
  5
2CD
330
2CC
100
AcDbEntity
  8
Layer 1
 62
     7
370
    25
100
AcDbVertex
100
AcDb2dVertex
 10
832.9090221442034
 20
948.5641504247513
 30
0.0
  0
VERTEX
  5
2CE
330
2CC
100
AcDbEntity
  8
Layer 1
 62
     7
370
    25
100
AcDbVertex
100
AcDb2dVertex
 10
832.9090221442034
 20
1137.062549900196
 30
0.0
  0
SEQEND
  5
2CF
330
2CC
100
AcDbEntity
  8
Layer 1
370
    25
  0
POLYLINE
  5
2D0
330
3C
100
AcDbEntity
  8
Layer 1
 62
     7
370
    25
100
AcDb2dPolyline
 66
     1
 10
0.0
 20
0.0
 30
0.0
  0
VERTEX
  5
2D1
330
2D0
100
AcDbEntity
  8
Layer 1
 62
     7
370
    25
100
AcDbVertex
100
AcDb2dVertex
 10
832.9090221442034
 20
1137.062549900196
 30
0.0
  0
VERTEX
  5
2D2
330
2D0
100
AcDbEntity
  8
Layer 1
 62
     7
370
    25
100
AcDbVertex
100
AcDb2dVertex
 10
832.9090221442034
 20
1197.062505126082
 30
0.0
  0
SEQEND
  5
2D3
330
2D0
100
AcDbEntity
  8
Layer 1
370
    25
  0
POLYLINE
  5
2D4
330
3C
100
AcDbEntity
  8
Layer 1
 62
     7
370
    25
100
AcDb2dPolyline
 66
     1
 10
0.0
 20
0.0
 30
0.0
  0
VERTEX
  5
2D5
330
2D4
100
AcDbEntity
  8
Layer 1
 62
     7
370
    25
100
AcDbVertex
100
AcDb2dVertex
 10
820.6716984710474
 20
971.1648380818616
 30
0.0
  0
VERTEX
  5
2D6
330
2D4
100
AcDbEntity
  8
Layer 1
 62
     7
370
    25
100
AcDbVertex
100
AcDb2dVertex
 10
820.6716984710474
 20
981.7478269030006
 30
0.0
  0
SEQEND
  5
2D7
330
2D4
100
AcDbEntity
  8
Layer 1
370
    25
  0
POLYLINE
  5
2D8
330
3C
100
AcDbEntity
  8
Layer 1
 62
     7
370
    25
100
AcDb2dPolyline
 66
     1
 10
0.0
 20
0.0
 30
0.0
  0
VERTEX
  5
2D9
330
2D8
100
AcDbEntity
  8
Layer 1
 62
     7
370
    25
100
AcDbVertex
100
AcDb2dVertex
 10
820.6716984710474
 20
976.4561602376568
 30
0.0
  0
VERTEX
  5
2DA
330
2D8
100
AcDbEntity
  8
Layer 1
 62
     7
370
    25
100
AcDbVertex
100
AcDb2dVertex
 10
778.3390541673945
 20
976.4561602376568
 30
0.0
  0
SEQEND
  5
2DB
330
2D8
100
AcDbEntity
  8
Layer 1
370
    25
  0
POLYLINE
  5
2DC
330
3C
100
AcDbEntity
  8
Layer 1
 62
     7
370
    25
100
AcDb2dPolyline
 66
     1
 10
0.0
 20
0.0
 30
0.0
  0
VERTEX
  5
2DD
330
2DC
100
AcDbEntity
  8
Layer 1
 62
     7
370
    25
100
AcDbVertex
100
AcDb2dVertex
 10
778.3390541673945
 20
976.4561602376568
 30
0.0
  0
VERTEX
  5
2DE
330
2DC
100
AcDbEntity
  8
Layer 1
 62
     7
370
    25
100
AcDbVertex
100
AcDb2dVertex
 10
785.3942652116376
 20
971.1648380818616
 30
0.0
  0
SEQEND
  5
2DF
330
2DC
100
AcDbEntity
  8
Layer 1
370
    25
  0
POLYLINE
  5
2E0
330
3C
100
AcDbEntity
  8
Layer 1
 62
     7
370
    25
100
AcDb2dPolyline
 66
     1
 10
0.0
 20
0.0
 30
0.0
  0
VERTEX
  5
2E1
330
2E0
100
AcDbEntity
  8
Layer 1
 62
     7
370
    25
100
AcDbVertex
100
AcDb2dVertex
 10
820.6716984710474
 20
997.6229991538061
 30
0.0
  0
VERTEX
  5
2E2
330
2E0
100
AcDbEntity
  8
Layer 1
 62
     7
370
    25
100
AcDbVertex
100
AcDb2dVertex
 10
820.6716984710474
 20
1008.206504739268
 30
0.0
  0
SEQEND
  5
2E3
330
2E0
100
AcDbEntity
  8
Layer 1
370
    25
  0
POLYLINE
  5
2E4
330
3C
100
AcDbEntity
  8
Layer 1
 62
     7
370
    25
100
AcDb2dPolyline
 66
     1
 10
0.0
 20
0.0
 30
0.0
  0
VERTEX
  5
2E5
330
2E4
100
AcDbEntity
  8
Layer 1
 62
     7
370
    25
100
AcDbVertex
100
AcDb2dVertex
 10
820.6716984710474
 20
1008.206504739268
 30
0.0
  0
VERTEX
  5
2E6
330
2E4
100
AcDbEntity
  8
Layer 1
 62
     7
370
    25
100
AcDbVertex
100
AcDb2dVertex
 10
813.6164874268043
 20
1013.498171404612
 30
0.0
  0
SEQEND
  5
2E7
330
2E4
100
AcDbEntity
  8
Layer 1
370
    25
  0
POLYLINE
  5
2E8
330
3C
100
AcDbEntity
  8
Layer 1
 62
     7
370
    25
100
AcDb2dPolyline
 66
     1
 10
0.0
 20
0.0
 30
0.0
  0
VERTEX
  5
2E9
330
2E8
100
AcDbEntity
  8
Layer 1
 62
     7
370
    25
100
AcDbVertex
100
AcDb2dVertex
 10
813.6164874268043
 20
1013.498171404612
 30
0.0
  0
VERTEX
  5
2EA
330
2E8
100
AcDbEntity
  8
Layer 1
 62
     7
370
    25
100
AcDbVertex
100
AcDb2dVertex
 10
806.5612763825611
 20
1013.498171404612
 30
0.0
  0
SEQEND
  5
2EB
330
2E8
100
AcDbEntity
  8
Layer 1
370
    25
  0
POLYLINE
  5
2EC
330
3C
100
AcDbEntity
  8
Layer 1
 62
     7
370
    25
100
AcDb2dPolyline
 66
     1
 10
0.0
 20
0.0
 30
0.0
  0
VERTEX
  5
2ED
330
2EC
100
AcDbEntity
  8
Layer 1
 62
     7
370
    25
100
AcDbVertex
100
AcDb2dVertex
 10
806.5612763825611
 20
1013.498171404612
 30
0.0
  0
VERTEX
  5
2EE
330
2EC
100
AcDbEntity
  8
Layer 1
 62
     7
370
    25
100
AcDbVertex
100
AcDb2dVertex
 10
799.5050318096723
 20
1008.206504739268
 30
0.0
  0
SEQEND
  5
2EF
330
2EC
100
AcDbEntity
  8
Layer 1
370
    25
  0
POLYLINE
  5
2F0
330
3C
100
AcDbEntity
  8
Layer 1
 62
     7
370
    25
100
AcDb2dPolyline
 66
     1
 10
0.0
 20
0.0
 30
0.0
  0
VERTEX
  5
2F1
330
2F0
100
AcDbEntity
  8
Layer 1
 62
     7
370
    25
100
AcDbVertex
100
AcDb2dVertex
 10
799.5050318096723
 20
1008.206504739268
 30
0.0
  0
VERTEX
  5
2F2
330
2F0
100
AcDbEntity
  8
Layer 1
 62
     7
370
    25
100
AcDbVertex
100
AcDb2dVertex
 10
799.5050318096723
 20
997.6229991538061
 30
0.0
  0
SEQEND
  5
2F3
330
2F0
100
AcDbEntity
  8
Layer 1
370
    25
  0
POLYLINE
  5
2F4
330
3C
100
AcDbEntity
  8
Layer 1
 62
     7
370
    25
100
AcDb2dPolyline
 66
     1
 10
0.0
 20
0.0
 30
0.0
  0
VERTEX
  5
2F5
330
2F4
100
AcDbEntity
  8
Layer 1
 62
     7
370
    25
100
AcDbVertex
100
AcDb2dVertex
 10
799.5050318096723
 20
997.6229991538061
 30
0.0
  0
VERTEX
  5
2F6
330
2F4
100
AcDbEntity
  8
Layer 1
 62
     7
370
    25
100
AcDbVertex
100
AcDb2dVertex
 10
792.4494762558808
 20
992.3313324884623
 30
0.0
  0
SEQEND
  5
2F7
330
2F4
100
AcDbEntity
  8
Layer 1
370
    25
  0
POLYLINE
  5
2F8
330
3C
100
AcDbEntity
  8
Layer 1
 62
     7
370
    25
100
AcDb2dPolyline
 66
     1
 10
0.0
 20
0.0
 30
0.0
  0
VERTEX
  5
2F9
330
2F8
100
AcDbEntity
  8
Layer 1
 62
     7
370
    25
100
AcDbVertex
100
AcDb2dVertex
 10
792.4494762558808
 20
992.3313324884623
 30
0.0
  0
VERTEX
  5
2FA
330
2F8
100
AcDbEntity
  8
Layer 1
 62
     7
370
    25
100
AcDbVertex
100
AcDb2dVertex
 10
785.3942652116376
 20
992.3313324884623
 30
0.0
  0
SEQEND
  5
2FB
330
2F8
100
AcDbEntity
  8
Layer 1
370
    25
  0
POLYLINE
  5
2FC
330
3C
100
AcDbEntity
  8
Layer 1
 62
     7
370
    25
100
AcDb2dPolyline
 66
     1
 10
0.0
 20
0.0
 30
0.0
  0
VERTEX
  5
2FD
330
2FC
100
AcDbEntity
  8
Layer 1
 62
     7
370
    25
100
AcDbVertex
100
AcDb2dVertex
 10
785.3942652116376
 20
992.3313324884623
 30
0.0
  0
VERTEX
  5
2FE
330
2FC
100
AcDbEntity
  8
Layer 1
 62
     7
370
    25
100
AcDbVertex
100
AcDb2dVertex
 10
778.3390541673945
 20
997.6229991538061
 30
0.0
  0
SEQEND
  5
2FF
330
2FC
100
AcDbEntity
  8
Layer 1
370
    25
  0
POLYLINE
  5
300
330
3C
100
AcDbEntity
  8
Layer 1
 62
     7
370
    25
100
AcDb2dPolyline
 66
     1
 10
0.0
 20
0.0
 30
0.0
  0
VERTEX
  5
301
330
300
100
AcDbEntity
  8
Layer 1
 62
     7
370
    25
100
AcDbVertex
100
AcDb2dVertex
 10
778.3390541673945
 20
997.6229991538061
 30
0.0
  0
VERTEX
  5
302
330
300
100
AcDbEntity
  8
Layer 1
 62
     7
370
    25
100
AcDbVertex
100
AcDb2dVertex
 10
778.3390541673945
 20
1008.206504739268
 30
0.0
  0
SEQEND
  5
303
330
300
100
AcDbEntity
  8
Layer 1
370
    25
  0
POLYLINE
  5
304
330
3C
100
AcDbEntity
  8
Layer 1
 62
     7
370
    25
100
AcDb2dPolyline
 66
     1
 10
0.0
 20
0.0
 30
0.0
  0
VERTEX
  5
305
330
304
100
AcDbEntity
  8
Layer 1
 62
     7
370
    25
100
AcDbVertex
100
AcDb2dVertex
 10
778.3390541673945
 20
1008.206504739268
 30
0.0
  0
VERTEX
  5
306
330
304
100
AcDbEntity
  8
Layer 1
 62
     7
370
    25
100
AcDbVertex
100
AcDb2dVertex
 10
785.3942652116376
 20
1013.498171404612
 30
0.0
  0
SEQEND
  5
307
330
304
100
AcDbEntity
  8
Layer 1
370
    25
  0
POLYLINE
  5
308
330
3C
100
AcDbEntity
  8
Layer 1
 62
     7
370
    25
100
AcDb2dPolyline
 66
     1
 10
0.0
 20
0.0
 30
0.0
  0
VERTEX
  5
309
330
308
100
AcDbEntity
  8
Layer 1
 62
     7
370
    25
100
AcDbVertex
100
AcDb2dVertex
 10
785.3942652116376
 20
1013.498171404612
 30
0.0
  0
VERTEX
  5
30A
330
308
100
AcDbEntity
  8
Layer 1
 62
     7
370
    25
100
AcDbVertex
100
AcDb2dVertex
 10
792.4494762558808
 20
1013.498171404612
 30
0.0
  0
SEQEND
  5
30B
330
308
100
AcDbEntity
  8
Layer 1
370
    25
  0
POLYLINE
  5
30C
330
3C
100
AcDbEntity
  8
Layer 1
 62
     7
370
    25
100
AcDb2dPolyline
 66
     1
 10
0.0
 20
0.0
 30
0.0
  0
VERTEX
  5
30D
330
30C
100
AcDbEntity
  8
Layer 1
 62
     7
370
    25
100
AcDbVertex
100
AcDb2dVertex
 10
792.4494762558808
 20
1013.498171404612
 30
0.0
  0
VERTEX
  5
30E
330
30C
100
AcDbEntity
  8
Layer 1
 62
     7
370
    25
100
AcDbVertex
100
AcDb2dVertex
 10
799.5050318096723
 20
1008.206504739268
 30
0.0
  0
SEQEND
  5
30F
330
30C
100
AcDbEntity
  8
Layer 1
370
    25
  0
POLYLINE
  5
310
330
3C
100
AcDbEntity
  8
Layer 1
 62
     7
370
    25
100
AcDb2dPolyline
 66
     1
 10
0.0
 20
0.0
 30
0.0
  0
VERTEX
  5
311
330
310
100
AcDbEntity
  8
Layer 1
 62
     7
370
    25
100
AcDbVertex
100
AcDb2dVertex
 10
799.5050318096723
 20
997.6229991538061
 30
0.0
  0
VERTEX
  5
312
330
310
100
AcDbEntity
  8
Layer 1
 62
     7
370
    25
100
AcDbVertex
100
AcDb2dVertex
 10
806.5612763825611
 20
992.3313324884623
 30
0.0
  0
SEQEND
  5
313
330
310
100
AcDbEntity
  8
Layer 1
370
    25
  0
POLYLINE
  5
314
330
3C
100
AcDbEntity
  8
Layer 1
 62
     7
370
    25
100
AcDb2dPolyline
 66
     1
 10
0.0
 20
0.0
 30
0.0
  0
VERTEX
  5
315
330
314
100
AcDbEntity
  8
Layer 1
 62
     7
370
    25
100
AcDbVertex
100
AcDb2dVertex
 10
806.5612763825611
 20
992.3313324884623
 30
0.0
  0
VERTEX
  5
316
330
314
100
AcDbEntity
  8
Layer 1
 62
     7
370
    25
100
AcDbVertex
100
AcDb2dVertex
 10
813.6164874268043
 20
992.3313324884623
 30
0.0
  0
SEQEND
  5
317
330
314
100
AcDbEntity
  8
Layer 1
370
    25
  0
POLYLINE
  5
318
330
3C
100
AcDbEntity
  8
Layer 1
 62
     7
370
    25
100
AcDb2dPolyline
 66
     1
 10
0.0
 20
0.0
 30
0.0
  0
VERTEX
  5
319
330
318
100
AcDbEntity
  8
Layer 1
 62
     7
370
    25
100
AcDbVertex
100
AcDb2dVertex
 10
813.6164874268043
 20
992.3313324884623
 30
0.0
  0
VERTEX
  5
31A
330
318
100
AcDbEntity
  8
Layer 1
 62
     7
370
    25
100
AcDbVertex
100
AcDb2dVertex
 10
820.6716984710474
 20
997.6229991538061
 30
0.0
  0
SEQEND
  5
31B
330
318
100
AcDbEntity
  8
Layer 1
370
    25
  0
POLYLINE
  5
31C
330
3C
100
AcDbEntity
  8
Layer 1
 62
     7
370
    25
100
AcDb2dPolyline
 66
     1
 10
0.0
 20
0.0
 30
0.0
  0
VERTEX
  5
31D
330
31C
100
AcDbEntity
  8
Layer 1
 62
     7
370
    25
100
AcDbVertex
100
AcDb2dVertex
 10
820.6716984710474
 20
1029.372826891094
 30
0.0
  0
VERTEX
  5
31E
330
31C
100
AcDbEntity
  8
Layer 1
 62
     7
370
    25
100
AcDbVertex
100
AcDb2dVertex
 10
820.6716984710474
 20
1039.956332476556
 30
0.0
  0
SEQEND
  5
31F
330
31C
100
AcDbEntity
  8
Layer 1
370
    25
  0
POLYLINE
  5
320
330
3C
100
AcDbEntity
  8
Layer 1
 62
     7
370
    25
100
AcDb2dPolyline
 66
     1
 10
0.0
 20
0.0
 30
0.0
  0
VERTEX
  5
321
330
320
100
AcDbEntity
  8
Layer 1
 62
     7
370
    25
100
AcDbVertex
100
AcDb2dVertex
 10
820.6716984710474
 20
1039.956332476556
 30
0.0
  0
VERTEX
  5
322
330
320
100
AcDbEntity
  8
Layer 1
 62
     7
370
    25
100
AcDbVertex
100
AcDb2dVertex
 10
813.6164874268043
 20
1045.247654632351
 30
0.0
  0
SEQEND
  5
323
330
320
100
AcDbEntity
  8
Layer 1
370
    25
  0
POLYLINE
  5
324
330
3C
100
AcDbEntity
  8
Layer 1
 62
     7
370
    25
100
AcDb2dPolyline
 66
     1
 10
0.0
 20
0.0
 30
0.0
  0
VERTEX
  5
325
330
324
100
AcDbEntity
  8
Layer 1
 62
     7
370
    25
100
AcDbVertex
100
AcDb2dVertex
 10
813.6164874268043
 20
1045.247654632351
 30
0.0
  0
VERTEX
  5
326
330
324
100
AcDbEntity
  8
Layer 1
 62
     7
370
    25
100
AcDbVertex
100
AcDb2dVertex
 10
806.5612763825611
 20
1045.247654632351
 30
0.0
  0
SEQEND
  5
327
330
324
100
AcDbEntity
  8
Layer 1
370
    25
  0
POLYLINE
  5
328
330
3C
100
AcDbEntity
  8
Layer 1
 62
     7
370
    25
100
AcDb2dPolyline
 66
     1
 10
0.0
 20
0.0
 30
0.0
  0
VERTEX
  5
329
330
328
100
AcDbEntity
  8
Layer 1
 62
     7
370
    25
100
AcDbVertex
100
AcDb2dVertex
 10
806.5612763825611
 20
1045.247654632351
 30
0.0
  0
VERTEX
  5
32A
330
328
100
AcDbEntity
  8
Layer 1
 62
     7
370
    25
100
AcDbVertex
100
AcDb2dVertex
 10
799.5050318096723
 20
1039.956332476556
 30
0.0
  0
SEQEND
  5
32B
330
328
100
AcDbEntity
  8
Layer 1
370
    25
  0
POLYLINE
  5
32C
330
3C
100
AcDbEntity
  8
Layer 1
 62
     7
370
    25
100
AcDb2dPolyline
 66
     1
 10
0.0
 20
0.0
 30
0.0
  0
VERTEX
  5
32D
330
32C
100
AcDbEntity
  8
Layer 1
 62
     7
370
    25
100
AcDbVertex
100
AcDb2dVertex
 10
799.5050318096723
 20
1039.956332476556
 30
0.0
  0
VERTEX
  5
32E
330
32C
100
AcDbEntity
  8
Layer 1
 62
     7
370
    25
100
AcDbVertex
100
AcDb2dVertex
 10
799.5050318096723
 20
1029.372826891094
 30
0.0
  0
SEQEND
  5
32F
330
32C
100
AcDbEntity
  8
Layer 1
370
    25
  0
POLYLINE
  5
330
330
3C
100
AcDbEntity
  8
Layer 1
 62
     7
370
    25
100
AcDb2dPolyline
 66
     1
 10
0.0
 20
0.0
 30
0.0
  0
VERTEX
  5
331
330
330
100
AcDbEntity
  8
Layer 1
 62
     7
370
    25
100
AcDbVertex
100
AcDb2dVertex
 10
799.5050318096723
 20
1029.372826891094
 30
0.0
  0
VERTEX
  5
332
330
330
100
AcDbEntity
  8
Layer 1
 62
     7
370
    25
100
AcDbVertex
100
AcDb2dVertex
 10
792.4494762558808
 20
1024.081160225751
 30
0.0
  0
SEQEND
  5
333
330
330
100
AcDbEntity
  8
Layer 1
370
    25
  0
POLYLINE
  5
334
330
3C
100
AcDbEntity
  8
Layer 1
 62
     7
370
    25
100
AcDb2dPolyline
 66
     1
 10
0.0
 20
0.0
 30
0.0
  0
VERTEX
  5
335
330
334
100
AcDbEntity
  8
Layer 1
 62
     7
370
    25
100
AcDbVertex
100
AcDb2dVertex
 10
792.4494762558808
 20
1024.081160225751
 30
0.0
  0
VERTEX
  5
336
330
334
100
AcDbEntity
  8
Layer 1
 62
     7
370
    25
100
AcDbVertex
100
AcDb2dVertex
 10
785.3942652116376
 20
1024.081160225751
 30
0.0
  0
SEQEND
  5
337
330
334
100
AcDbEntity
  8
Layer 1
370
    25
  0
POLYLINE
  5
338
330
3C
100
AcDbEntity
  8
Layer 1
 62
     7
370
    25
100
AcDb2dPolyline
 66
     1
 10
0.0
 20
0.0
 30
0.0
  0
VERTEX
  5
339
330
338
100
AcDbEntity
  8
Layer 1
 62
     7
370
    25
100
AcDbVertex
100
AcDb2dVertex
 10
785.3942652116376
 20
1024.081160225751
 30
0.0
  0
VERTEX
  5
33A
330
338
100
AcDbEntity
  8
Layer 1
 62
     7
370
    25
100
AcDbVertex
100
AcDb2dVertex
 10
778.3390541673945
 20
1029.372826891094
 30
0.0
  0
SEQEND
  5
33B
330
338
100
AcDbEntity
  8
Layer 1
370
    25
  0
POLYLINE
  5
33C
330
3C
100
AcDbEntity
  8
Layer 1
 62
     7
370
    25
100
AcDb2dPolyline
 66
     1
 10
0.0
 20
0.0
 30
0.0
  0
VERTEX
  5
33D
330
33C
100
AcDbEntity
  8
Layer 1
 62
     7
370
    25
100
AcDbVertex
100
AcDb2dVertex
 10
778.3390541673945
 20
1029.372826891094
 30
0.0
  0
VERTEX
  5
33E
330
33C
100
AcDbEntity
  8
Layer 1
 62
     7
370
    25
100
AcDbVertex
100
AcDb2dVertex
 10
778.3390541673945
 20
1039.956332476556
 30
0.0
  0
SEQEND
  5
33F
330
33C
100
AcDbEntity
  8
Layer 1
370
    25
  0
POLYLINE
  5
340
330
3C
100
AcDbEntity
  8
Layer 1
 62
     7
370
    25
100
AcDb2dPolyline
 66
     1
 10
0.0
 20
0.0
 30
0.0
  0
VERTEX
  5
341
330
340
100
AcDbEntity
  8
Layer 1
 62
     7
370
    25
100
AcDbVertex
100
AcDb2dVertex
 10
778.3390541673945
 20
1039.956332476556
 30
0.0
  0
VERTEX
  5
342
330
340
100
AcDbEntity
  8
Layer 1
 62
     7
370
    25
100
AcDbVertex
100
AcDb2dVertex
 10
785.3942652116376
 20
1045.247654632351
 30
0.0
  0
SEQEND
  5
343
330
340
100
AcDbEntity
  8
Layer 1
370
    25
  0
POLYLINE
  5
344
330
3C
100
AcDbEntity
  8
Layer 1
 62
     7
370
    25
100
AcDb2dPolyline
 66
     1
 10
0.0
 20
0.0
 30
0.0
  0
VERTEX
  5
345
330
344
100
AcDbEntity
  8
Layer 1
 62
     7
370
    25
100
AcDbVertex
100
AcDb2dVertex
 10
785.3942652116376
 20
1045.247654632351
 30
0.0
  0
VERTEX
  5
346
330
344
100
AcDbEntity
  8
Layer 1
 62
     7
370
    25
100
AcDbVertex
100
AcDb2dVertex
 10
792.4494762558808
 20
1045.247654632351
 30
0.0
  0
SEQEND
  5
347
330
344
100
AcDbEntity
  8
Layer 1
370
    25
  0
POLYLINE
  5
348
330
3C
100
AcDbEntity
  8
Layer 1
 62
     7
370
    25
100
AcDb2dPolyline
 66
     1
 10
0.0
 20
0.0
 30
0.0
  0
VERTEX
  5
349
330
348
100
AcDbEntity
  8
Layer 1
 62
     7
370
    25
100
AcDbVertex
100
AcDb2dVertex
 10
792.4494762558808
 20
1045.247654632351
 30
0.0
  0
VERTEX
  5
34A
330
348
100
AcDbEntity
  8
Layer 1
 62
     7
370
    25
100
AcDbVertex
100
AcDb2dVertex
 10
799.5050318096723
 20
1039.956332476556
 30
0.0
  0
SEQEND
  5
34B
330
348
100
AcDbEntity
  8
Layer 1
370
    25
  0
POLYLINE
  5
34C
330
3C
100
AcDbEntity
  8
Layer 1
 62
     7
370
    25
100
AcDb2dPolyline
 66
     1
 10
0.0
 20
0.0
 30
0.0
  0
VERTEX
  5
34D
330
34C
100
AcDbEntity
  8
Layer 1
 62
     7
370
    25
100
AcDbVertex
100
AcDb2dVertex
 10
799.5050318096723
 20
1029.372826891094
 30
0.0
  0
VERTEX
  5
34E
330
34C
100
AcDbEntity
  8
Layer 1
 62
     7
370
    25
100
AcDbVertex
100
AcDb2dVertex
 10
806.5612763825611
 20
1024.081160225751
 30
0.0
  0
SEQEND
  5
34F
330
34C
100
AcDbEntity
  8
Layer 1
370
    25
  0
POLYLINE
  5
350
330
3C
100
AcDbEntity
  8
Layer 1
 62
     7
370
    25
100
AcDb2dPolyline
 66
     1
 10
0.0
 20
0.0
 30
0.0
  0
VERTEX
  5
351
330
350
100
AcDbEntity
  8
Layer 1
 62
     7
370
    25
100
AcDbVertex
100
AcDb2dVertex
 10
806.5612763825611
 20
1024.081160225751
 30
0.0
  0
VERTEX
  5
352
330
350
100
AcDbEntity
  8
Layer 1
 62
     7
370
    25
100
AcDbVertex
100
AcDb2dVertex
 10
813.6164874268043
 20
1024.081160225751
 30
0.0
  0
SEQEND
  5
353
330
350
100
AcDbEntity
  8
Layer 1
370
    25
  0
POLYLINE
  5
354
330
3C
100
AcDbEntity
  8
Layer 1
 62
     7
370
    25
100
AcDb2dPolyline
 66
     1
 10
0.0
 20
0.0
 30
0.0
  0
VERTEX
  5
355
330
354
100
AcDbEntity
  8
Layer 1
 62
     7
370
    25
100
AcDbVertex
100
AcDb2dVertex
 10
813.6164874268043
 20
1024.081160225751
 30
0.0
  0
VERTEX
  5
356
330
354
100
AcDbEntity
  8
Layer 1
 62
     7
370
    25
100
AcDbVertex
100
AcDb2dVertex
 10
820.6716984710474
 20
1029.372826891094
 30
0.0
  0
SEQEND
  5
357
330
354
100
AcDbEntity
  8
Layer 1
370
    25
  0
POLYLINE
  5
358
330
3C
100
AcDbEntity
  8
Layer 1
370
     0
100
AcDb2dPolyline
 66
     1
 10
0.0
 20
0.0
 30
0.0
  0
VERTEX
  5
359
330
358
100
AcDbEntity
  8
Layer 1
370
     0
100
AcDbVertex
100
AcDb2dVertex
 10
672.9081080131966
 20
516.9720620452362
 30
0.0
  0
VERTEX
  5
35A
330
358
100
AcDbEntity
  8
Layer 1
370
     0
100
AcDbVertex
100
AcDb2dVertex
 10
702.9079994987522
 20
521.9719291229793
 30
0.0
  0
VERTEX
  5
35B
330
358
100
AcDbEntity
  8
Layer 1
370
     0
100
AcDbVertex
100
AcDb2dVertex
 10
702.9079994987522
 20
511.971505948396
 30
0.0
  0
SEQEND
  5
35C
330
358
100
AcDbEntity
  8
Layer 1
370
     0
  0
HATCH
  5
35D
330
3C
100
AcDbEntity
  8
Layer 1
 62
     7
100
AcDbHatch
 10
0.0
 20
0.0
 30
0.0
210
0.0
220
0.0
230
1.0
  2
SOLID
 70
     1
 71
     0
 91
        1
 92
        1
 93
        3
 72
     1
 10
672.9081080131966
 20
516.9720620452362
 11
702.9079994987522
 21
521.9719291229793
 72
     1
 10
702.9079994987522
 20
521.9719291229793
 11
702.9079994987522
 21
511.971505948396
 72
     1
 10
702.9079994987522
 20
511.971505948396
 11
672.9081080131966
 21
516.9720620452362
 97
        0
 75
     2
 76
     1
 98
        0
  0
POLYLINE
  5
35E
330
3C
100
AcDbEntity
  8
Layer 1
370
     0
100
AcDb2dPolyline
 66
     1
 10
0.0
 20
0.0
 30
0.0
  0
VERTEX
  5
35F
330
35E
100
AcDbEntity
  8
Layer 1
370
     0
100
AcDbVertex
100
AcDb2dVertex
 10
444.4097383871615
 20
516.9720620452362
 30
0.0
  0
VERTEX
  5
360
330
35E
100
AcDbEntity
  8
Layer 1
370
     0
100
AcDbVertex
100
AcDb2dVertex
 10
414.4096746468316
 20
511.971505948396
 30
0.0
  0
VERTEX
  5
361
330
35E
100
AcDbEntity
  8
Layer 1
370
     0
100
AcDbVertex
100
AcDb2dVertex
 10
414.4096746468316
 20
521.9719291229793
 30
0.0
  0
SEQEND
  5
362
330
35E
100
AcDbEntity
  8
Layer 1
370
     0
  0
HATCH
  5
363
330
3C
100
AcDbEntity
  8
Layer 1
 62
     7
100
AcDbHatch
 10
0.0
 20
0.0
 30
0.0
210
0.0
220
0.0
230
1.0
  2
SOLID
 70
     1
 71
     0
 91
        1
 92
        1
 93
        3
 72
     1
 10
444.4097383871615
 20
516.9720620452362
 11
414.4096746468316
 21
511.971505948396
 72
     1
 10
414.4096746468316
 20
511.971505948396
 11
414.4096746468316
 21
521.9719291229793
 72
     1
 10
414.4096746468316
 20
521.9719291229793
 11
444.4097383871615
 21
516.9720620452362
 97
        0
 75
     2
 76
     1
 98
        0
  0
POLYLINE
  5
364
330
3C
100
AcDbEntity
  8
Layer 1
 62
     7
370
    25
100
AcDb2dPolyline
 66
     1
 10
0.0
 20
0.0
 30
0.0
  0
VERTEX
  5
365
330
364
100
AcDbEntity
  8
Layer 1
 62
     7
370
    25
100
AcDbVertex
100
AcDb2dVertex
 10
672.9081080131966
 20
596.5093260227477
 30
0.0
  0
VERTEX
  5
366
330
364
100
AcDbEntity
  8
Layer 1
 62
     7
370
    25
100
AcDbVertex
100
AcDb2dVertex
 10
672.9081080131966
 20
506.9719833802015
 30
0.0
  0
SEQEND
  5
367
330
364
100
AcDbEntity
  8
Layer 1
370
    25
  0
POLYLINE
  5
368
330
3C
100
AcDbEntity
  8
Layer 1
 62
     7
370
    25
100
AcDb2dPolyline
 66
     1
 10
0.0
 20
0.0
 30
0.0
  0
VERTEX
  5
369
330
368
100
AcDbEntity
  8
Layer 1
 62
     7
370
    25
100
AcDbVertex
100
AcDb2dVertex
 10
444.4097383871615
 20
597.610723049382
 30
0.0
  0
VERTEX
  5
36A
330
368
100
AcDbEntity
  8
Layer 1
 62
     7
370
    25
100
AcDbVertex
100
AcDb2dVertex
 10
444.4097383871615
 20
506.9719833802015
 30
0.0
  0
SEQEND
  5
36B
330
368
100
AcDbEntity
  8
Layer 1
370
    25
  0
POLYLINE
  5
36C
330
3C
100
AcDbEntity
  8
Layer 1
 62
     7
370
    25
100
AcDb2dPolyline
 66
     1
 10
0.0
 20
0.0
 30
0.0
  0
VERTEX
  5
36D
330
36C
100
AcDbEntity
  8
Layer 1
 62
     7
370
    25
100
AcDbVertex
100
AcDb2dVertex
 10
672.9081080131966
 20
516.9720620452362
 30
0.0
  0
VERTEX
  5
36E
330
36C
100
AcDbEntity
  8
Layer 1
 62
     7
370
    25
100
AcDbVertex
100
AcDb2dVertex
 10
732.9078909843078
 20
516.9720620452362
 30
0.0
  0
SEQEND
  5
36F
330
36C
100
AcDbEntity
  8
Layer 1
370
    25
  0
POLYLINE
  5
370
330
3C
100
AcDbEntity
  8
Layer 1
 62
     7
370
    25
100
AcDb2dPolyline
 66
     1
 10
0.0
 20
0.0
 30
0.0
  0
VERTEX
  5
371
330
370
100
AcDbEntity
  8
Layer 1
 62
     7
370
    25
100
AcDbVertex
100
AcDb2dVertex
 10
672.9081080131966
 20
516.9720620452362
 30
0.0
  0
VERTEX
  5
372
330
370
100
AcDbEntity
  8
Layer 1
 62
     7
370
    25
100
AcDbVertex
100
AcDb2dVertex
 10
444.4097383871615
 20
516.9720620452362
 30
0.0
  0
SEQEND
  5
373
330
370
100
AcDbEntity
  8
Layer 1
370
    25
  0
POLYLINE
  5
374
330
3C
100
AcDbEntity
  8
Layer 1
 62
     7
370
    25
100
AcDb2dPolyline
 66
     1
 10
0.0
 20
0.0
 30
0.0
  0
VERTEX
  5
375
330
374
100
AcDbEntity
  8
Layer 1
 62
     7
370
    25
100
AcDbVertex
100
AcDb2dVertex
 10
444.4097383871615
 20
516.9720620452362
 30
0.0
  0
VERTEX
  5
376
330
374
100
AcDbEntity
  8
Layer 1
 62
     7
370
    25
100
AcDbVertex
100
AcDb2dVertex
 10
384.4096109065018
 20
516.9720620452362
 30
0.0
  0
SEQEND
  5
377
330
374
100
AcDbEntity
  8
Layer 1
370
    25
  0
POLYLINE
  5
378
330
3C
100
AcDbEntity
  8
Layer 1
 62
     7
370
    25
100
AcDb2dPolyline
 66
     1
 10
0.0
 20
0.0
 30
0.0
  0
VERTEX
  5
379
330
378
100
AcDbEntity
  8
Layer 1
 62
     7
370
    25
100
AcDbVertex
100
AcDb2dVertex
 10
495.4760442554713
 20
564.4871634873505
 30
0.0
  0
VERTEX
  5
37A
330
378
100
AcDbEntity
  8
Layer 1
 62
     7
370
    25
100
AcDbVertex
100
AcDb2dVertex
 10
500.767710920815
 20
571.5423745315936
 30
0.0
  0
SEQEND
  5
37B
330
378
100
AcDbEntity
  8
Layer 1
370
    25
  0
POLYLINE
  5
37C
330
3C
100
AcDbEntity
  8
Layer 1
 62
     7
370
    25
100
AcDb2dPolyline
 66
     1
 10
0.0
 20
0.0
 30
0.0
  0
VERTEX
  5
37D
330
37C
100
AcDbEntity
  8
Layer 1
 62
     7
370
    25
100
AcDbVertex
100
AcDb2dVertex
 10
500.767710920815
 20
571.5423745315936
 30
0.0
  0
VERTEX
  5
37E
330
37C
100
AcDbEntity
  8
Layer 1
 62
     7
370
    25
100
AcDbVertex
100
AcDb2dVertex
 10
511.3510442515025
 20
571.5423745315936
 30
0.0
  0
SEQEND
  5
37F
330
37C
100
AcDbEntity
  8
Layer 1
370
    25
  0
POLYLINE
  5
380
330
3C
100
AcDbEntity
  8
Layer 1
 62
     7
370
    25
100
AcDb2dPolyline
 66
     1
 10
0.0
 20
0.0
 30
0.0
  0
VERTEX
  5
381
330
380
100
AcDbEntity
  8
Layer 1
 62
     7
370
    25
100
AcDbVertex
100
AcDb2dVertex
 10
511.3510442515025
 20
571.5423745315936
 30
0.0
  0
VERTEX
  5
382
330
380
100
AcDbEntity
  8
Layer 1
 62
     7
370
    25
100
AcDbVertex
100
AcDb2dVertex
 10
516.6420218977493
 20
564.4871634873505
 30
0.0
  0
SEQEND
  5
383
330
380
100
AcDbEntity
  8
Layer 1
370
    25
  0
POLYLINE
  5
384
330
3C
100
AcDbEntity
  8
Layer 1
 62
     7
370
    25
100
AcDb2dPolyline
 66
     1
 10
0.0
 20
0.0
 30
0.0
  0
VERTEX
  5
385
330
384
100
AcDbEntity
  8
Layer 1
 62
     7
370
    25
100
AcDbVertex
100
AcDb2dVertex
 10
516.6420218977493
 20
564.4871634873505
 30
0.0
  0
VERTEX
  5
386
330
384
100
AcDbEntity
  8
Layer 1
 62
     7
370
    25
100
AcDbVertex
100
AcDb2dVertex
 10
516.6420218977493
 20
557.4316079335588
 30
0.0
  0
SEQEND
  5
387
330
384
100
AcDbEntity
  8
Layer 1
370
    25
  0
POLYLINE
  5
388
330
3C
100
AcDbEntity
  8
Layer 1
 62
     7
370
    25
100
AcDb2dPolyline
 66
     1
 10
0.0
 20
0.0
 30
0.0
  0
VERTEX
  5
389
330
388
100
AcDbEntity
  8
Layer 1
 62
     7
370
    25
100
AcDbVertex
100
AcDb2dVertex
 10
516.6420218977493
 20
557.4316079335588
 30
0.0
  0
VERTEX
  5
38A
330
388
100
AcDbEntity
  8
Layer 1
 62
     7
370
    25
100
AcDbVertex
100
AcDb2dVertex
 10
511.3510442515025
 20
550.3753633606701
 30
0.0
  0
SEQEND
  5
38B
330
388
100
AcDbEntity
  8
Layer 1
370
    25
  0
POLYLINE
  5
38C
330
3C
100
AcDbEntity
  8
Layer 1
 62
     7
370
    25
100
AcDb2dPolyline
 66
     1
 10
0.0
 20
0.0
 30
0.0
  0
VERTEX
  5
38D
330
38C
100
AcDbEntity
  8
Layer 1
 62
     7
370
    25
100
AcDbVertex
100
AcDb2dVertex
 10
511.3510442515025
 20
550.3753633606701
 30
0.0
  0
VERTEX
  5
38E
330
38C
100
AcDbEntity
  8
Layer 1
 62
     7
370
    25
100
AcDbVertex
100
AcDb2dVertex
 10
500.767710920815
 20
550.3753633606701
 30
0.0
  0
SEQEND
  5
38F
330
38C
100
AcDbEntity
  8
Layer 1
370
    25
  0
POLYLINE
  5
390
330
3C
100
AcDbEntity
  8
Layer 1
 62
     7
370
    25
100
AcDb2dPolyline
 66
     1
 10
0.0
 20
0.0
 30
0.0
  0
VERTEX
  5
391
330
390
100
AcDbEntity
  8
Layer 1
 62
     7
370
    25
100
AcDbVertex
100
AcDb2dVertex
 10
500.767710920815
 20
550.3753633606701
 30
0.0
  0
VERTEX
  5
392
330
390
100
AcDbEntity
  8
Layer 1
 62
     7
370
    25
100
AcDbVertex
100
AcDb2dVertex
 10
495.4760442554713
 20
543.320152316427
 30
0.0
  0
SEQEND
  5
393
330
390
100
AcDbEntity
  8
Layer 1
370
    25
  0
POLYLINE
  5
394
330
3C
100
AcDbEntity
  8
Layer 1
 62
     7
370
    25
100
AcDb2dPolyline
 66
     1
 10
0.0
 20
0.0
 30
0.0
  0
VERTEX
  5
395
330
394
100
AcDbEntity
  8
Layer 1
 62
     7
370
    25
100
AcDbVertex
100
AcDb2dVertex
 10
495.4760442554713
 20
543.320152316427
 30
0.0
  0
VERTEX
  5
396
330
394
100
AcDbEntity
  8
Layer 1
 62
     7
370
    25
100
AcDbVertex
100
AcDb2dVertex
 10
495.4760442554713
 20
529.2093857183921
 30
0.0
  0
SEQEND
  5
397
330
394
100
AcDbEntity
  8
Layer 1
370
    25
  0
POLYLINE
  5
398
330
3C
100
AcDbEntity
  8
Layer 1
 62
     7
370
    25
100
AcDb2dPolyline
 66
     1
 10
0.0
 20
0.0
 30
0.0
  0
VERTEX
  5
399
330
398
100
AcDbEntity
  8
Layer 1
 62
     7
370
    25
100
AcDbVertex
100
AcDb2dVertex
 10
495.4760442554713
 20
529.2093857183921
 30
0.0
  0
VERTEX
  5
39A
330
398
100
AcDbEntity
  8
Layer 1
 62
     7
370
    25
100
AcDbVertex
100
AcDb2dVertex
 10
516.6420218977493
 20
529.2093857183921
 30
0.0
  0
SEQEND
  5
39B
330
398
100
AcDbEntity
  8
Layer 1
370
    25
  0
POLYLINE
  5
39C
330
3C
100
AcDbEntity
  8
Layer 1
 62
     7
370
    25
100
AcDb2dPolyline
 66
     1
 10
0.0
 20
0.0
 30
0.0
  0
VERTEX
  5
39D
330
39C
100
AcDbEntity
  8
Layer 1
 62
     7
370
    25
100
AcDbVertex
100
AcDb2dVertex
 10
527.2253552284368
 20
564.4871634873505
 30
0.0
  0
VERTEX
  5
39E
330
39C
100
AcDbEntity
  8
Layer 1
 62
     7
370
    25
100
AcDbVertex
100
AcDb2dVertex
 10
532.5170218937805
 20
571.5423745315936
 30
0.0
  0
SEQEND
  5
39F
330
39C
100
AcDbEntity
  8
Layer 1
370
    25
  0
POLYLINE
  5
3A0
330
3C
100
AcDbEntity
  8
Layer 1
 62
     7
370
    25
100
AcDb2dPolyline
 66
     1
 10
0.0
 20
0.0
 30
0.0
  0
VERTEX
  5
3A1
330
3A0
100
AcDbEntity
  8
Layer 1
 62
     7
370
    25
100
AcDbVertex
100
AcDb2dVertex
 10
532.5170218937805
 20
571.5423745315936
 30
0.0
  0
VERTEX
  5
3A2
330
3A0
100
AcDbEntity
  8
Layer 1
 62
     7
370
    25
100
AcDbVertex
100
AcDb2dVertex
 10
543.1006997340165
 20
571.5423745315936
 30
0.0
  0
SEQEND
  5
3A3
330
3A0
100
AcDbEntity
  8
Layer 1
370
    25
  0
POLYLINE
  5
3A4
330
3C
100
AcDbEntity
  8
Layer 1
 62
     7
370
    25
100
AcDb2dPolyline
 66
     1
 10
0.0
 20
0.0
 30
0.0
  0
VERTEX
  5
3A5
330
3A4
100
AcDbEntity
  8
Layer 1
 62
     7
370
    25
100
AcDbVertex
100
AcDb2dVertex
 10
543.1006997340165
 20
571.5423745315936
 30
0.0
  0
VERTEX
  5
3A6
330
3A4
100
AcDbEntity
  8
Layer 1
 62
     7
370
    25
100
AcDbVertex
100
AcDb2dVertex
 10
548.3923663993603
 20
564.4871634873505
 30
0.0
  0
SEQEND
  5
3A7
330
3A4
100
AcDbEntity
  8
Layer 1
370
    25
  0
POLYLINE
  5
3A8
330
3C
100
AcDbEntity
  8
Layer 1
 62
     7
370
    25
100
AcDb2dPolyline
 66
     1
 10
0.0
 20
0.0
 30
0.0
  0
VERTEX
  5
3A9
330
3A8
100
AcDbEntity
  8
Layer 1
 62
     7
370
    25
100
AcDbVertex
100
AcDb2dVertex
 10
548.3923663993603
 20
564.4871634873505
 30
0.0
  0
VERTEX
  5
3AA
330
3A8
100
AcDbEntity
  8
Layer 1
 62
     7
370
    25
100
AcDbVertex
100
AcDb2dVertex
 10
548.3923663993603
 20
557.4316079335588
 30
0.0
  0
SEQEND
  5
3AB
330
3A8
100
AcDbEntity
  8
Layer 1
370
    25
  0
POLYLINE
  5
3AC
330
3C
100
AcDbEntity
  8
Layer 1
 62
     7
370
    25
100
AcDb2dPolyline
 66
     1
 10
0.0
 20
0.0
 30
0.0
  0
VERTEX
  5
3AD
330
3AC
100
AcDbEntity
  8
Layer 1
 62
     7
370
    25
100
AcDbVertex
100
AcDb2dVertex
 10
548.3923663993603
 20
557.4316079335588
 30
0.0
  0
VERTEX
  5
3AE
330
3AC
100
AcDbEntity
  8
Layer 1
 62
     7
370
    25
100
AcDbVertex
100
AcDb2dVertex
 10
543.1006997340165
 20
550.3753633606701
 30
0.0
  0
SEQEND
  5
3AF
330
3AC
100
AcDbEntity
  8
Layer 1
370
    25
  0
POLYLINE
  5
3B0
330
3C
100
AcDbEntity
  8
Layer 1
 62
     7
370
    25
100
AcDb2dPolyline
 66
     1
 10
0.0
 20
0.0
 30
0.0
  0
VERTEX
  5
3B1
330
3B0
100
AcDbEntity
  8
Layer 1
 62
     7
370
    25
100
AcDbVertex
100
AcDb2dVertex
 10
543.1006997340165
 20
550.3753633606701
 30
0.0
  0
VERTEX
  5
3B2
330
3B0
100
AcDbEntity
  8
Layer 1
 62
     7
370
    25
100
AcDbVertex
100
AcDb2dVertex
 10
532.5170218937805
 20
550.3753633606701
 30
0.0
  0
SEQEND
  5
3B3
330
3B0
100
AcDbEntity
  8
Layer 1
370
    25
  0
POLYLINE
  5
3B4
330
3C
100
AcDbEntity
  8
Layer 1
 62
     7
370
    25
100
AcDb2dPolyline
 66
     1
 10
0.0
 20
0.0
 30
0.0
  0
VERTEX
  5
3B5
330
3B4
100
AcDbEntity
  8
Layer 1
 62
     7
370
    25
100
AcDbVertex
100
AcDb2dVertex
 10
532.5170218937805
 20
550.3753633606701
 30
0.0
  0
VERTEX
  5
3B6
330
3B4
100
AcDbEntity
  8
Layer 1
 62
     7
370
    25
100
AcDbVertex
100
AcDb2dVertex
 10
527.2253552284368
 20
543.320152316427
 30
0.0
  0
SEQEND
  5
3B7
330
3B4
100
AcDbEntity
  8
Layer 1
370
    25
  0
POLYLINE
  5
3B8
330
3C
100
AcDbEntity
  8
Layer 1
 62
     7
370
    25
100
AcDb2dPolyline
 66
     1
 10
0.0
 20
0.0
 30
0.0
  0
VERTEX
  5
3B9
330
3B8
100
AcDbEntity
  8
Layer 1
 62
     7
370
    25
100
AcDbVertex
100
AcDb2dVertex
 10
527.2253552284368
 20
543.320152316427
 30
0.0
  0
VERTEX
  5
3BA
330
3B8
100
AcDbEntity
  8
Layer 1
 62
     7
370
    25
100
AcDbVertex
100
AcDb2dVertex
 10
527.2253552284368
 20
529.2093857183921
 30
0.0
  0
SEQEND
  5
3BB
330
3B8
100
AcDbEntity
  8
Layer 1
370
    25
  0
POLYLINE
  5
3BC
330
3C
100
AcDbEntity
  8
Layer 1
 62
     7
370
    25
100
AcDb2dPolyline
 66
     1
 10
0.0
 20
0.0
 30
0.0
  0
VERTEX
  5
3BD
330
3BC
100
AcDbEntity
  8
Layer 1
 62
     7
370
    25
100
AcDbVertex
100
AcDb2dVertex
 10
527.2253552284368
 20
529.2093857183921
 30
0.0
  0
VERTEX
  5
3BE
330
3BC
100
AcDbEntity
  8
Layer 1
 62
     7
370
    25
100
AcDbVertex
100
AcDb2dVertex
 10
548.3923663993603
 20
529.2093857183921
 30
0.0
  0
SEQEND
  5
3BF
330
3BC
100
AcDbEntity
  8
Layer 1
370
    25
  0
POLYLINE
  5
3C0
330
3C
100
AcDbEntity
  8
Layer 1
 62
     7
370
    25
100
AcDb2dPolyline
 66
     1
 10
0.0
 20
0.0
 30
0.0
  0
VERTEX
  5
3C1
330
3C0
100
AcDbEntity
  8
Layer 1
 62
     7
370
    25
100
AcDbVertex
100
AcDb2dVertex
 10
564.2673663953915
 20
529.2093857183921
 30
0.0
  0
VERTEX
  5
3C2
330
3C0
100
AcDbEntity
  8
Layer 1
 62
     7
370
    25
100
AcDbVertex
100
AcDb2dVertex
 10
574.8510442356276
 20
529.2093857183921
 30
0.0
  0
SEQEND
  5
3C3
330
3C0
100
AcDbEntity
  8
Layer 1
370
    25
  0
POLYLINE
  5
3C4
330
3C
100
AcDbEntity
  8
Layer 1
 62
     7
370
    25
100
AcDb2dPolyline
 66
     1
 10
0.0
 20
0.0
 30
0.0
  0
VERTEX
  5
3C5
330
3C4
100
AcDbEntity
  8
Layer 1
 62
     7
370
    25
100
AcDbVertex
100
AcDb2dVertex
 10
574.8510442356276
 20
529.2093857183921
 30
0.0
  0
VERTEX
  5
3C6
330
3C4
100
AcDbEntity
  8
Layer 1
 62
     7
370
    25
100
AcDbVertex
100
AcDb2dVertex
 10
580.1427109009713
 20
536.2649412721838
 30
0.0
  0
SEQEND
  5
3C7
330
3C4
100
AcDbEntity
  8
Layer 1
370
    25
  0
POLYLINE
  5
3C8
330
3C
100
AcDbEntity
  8
Layer 1
 62
     7
370
    25
100
AcDb2dPolyline
 66
     1
 10
0.0
 20
0.0
 30
0.0
  0
VERTEX
  5
3C9
330
3C8
100
AcDbEntity
  8
Layer 1
 62
     7
370
    25
100
AcDbVertex
100
AcDb2dVertex
 10
580.1427109009713
 20
536.2649412721838
 30
0.0
  0
VERTEX
  5
3CA
330
3C8
100
AcDbEntity
  8
Layer 1
 62
     7
370
    25
100
AcDbVertex
100
AcDb2dVertex
 10
580.1427109009713
 20
543.320152316427
 30
0.0
  0
SEQEND
  5
3CB
330
3C8
100
AcDbEntity
  8
Layer 1
370
    25
  0
POLYLINE
  5
3CC
330
3C
100
AcDbEntity
  8
Layer 1
 62
     7
370
    25
100
AcDb2dPolyline
 66
     1
 10
0.0
 20
0.0
 30
0.0
  0
VERTEX
  5
3CD
330
3CC
100
AcDbEntity
  8
Layer 1
 62
     7
370
    25
100
AcDbVertex
100
AcDb2dVertex
 10
580.1427109009713
 20
543.320152316427
 30
0.0
  0
VERTEX
  5
3CE
330
3CC
100
AcDbEntity
  8
Layer 1
 62
     7
370
    25
100
AcDbVertex
100
AcDb2dVertex
 10
574.8510442356276
 20
550.3753633606701
 30
0.0
  0
SEQEND
  5
3CF
330
3CC
100
AcDbEntity
  8
Layer 1
370
    25
  0
POLYLINE
  5
3D0
330
3C
100
AcDbEntity
  8
Layer 1
 62
     7
370
    25
100
AcDb2dPolyline
 66
     1
 10
0.0
 20
0.0
 30
0.0
  0
VERTEX
  5
3D1
330
3D0
100
AcDbEntity
  8
Layer 1
 62
     7
370
    25
100
AcDbVertex
100
AcDb2dVertex
 10
574.8510442356276
 20
550.3753633606701
 30
0.0
  0
VERTEX
  5
3D2
330
3D0
100
AcDbEntity
  8
Layer 1
 62
     7
370
    25
100
AcDbVertex
100
AcDb2dVertex
 10
564.2673663953915
 20
550.3753633606701
 30
0.0
  0
SEQEND
  5
3D3
330
3D0
100
AcDbEntity
  8
Layer 1
370
    25
  0
POLYLINE
  5
3D4
330
3C
100
AcDbEntity
  8
Layer 1
 62
     7
370
    25
100
AcDb2dPolyline
 66
     1
 10
0.0
 20
0.0
 30
0.0
  0
VERTEX
  5
3D5
330
3D4
100
AcDbEntity
  8
Layer 1
 62
     7
370
    25
100
AcDbVertex
100
AcDb2dVertex
 10
564.2673663953915
 20
550.3753633606701
 30
0.0
  0
VERTEX
  5
3D6
330
3D4
100
AcDbEntity
  8
Layer 1
 62
     7
370
    25
100
AcDbVertex
100
AcDb2dVertex
 10
558.9756997300477
 20
557.4316079335588
 30
0.0
  0
SEQEND
  5
3D7
330
3D4
100
AcDbEntity
  8
Layer 1
370
    25
  0
POLYLINE
  5
3D8
330
3C
100
AcDbEntity
  8
Layer 1
 62
     7
370
    25
100
AcDb2dPolyline
 66
     1
 10
0.0
 20
0.0
 30
0.0
  0
VERTEX
  5
3D9
330
3D8
100
AcDbEntity
  8
Layer 1
 62
     7
370
    25
100
AcDbVertex
100
AcDb2dVertex
 10
558.9756997300477
 20
557.4316079335588
 30
0.0
  0
VERTEX
  5
3DA
330
3D8
100
AcDbEntity
  8
Layer 1
 62
     7
370
    25
100
AcDbVertex
100
AcDb2dVertex
 10
558.9756997300477
 20
564.4871634873505
 30
0.0
  0
SEQEND
  5
3DB
330
3D8
100
AcDbEntity
  8
Layer 1
370
    25
  0
POLYLINE
  5
3DC
330
3C
100
AcDbEntity
  8
Layer 1
 62
     7
370
    25
100
AcDb2dPolyline
 66
     1
 10
0.0
 20
0.0
 30
0.0
  0
VERTEX
  5
3DD
330
3DC
100
AcDbEntity
  8
Layer 1
 62
     7
370
    25
100
AcDbVertex
100
AcDb2dVertex
 10
558.9756997300477
 20
564.4871634873505
 30
0.0
  0
VERTEX
  5
3DE
330
3DC
100
AcDbEntity
  8
Layer 1
 62
     7
370
    25
100
AcDbVertex
100
AcDb2dVertex
 10
564.2673663953915
 20
571.5423745315936
 30
0.0
  0
SEQEND
  5
3DF
330
3DC
100
AcDbEntity
  8
Layer 1
370
    25
  0
POLYLINE
  5
3E0
330
3C
100
AcDbEntity
  8
Layer 1
 62
     7
370
    25
100
AcDb2dPolyline
 66
     1
 10
0.0
 20
0.0
 30
0.0
  0
VERTEX
  5
3E1
330
3E0
100
AcDbEntity
  8
Layer 1
 62
     7
370
    25
100
AcDbVertex
100
AcDb2dVertex
 10
564.2673663953915
 20
571.5423745315936
 30
0.0
  0
VERTEX
  5
3E2
330
3E0
100
AcDbEntity
  8
Layer 1
 62
     7
370
    25
100
AcDbVertex
100
AcDb2dVertex
 10
574.8510442356276
 20
571.5423745315936
 30
0.0
  0
SEQEND
  5
3E3
330
3E0
100
AcDbEntity
  8
Layer 1
370
    25
  0
POLYLINE
  5
3E4
330
3C
100
AcDbEntity
  8
Layer 1
 62
     7
370
    25
100
AcDb2dPolyline
 66
     1
 10
0.0
 20
0.0
 30
0.0
  0
VERTEX
  5
3E5
330
3E4
100
AcDbEntity
  8
Layer 1
 62
     7
370
    25
100
AcDbVertex
100
AcDb2dVertex
 10
574.8510442356276
 20
571.5423745315936
 30
0.0
  0
VERTEX
  5
3E6
330
3E4
100
AcDbEntity
  8
Layer 1
 62
     7
370
    25
100
AcDbVertex
100
AcDb2dVertex
 10
580.1427109009713
 20
564.4871634873505
 30
0.0
  0
SEQEND
  5
3E7
330
3E4
100
AcDbEntity
  8
Layer 1
370
    25
  0
POLYLINE
  5
3E8
330
3C
100
AcDbEntity
  8
Layer 1
 62
     7
370
    25
100
AcDb2dPolyline
 66
     1
 10
0.0
 20
0.0
 30
0.0
  0
VERTEX
  5
3E9
330
3E8
100
AcDbEntity
  8
Layer 1
 62
     7
370
    25
100
AcDbVertex
100
AcDb2dVertex
 10
580.1427109009713
 20
564.4871634873505
 30
0.0
  0
VERTEX
  5
3EA
330
3E8
100
AcDbEntity
  8
Layer 1
 62
     7
370
    25
100
AcDbVertex
100
AcDb2dVertex
 10
580.1427109009713
 20
557.4316079335588
 30
0.0
  0
SEQEND
  5
3EB
330
3E8
100
AcDbEntity
  8
Layer 1
370
    25
  0
POLYLINE
  5
3EC
330
3C
100
AcDbEntity
  8
Layer 1
 62
     7
370
    25
100
AcDb2dPolyline
 66
     1
 10
0.0
 20
0.0
 30
0.0
  0
VERTEX
  5
3ED
330
3EC
100
AcDbEntity
  8
Layer 1
 62
     7
370
    25
100
AcDbVertex
100
AcDb2dVertex
 10
580.1427109009713
 20
557.4316079335588
 30
0.0
  0
VERTEX
  5
3EE
330
3EC
100
AcDbEntity
  8
Layer 1
 62
     7
370
    25
100
AcDbVertex
100
AcDb2dVertex
 10
574.8510442356276
 20
550.3753633606701
 30
0.0
  0
SEQEND
  5
3EF
330
3EC
100
AcDbEntity
  8
Layer 1
370
    25
  0
POLYLINE
  5
3F0
330
3C
100
AcDbEntity
  8
Layer 1
 62
     7
370
    25
100
AcDb2dPolyline
 66
     1
 10
0.0
 20
0.0
 30
0.0
  0
VERTEX
  5
3F1
330
3F0
100
AcDbEntity
  8
Layer 1
 62
     7
370
    25
100
AcDbVertex
100
AcDb2dVertex
 10
564.2673663953915
 20
550.3753633606701
 30
0.0
  0
VERTEX
  5
3F2
330
3F0
100
AcDbEntity
  8
Layer 1
 62
     7
370
    25
100
AcDbVertex
100
AcDb2dVertex
 10
558.9756997300477
 20
543.320152316427
 30
0.0
  0
SEQEND
  5
3F3
330
3F0
100
AcDbEntity
  8
Layer 1
370
    25
  0
POLYLINE
  5
3F4
330
3C
100
AcDbEntity
  8
Layer 1
 62
     7
370
    25
100
AcDb2dPolyline
 66
     1
 10
0.0
 20
0.0
 30
0.0
  0
VERTEX
  5
3F5
330
3F4
100
AcDbEntity
  8
Layer 1
 62
     7
370
    25
100
AcDbVertex
100
AcDb2dVertex
 10
558.9756997300477
 20
543.320152316427
 30
0.0
  0
VERTEX
  5
3F6
330
3F4
100
AcDbEntity
  8
Layer 1
 62
     7
370
    25
100
AcDbVertex
100
AcDb2dVertex
 10
558.9756997300477
 20
536.2649412721838
 30
0.0
  0
SEQEND
  5
3F7
330
3F4
100
AcDbEntity
  8
Layer 1
370
    25
  0
POLYLINE
  5
3F8
330
3C
100
AcDbEntity
  8
Layer 1
 62
     7
370
    25
100
AcDb2dPolyline
 66
     1
 10
0.0
 20
0.0
 30
0.0
  0
VERTEX
  5
3F9
330
3F8
100
AcDbEntity
  8
Layer 1
 62
     7
370
    25
100
AcDbVertex
100
AcDb2dVertex
 10
558.9756997300477
 20
536.2649412721838
 30
0.0
  0
VERTEX
  5
3FA
330
3F8
100
AcDbEntity
  8
Layer 1
 62
     7
370
    25
100
AcDbVertex
100
AcDb2dVertex
 10
564.2673663953915
 20
529.2093857183921
 30
0.0
  0
SEQEND
  5
3FB
330
3F8
100
AcDbEntity
  8
Layer 1
370
    25
  0
POLYLINE
  5
3FC
330
3C
100
AcDbEntity
  8
Layer 1
370
     0
100
AcDb2dPolyline
 66
     1
 10
0.0
 20
0.0
 30
0.0
  0
VERTEX
  5
3FD
330
3FC
100
AcDbEntity
  8
Layer 1
370
     0
100
AcDbVertex
100
AcDb2dVertex
 10
632.8585284876187
 20
1237.063681060092
 30
0.0
  0
VERTEX
  5
3FE
330
3FC
100
AcDbEntity
  8
Layer 1
370
     0
100
AcDbVertex
100
AcDb2dVertex
 10
602.8586370020631
 20
1232.0634694728
 30
0.0
  0
VERTEX
  5
3FF
330
3FC
100
AcDbEntity
  8
Layer 1
370
     0
100
AcDbVertex
100
AcDb2dVertex
 10
602.8586370020631
 20
1242.063720392609
 30
0.0
  0
SEQEND
  5
400
330
3FC
100
AcDbEntity
  8
Layer 1
370
     0
  0
HATCH
  5
401
330
3C
100
AcDbEntity
  8
Layer 1
 62
     7
100
AcDbHatch
 10
0.0
 20
0.0
 30
0.0
210
0.0
220
0.0
230
1.0
  2
SOLID
 70
     1
 71
     0
 91
        1
 92
        1
 93
        3
 72
     1
 10
632.8585284876187
 20
1237.063681060092
 11
602.8586370020631
 21
1232.0634694728
 72
     1
 10
602.8586370020631
 20
1232.0634694728
 11
602.8586370020631
 21
1242.063720392609
 72
     1
 10
602.8586370020631
 20
1242.063720392609
 11
632.8585284876187
 21
1237.063681060092
 97
        0
 75
     2
 76
     1
 98
        0
  0
POLYLINE
  5
402
330
3C
100
AcDbEntity
  8
Layer 1
370
     0
100
AcDb2dPolyline
 66
     1
 10
0.0
 20
0.0
 30
0.0
  0
VERTEX
  5
403
330
402
100
AcDbEntity
  8
Layer 1
370
     0
100
AcDbVertex
100
AcDb2dVertex
 10
672.9081080131966
 20
1237.063681060092
 30
0.0
  0
VERTEX
  5
404
330
402
100
AcDbEntity
  8
Layer 1
370
     0
100
AcDbVertex
100
AcDb2dVertex
 10
702.9079994987522
 20
1242.063720392609
 30
0.0
  0
VERTEX
  5
405
330
402
100
AcDbEntity
  8
Layer 1
370
     0
100
AcDbVertex
100
AcDb2dVertex
 10
702.9079994987522
 20
1232.0634694728
 30
0.0
  0
SEQEND
  5
406
330
402
100
AcDbEntity
  8
Layer 1
370
     0
  0
HATCH
  5
407
330
3C
100
AcDbEntity
  8
Layer 1
 62
     7
100
AcDbHatch
 10
0.0
 20
0.0
 30
0.0
210
0.0
220
0.0
230
1.0
  2
SOLID
 70
     1
 71
     0
 91
        1
 92
        1
 93
        3
 72
     1
 10
672.9081080131966
 20
1237.063681060092
 11
702.9079994987522
 21
1242.063720392609
 72
     1
 10
702.9079994987522
 20
1242.063720392609
 11
702.9079994987522
 21
1232.0634694728
 72
     1
 10
702.9079994987522
 20
1232.0634694728
 11
672.9081080131966
 21
1237.063681060092
 97
        0
 75
     2
 76
     1
 98
        0
  0
POLYLINE
  5
408
330
3C
100
AcDbEntity
  8
Layer 1
 62
     7
370
    25
100
AcDb2dPolyline
 66
     1
 10
0.0
 20
0.0
 30
0.0
  0
VERTEX
  5
409
330
408
100
AcDbEntity
  8
Layer 1
 62
     7
370
    25
100
AcDbVertex
100
AcDb2dVertex
 10
632.8585284876187
 20
1176.311144725453
 30
0.0
  0
VERTEX
  5
40A
330
408
100
AcDbEntity
  8
Layer 1
 62
     7
370
    25
100
AcDbVertex
100
AcDb2dVertex
 10
632.8585284876187
 20
1247.063587470352
 30
0.0
  0
SEQEND
  5
40B
330
408
100
AcDbEntity
  8
Layer 1
370
    25
  0
POLYLINE
  5
40C
330
3C
100
AcDbEntity
  8
Layer 1
 62
     7
370
    25
100
AcDb2dPolyline
 66
     1
 10
0.0
 20
0.0
 30
0.0
  0
VERTEX
  5
40D
330
40C
100
AcDbEntity
  8
Layer 1
 62
     7
370
    25
100
AcDbVertex
100
AcDb2dVertex
 10
672.9081080131966
 20
1178.702040992217
 30
0.0
  0
VERTEX
  5
40E
330
40C
100
AcDbEntity
  8
Layer 1
 62
     7
370
    25
100
AcDbVertex
100
AcDb2dVertex
 10
672.9081080131966
 20
1247.063587470352
 30
0.0
  0
SEQEND
  5
40F
330
40C
100
AcDbEntity
  8
Layer 1
370
    25
  0
POLYLINE
  5
410
330
3C
100
AcDbEntity
  8
Layer 1
 62
     7
370
    25
100
AcDb2dPolyline
 66
     1
 10
0.0
 20
0.0
 30
0.0
  0
VERTEX
  5
411
330
410
100
AcDbEntity
  8
Layer 1
 62
     7
370
    25
100
AcDbVertex
100
AcDb2dVertex
 10
632.8585284876187
 20
1237.063681060092
 30
0.0
  0
VERTEX
  5
412
330
410
100
AcDbEntity
  8
Layer 1
 62
     7
370
    25
100
AcDbVertex
100
AcDb2dVertex
 10
572.8584010069591
 20
1237.063681060092
 30
0.0
  0
SEQEND
  5
413
330
410
100
AcDbEntity
  8
Layer 1
370
    25
  0
POLYLINE
  5
414
330
3C
100
AcDbEntity
  8
Layer 1
 62
     7
370
    25
100
AcDb2dPolyline
 66
     1
 10
0.0
 20
0.0
 30
0.0
  0
VERTEX
  5
415
330
414
100
AcDbEntity
  8
Layer 1
 62
     7
370
    25
100
AcDbVertex
100
AcDb2dVertex
 10
632.8585284876187
 20
1237.063681060092
 30
0.0
  0
VERTEX
  5
416
330
414
100
AcDbEntity
  8
Layer 1
 62
     7
370
    25
100
AcDbVertex
100
AcDb2dVertex
 10
672.9081080131966
 20
1237.063681060092
 30
0.0
  0
SEQEND
  5
417
330
414
100
AcDbEntity
  8
Layer 1
370
    25
  0
POLYLINE
  5
418
330
3C
100
AcDbEntity
  8
Layer 1
 62
     7
370
    25
100
AcDb2dPolyline
 66
     1
 10
0.0
 20
0.0
 30
0.0
  0
VERTEX
  5
419
330
418
100
AcDbEntity
  8
Layer 1
 62
     7
370
    25
100
AcDbVertex
100
AcDb2dVertex
 10
672.9081080131966
 20
1237.063681060092
 30
0.0
  0
VERTEX
  5
41A
330
418
100
AcDbEntity
  8
Layer 1
 62
     7
370
    25
100
AcDbVertex
100
AcDb2dVertex
 10
801.5696775339826
 20
1237.063681060092
 30
0.0
  0
SEQEND
  5
41B
330
418
100
AcDbEntity
  8
Layer 1
370
    25
  0
POLYLINE
  5
41C
330
3C
100
AcDbEntity
  8
Layer 1
 62
     7
370
    25
100
AcDb2dPolyline
 66
     1
 10
0.0
 20
0.0
 30
0.0
  0
VERTEX
  5
41D
330
41C
100
AcDbEntity
  8
Layer 1
 62
     7
370
    25
100
AcDbVertex
100
AcDb2dVertex
 10
720.5482664214254
 20
1249.300832478473
 30
0.0
  0
VERTEX
  5
41E
330
41C
100
AcDbEntity
  8
Layer 1
 62
     7
370
    25
100
AcDbVertex
100
AcDb2dVertex
 10
720.5482664214254
 20
1291.634338055998
 30
0.0
  0
SEQEND
  5
41F
330
41C
100
AcDbEntity
  8
Layer 1
370
    25
  0
POLYLINE
  5
420
330
3C
100
AcDbEntity
  8
Layer 1
 62
     7
370
    25
100
AcDb2dPolyline
 66
     1
 10
0.0
 20
0.0
 30
0.0
  0
VERTEX
  5
421
330
420
100
AcDbEntity
  8
Layer 1
 62
     7
370
    25
100
AcDbVertex
100
AcDb2dVertex
 10
720.5482664214254
 20
1291.634338055998
 30
0.0
  0
VERTEX
  5
422
330
420
100
AcDbEntity
  8
Layer 1
 62
     7
370
    25
100
AcDbVertex
100
AcDb2dVertex
 10
704.6732664253942
 20
1263.411943586057
 30
0.0
  0
SEQEND
  5
423
330
420
100
AcDbEntity
  8
Layer 1
370
    25
  0
POLYLINE
  5
424
330
3C
100
AcDbEntity
  8
Layer 1
 62
     7
370
    25
100
AcDb2dPolyline
 66
     1
 10
0.0
 20
0.0
 30
0.0
  0
VERTEX
  5
425
330
424
100
AcDbEntity
  8
Layer 1
 62
     7
370
    25
100
AcDbVertex
100
AcDb2dVertex
 10
704.6732664253942
 20
1263.411943586057
 30
0.0
  0
VERTEX
  5
426
330
424
100
AcDbEntity
  8
Layer 1
 62
     7
370
    25
100
AcDbVertex
100
AcDb2dVertex
 10
725.8402775963177
 20
1263.411943586057
 30
0.0
  0
SEQEND
  5
427
330
424
100
AcDbEntity
  8
Layer 1
370
    25
  0
POLYLINE
  5
428
330
3C
100
AcDbEntity
  8
Layer 1
 62
     7
370
    25
100
AcDb2dPolyline
 66
     1
 10
0.0
 20
0.0
 30
0.0
  0
VERTEX
  5
429
330
428
100
AcDbEntity
  8
Layer 1
 62
     7
370
    25
100
AcDbVertex
100
AcDb2dVertex
 10
741.715277592349
 20
1249.300832478473
 30
0.0
  0
VERTEX
  5
42A
330
428
100
AcDbEntity
  8
Layer 1
 62
     7
370
    25
100
AcDbVertex
100
AcDb2dVertex
 10
736.4236109270053
 20
1256.356215777491
 30
0.0
  0
SEQEND
  5
42B
330
428
100
AcDbEntity
  8
Layer 1
370
    25
  0
POLYLINE
  5
42C
330
3C
100
AcDbEntity
  8
Layer 1
 62
     7
370
    25
100
AcDb2dPolyline
 66
     1
 10
0.0
 20
0.0
 30
0.0
  0
VERTEX
  5
42D
330
42C
100
AcDbEntity
  8
Layer 1
 62
     7
370
    25
100
AcDbVertex
100
AcDb2dVertex
 10
736.4236109270053
 20
1256.356215777491
 30
0.0
  0
VERTEX
  5
42E
330
42C
100
AcDbEntity
  8
Layer 1
 62
     7
370
    25
100
AcDbVertex
100
AcDb2dVertex
 10
736.4236109270053
 20
1284.578437992657
 30
0.0
  0
SEQEND
  5
42F
330
42C
100
AcDbEntity
  8
Layer 1
370
    25
  0
POLYLINE
  5
430
330
3C
100
AcDbEntity
  8
Layer 1
 62
     7
370
    25
100
AcDb2dPolyline
 66
     1
 10
0.0
 20
0.0
 30
0.0
  0
VERTEX
  5
431
330
430
100
AcDbEntity
  8
Layer 1
 62
     7
370
    25
100
AcDbVertex
100
AcDb2dVertex
 10
736.4236109270053
 20
1284.578437992657
 30
0.0
  0
VERTEX
  5
432
330
430
100
AcDbEntity
  8
Layer 1
 62
     7
370
    25
100
AcDbVertex
100
AcDb2dVertex
 10
741.715277592349
 20
1291.634338055998
 30
0.0
  0
SEQEND
  5
433
330
430
100
AcDbEntity
  8
Layer 1
370
    25
  0
POLYLINE
  5
434
330
3C
100
AcDbEntity
  8
Layer 1
 62
     7
370
    25
100
AcDb2dPolyline
 66
     1
 10
0.0
 20
0.0
 30
0.0
  0
VERTEX
  5
435
330
434
100
AcDbEntity
  8
Layer 1
 62
     7
370
    25
100
AcDbVertex
100
AcDb2dVertex
 10
741.715277592349
 20
1291.634338055998
 30
0.0
  0
VERTEX
  5
436
330
434
100
AcDbEntity
  8
Layer 1
 62
     7
370
    25
100
AcDbVertex
100
AcDb2dVertex
 10
747.0069442576928
 20
1291.634338055998
 30
0.0
  0
SEQEND
  5
437
330
434
100
AcDbEntity
  8
Layer 1
370
    25
  0
POLYLINE
  5
438
330
3C
100
AcDbEntity
  8
Layer 1
 62
     7
370
    25
100
AcDb2dPolyline
 66
     1
 10
0.0
 20
0.0
 30
0.0
  0
VERTEX
  5
439
330
438
100
AcDbEntity
  8
Layer 1
 62
     7
370
    25
100
AcDbVertex
100
AcDb2dVertex
 10
747.0069442576928
 20
1291.634338055998
 30
0.0
  0
VERTEX
  5
43A
330
438
100
AcDbEntity
  8
Layer 1
 62
     7
370
    25
100
AcDbVertex
100
AcDb2dVertex
 10
752.2986109230364
 20
1284.578437992657
 30
0.0
  0
SEQEND
  5
43B
330
438
100
AcDbEntity
  8
Layer 1
370
    25
  0
POLYLINE
  5
43C
330
3C
100
AcDbEntity
  8
Layer 1
 62
     7
370
    25
100
AcDb2dPolyline
 66
     1
 10
0.0
 20
0.0
 30
0.0
  0
VERTEX
  5
43D
330
43C
100
AcDbEntity
  8
Layer 1
 62
     7
370
    25
100
AcDbVertex
100
AcDb2dVertex
 10
752.2986109230364
 20
1284.578437992657
 30
0.0
  0
VERTEX
  5
43E
330
43C
100
AcDbEntity
  8
Layer 1
 62
     7
370
    25
100
AcDbVertex
100
AcDb2dVertex
 10
752.2986109230364
 20
1256.356215777491
 30
0.0
  0
SEQEND
  5
43F
330
43C
100
AcDbEntity
  8
Layer 1
370
    25
  0
POLYLINE
  5
440
330
3C
100
AcDbEntity
  8
Layer 1
 62
     7
370
    25
100
AcDb2dPolyline
 66
     1
 10
0.0
 20
0.0
 30
0.0
  0
VERTEX
  5
441
330
440
100
AcDbEntity
  8
Layer 1
 62
     7
370
    25
100
AcDbVertex
100
AcDb2dVertex
 10
752.2986109230364
 20
1256.356215777491
 30
0.0
  0
VERTEX
  5
442
330
440
100
AcDbEntity
  8
Layer 1
 62
     7
370
    25
100
AcDbVertex
100
AcDb2dVertex
 10
747.0069442576928
 20
1249.300832478473
 30
0.0
  0
SEQEND
  5
443
330
440
100
AcDbEntity
  8
Layer 1
370
    25
  0
POLYLINE
  5
444
330
3C
100
AcDbEntity
  8
Layer 1
 62
     7
370
    25
100
AcDb2dPolyline
 66
     1
 10
0.0
 20
0.0
 30
0.0
  0
VERTEX
  5
445
330
444
100
AcDbEntity
  8
Layer 1
 62
     7
370
    25
100
AcDbVertex
100
AcDb2dVertex
 10
747.0069442576928
 20
1249.300832478473
 30
0.0
  0
VERTEX
  5
446
330
444
100
AcDbEntity
  8
Layer 1
 62
     7
370
    25
100
AcDbVertex
100
AcDb2dVertex
 10
741.715277592349
 20
1249.300832478473
 30
0.0
  0
SEQEND
  5
447
330
444
100
AcDbEntity
  8
Layer 1
370
    25
  0
POLYLINE
  5
448
330
3C
100
AcDbEntity
  8
Layer 1
370
     0
100
AcDb2dPolyline
 66
     1
 10
0.0
 20
0.0
 30
0.0
  0
VERTEX
  5
449
330
448
100
AcDbEntity
  8
Layer 1
370
     0
100
AcDbVertex
100
AcDb2dVertex
 10
252.9609591381487
 20
1237.063681060092
 30
0.0
  0
VERTEX
  5
44A
330
448
100
AcDbEntity
  8
Layer 1
370
     0
100
AcDbVertex
100
AcDb2dVertex
 10
282.9610228784785
 20
1242.063720392609
 30
0.0
  0
VERTEX
  5
44B
330
448
100
AcDbEntity
  8
Layer 1
370
     0
100
AcDbVertex
100
AcDb2dVertex
 10
282.9610228784785
 20
1232.0634694728
 30
0.0
  0
SEQEND
  5
44C
330
448
100
AcDbEntity
  8
Layer 1
370
     0
  0
HATCH
  5
44D
330
3C
100
AcDbEntity
  8
Layer 1
 62
     7
100
AcDbHatch
 10
0.0
 20
0.0
 30
0.0
210
0.0
220
0.0
230
1.0
  2
SOLID
 70
     1
 71
     0
 91
        1
 92
        1
 93
        3
 72
     1
 10
252.9609591381487
 20
1237.063681060092
 11
282.9610228784785
 21
1242.063720392609
 72
     1
 10
282.9610228784785
 20
1242.063720392609
 11
282.9610228784785
 21
1232.0634694728
 72
     1
 10
282.9610228784785
 20
1232.0634694728
 11
252.9609591381487
 21
1237.063681060092
 97
        0
 75
     2
 76
     1
 98
        0
  0
POLYLINE
  5
44E
330
3C
100
AcDbEntity
  8
Layer 1
370
     0
100
AcDb2dPolyline
 66
     1
 10
0.0
 20
0.0
 30
0.0
  0
VERTEX
  5
44F
330
44E
100
AcDbEntity
  8
Layer 1
370
     0
100
AcDbVertex
100
AcDb2dVertex
 10
212.9112073577965
 20
1237.063681060092
 30
0.0
  0
VERTEX
  5
450
330
44E
100
AcDbEntity
  8
Layer 1
370
     0
100
AcDbVertex
100
AcDb2dVertex
 10
182.9111436174667
 20
1232.0634694728
 30
0.0
  0
VERTEX
  5
451
330
44E
100
AcDbEntity
  8
Layer 1
370
     0
100
AcDbVertex
100
AcDb2dVertex
 10
182.9111436174667
 20
1242.063720392609
 30
0.0
  0
SEQEND
  5
452
330
44E
100
AcDbEntity
  8
Layer 1
370
     0
  0
HATCH
  5
453
330
3C
100
AcDbEntity
  8
Layer 1
 62
     7
100
AcDbHatch
 10
0.0
 20
0.0
 30
0.0
210
0.0
220
0.0
230
1.0
  2
SOLID
 70
     1
 71
     0
 91
        1
 92
        1
 93
        3
 72
     1
 10
212.9112073577965
 20
1237.063681060092
 11
182.9111436174667
 21
1232.0634694728
 72
     1
 10
182.9111436174667
 20
1232.0634694728
 11
182.9111436174667
 21
1242.063720392609
 72
     1
 10
182.9111436174667
 20
1242.063720392609
 11
212.9112073577965
 21
1237.063681060092
 97
        0
 75
     2
 76
     1
 98
        0
  0
POLYLINE
  5
454
330
3C
100
AcDbEntity
  8
Layer 1
 62
     7
370
    25
100
AcDb2dPolyline
 66
     1
 10
0.0
 20
0.0
 30
0.0
  0
VERTEX
  5
455
330
454
100
AcDbEntity
  8
Layer 1
 62
     7
370
    25
100
AcDbVertex
100
AcDb2dVertex
 10
252.9609591381487
 20
1183.461268150315
 30
0.0
  0
VERTEX
  5
456
330
454
100
AcDbEntity
  8
Layer 1
 62
     7
370
    25
100
AcDbVertex
100
AcDb2dVertex
 10
252.9609591381487
 20
1247.063587470352
 30
0.0
  0
SEQEND
  5
457
330
454
100
AcDbEntity
  8
Layer 1
370
    25
  0
POLYLINE
  5
458
330
3C
100
AcDbEntity
  8
Layer 1
 62
     7
370
    25
100
AcDb2dPolyline
 66
     1
 10
0.0
 20
0.0
 30
0.0
  0
VERTEX
  5
459
330
458
100
AcDbEntity
  8
Layer 1
 62
     7
370
    25
100
AcDbVertex
100
AcDb2dVertex
 10
212.9112073577965
 20
1178.722883819903
 30
0.0
  0
VERTEX
  5
45A
330
458
100
AcDbEntity
  8
Layer 1
 62
     7
370
    25
100
AcDbVertex
100
AcDb2dVertex
 10
212.9112073577965
 20
1247.063587470352
 30
0.0
  0
SEQEND
  5
45B
330
458
100
AcDbEntity
  8
Layer 1
370
    25
  0
POLYLINE
  5
45C
330
3C
100
AcDbEntity
  8
Layer 1
 62
     7
370
    25
100
AcDb2dPolyline
 66
     1
 10
0.0
 20
0.0
 30
0.0
  0
VERTEX
  5
45D
330
45C
100
AcDbEntity
  8
Layer 1
 62
     7
370
    25
100
AcDbVertex
100
AcDb2dVertex
 10
252.9609591381487
 20
1237.063681060092
 30
0.0
  0
VERTEX
  5
45E
330
45C
100
AcDbEntity
  8
Layer 1
 62
     7
370
    25
100
AcDbVertex
100
AcDb2dVertex
 10
312.9610866188083
 20
1237.063681060092
 30
0.0
  0
SEQEND
  5
45F
330
45C
100
AcDbEntity
  8
Layer 1
370
    25
  0
POLYLINE
  5
460
330
3C
100
AcDbEntity
  8
Layer 1
 62
     7
370
    25
100
AcDb2dPolyline
 66
     1
 10
0.0
 20
0.0
 30
0.0
  0
VERTEX
  5
461
330
460
100
AcDbEntity
  8
Layer 1
 62
     7
370
    25
100
AcDbVertex
100
AcDb2dVertex
 10
252.9609591381487
 20
1237.063681060092
 30
0.0
  0
VERTEX
  5
462
330
460
100
AcDbEntity
  8
Layer 1
 62
     7
370
    25
100
AcDbVertex
100
AcDb2dVertex
 10
212.9112073577965
 20
1237.063681060092
 30
0.0
  0
SEQEND
  5
463
330
460
100
AcDbEntity
  8
Layer 1
370
    25
  0
POLYLINE
  5
464
330
3C
100
AcDbEntity
  8
Layer 1
 62
     7
370
    25
100
AcDb2dPolyline
 66
     1
 10
0.0
 20
0.0
 30
0.0
  0
VERTEX
  5
465
330
464
100
AcDbEntity
  8
Layer 1
 62
     7
370
    25
100
AcDbVertex
100
AcDb2dVertex
 10
212.9112073577965
 20
1237.063681060092
 30
0.0
  0
VERTEX
  5
466
330
464
100
AcDbEntity
  8
Layer 1
 62
     7
370
    25
100
AcDbVertex
100
AcDb2dVertex
 10
86.30084768892826
 20
1237.063681060092
 30
0.0
  0
SEQEND
  5
467
330
464
100
AcDbEntity
  8
Layer 1
370
    25
  0
POLYLINE
  5
468
330
3C
100
AcDbEntity
  8
Layer 1
 62
     7
370
    25
100
AcDb2dPolyline
 66
     1
 10
0.0
 20
0.0
 30
0.0
  0
VERTEX
  5
469
330
468
100
AcDbEntity
  8
Layer 1
 62
     7
370
    25
100
AcDbVertex
100
AcDb2dVertex
 10
102.1756754301853
 20
1249.300832478473
 30
0.0
  0
VERTEX
  5
46A
330
468
100
AcDbEntity
  8
Layer 1
 62
     7
370
    25
100
AcDbVertex
100
AcDb2dVertex
 10
102.1756754301853
 20
1291.634338055998
 30
0.0
  0
SEQEND
  5
46B
330
468
100
AcDbEntity
  8
Layer 1
370
    25
  0
POLYLINE
  5
46C
330
3C
100
AcDbEntity
  8
Layer 1
 62
     7
370
    25
100
AcDb2dPolyline
 66
     1
 10
0.0
 20
0.0
 30
0.0
  0
VERTEX
  5
46D
330
46C
100
AcDbEntity
  8
Layer 1
 62
     7
370
    25
100
AcDbVertex
100
AcDb2dVertex
 10
102.1756754301853
 20
1291.634338055998
 30
0.0
  0
VERTEX
  5
46E
330
46C
100
AcDbEntity
  8
Layer 1
 62
     7
370
    25
100
AcDbVertex
100
AcDb2dVertex
 10
86.30084768892826
 20
1263.411943586057
 30
0.0
  0
SEQEND
  5
46F
330
46C
100
AcDbEntity
  8
Layer 1
370
    25
  0
POLYLINE
  5
470
330
3C
100
AcDbEntity
  8
Layer 1
 62
     7
370
    25
100
AcDb2dPolyline
 66
     1
 10
0.0
 20
0.0
 30
0.0
  0
VERTEX
  5
471
330
470
100
AcDbEntity
  8
Layer 1
 62
     7
370
    25
100
AcDbVertex
100
AcDb2dVertex
 10
86.30084768892826
 20
1263.411943586057
 30
0.0
  0
VERTEX
  5
472
330
470
100
AcDbEntity
  8
Layer 1
 62
     7
370
    25
100
AcDbVertex
100
AcDb2dVertex
 10
107.467342095529
 20
1263.411943586057
 30
0.0
  0
SEQEND
  5
473
330
470
100
AcDbEntity
  8
Layer 1
370
    25
  0
POLYLINE
  5
474
330
3C
100
AcDbEntity
  8
Layer 1
 62
     7
370
    25
100
AcDb2dPolyline
 66
     1
 10
0.0
 20
0.0
 30
0.0
  0
VERTEX
  5
475
330
474
100
AcDbEntity
  8
Layer 1
 62
     7
370
    25
100
AcDbVertex
100
AcDb2dVertex
 10
123.3425143463345
 20
1249.300832478473
 30
0.0
  0
VERTEX
  5
476
330
474
100
AcDbEntity
  8
Layer 1
 62
     7
370
    25
100
AcDbVertex
100
AcDb2dVertex
 10
118.0506754262165
 20
1256.356215777491
 30
0.0
  0
SEQEND
  5
477
330
474
100
AcDbEntity
  8
Layer 1
370
    25
  0
POLYLINE
  5
478
330
3C
100
AcDbEntity
  8
Layer 1
 62
     7
370
    25
100
AcDb2dPolyline
 66
     1
 10
0.0
 20
0.0
 30
0.0
  0
VERTEX
  5
479
330
478
100
AcDbEntity
  8
Layer 1
 62
     7
370
    25
100
AcDbVertex
100
AcDb2dVertex
 10
118.0506754262165
 20
1256.356215777491
 30
0.0
  0
VERTEX
  5
47A
330
478
100
AcDbEntity
  8
Layer 1
 62
     7
370
    25
100
AcDbVertex
100
AcDb2dVertex
 10
118.0506754262165
 20
1284.578437992657
 30
0.0
  0
SEQEND
  5
47B
330
478
100
AcDbEntity
  8
Layer 1
370
    25
  0
POLYLINE
  5
47C
330
3C
100
AcDbEntity
  8
Layer 1
 62
     7
370
    25
100
AcDb2dPolyline
 66
     1
 10
0.0
 20
0.0
 30
0.0
  0
VERTEX
  5
47D
330
47C
100
AcDbEntity
  8
Layer 1
 62
     7
370
    25
100
AcDbVertex
100
AcDb2dVertex
 10
118.0506754262165
 20
1284.578437992657
 30
0.0
  0
VERTEX
  5
47E
330
47C
100
AcDbEntity
  8
Layer 1
 62
     7
370
    25
100
AcDbVertex
100
AcDb2dVertex
 10
123.3425143463345
 20
1291.634338055998
 30
0.0
  0
SEQEND
  5
47F
330
47C
100
AcDbEntity
  8
Layer 1
370
    25
  0
POLYLINE
  5
480
330
3C
100
AcDbEntity
  8
Layer 1
 62
     7
370
    25
100
AcDb2dPolyline
 66
     1
 10
0.0
 20
0.0
 30
0.0
  0
VERTEX
  5
481
330
480
100
AcDbEntity
  8
Layer 1
 62
     7
370
    25
100
AcDbVertex
100
AcDb2dVertex
 10
123.3425143463345
 20
1291.634338055998
 30
0.0
  0
VERTEX
  5
482
330
480
100
AcDbEntity
  8
Layer 1
 62
     7
370
    25
100
AcDbVertex
100
AcDb2dVertex
 10
128.6341810116783
 20
1291.634338055998
 30
0.0
  0
SEQEND
  5
483
330
480
100
AcDbEntity
  8
Layer 1
370
    25
  0
POLYLINE
  5
484
330
3C
100
AcDbEntity
  8
Layer 1
 62
     7
370
    25
100
AcDb2dPolyline
 66
     1
 10
0.0
 20
0.0
 30
0.0
  0
VERTEX
  5
485
330
484
100
AcDbEntity
  8
Layer 1
 62
     7
370
    25
100
AcDbVertex
100
AcDb2dVertex
 10
128.6341810116783
 20
1291.634338055998
 30
0.0
  0
VERTEX
  5
486
330
484
100
AcDbEntity
  8
Layer 1
 62
     7
370
    25
100
AcDbVertex
100
AcDb2dVertex
 10
133.9255031674735
 20
1284.578437992657
 30
0.0
  0
SEQEND
  5
487
330
484
100
AcDbEntity
  8
Layer 1
370
    25
  0
POLYLINE
  5
488
330
3C
100
AcDbEntity
  8
Layer 1
 62
     7
370
    25
100
AcDb2dPolyline
 66
     1
 10
0.0
 20
0.0
 30
0.0
  0
VERTEX
  5
489
330
488
100
AcDbEntity
  8
Layer 1
 62
     7
370
    25
100
AcDbVertex
100
AcDb2dVertex
 10
133.9255031674735
 20
1284.578437992657
 30
0.0
  0
VERTEX
  5
48A
330
488
100
AcDbEntity
  8
Layer 1
 62
     7
370
    25
100
AcDbVertex
100
AcDb2dVertex
 10
133.9255031674735
 20
1256.356215777491
 30
0.0
  0
SEQEND
  5
48B
330
488
100
AcDbEntity
  8
Layer 1
370
    25
  0
POLYLINE
  5
48C
330
3C
100
AcDbEntity
  8
Layer 1
 62
     7
370
    25
100
AcDb2dPolyline
 66
     1
 10
0.0
 20
0.0
 30
0.0
  0
VERTEX
  5
48D
330
48C
100
AcDbEntity
  8
Layer 1
 62
     7
370
    25
100
AcDbVertex
100
AcDb2dVertex
 10
133.9255031674735
 20
1256.356215777491
 30
0.0
  0
VERTEX
  5
48E
330
48C
100
AcDbEntity
  8
Layer 1
 62
     7
370
    25
100
AcDbVertex
100
AcDb2dVertex
 10
128.6341810116783
 20
1249.300832478473
 30
0.0
  0
SEQEND
  5
48F
330
48C
100
AcDbEntity
  8
Layer 1
370
    25
  0
POLYLINE
  5
490
330
3C
100
AcDbEntity
  8
Layer 1
 62
     7
370
    25
100
AcDb2dPolyline
 66
     1
 10
0.0
 20
0.0
 30
0.0
  0
VERTEX
  5
491
330
490
100
AcDbEntity
  8
Layer 1
 62
     7
370
    25
100
AcDbVertex
100
AcDb2dVertex
 10
128.6341810116783
 20
1249.300832478473
 30
0.0
  0
VERTEX
  5
492
330
490
100
AcDbEntity
  8
Layer 1
 62
     7
370
    25
100
AcDbVertex
100
AcDb2dVertex
 10
123.3425143463345
 20
1249.300832478473
 30
0.0
  0
SEQEND
  5
493
330
490
100
AcDbEntity
  8
Layer 1
370
    25
  0
POLYLINE
  5
494
330
3C
100
AcDbEntity
  8
Layer 1
 62
     7
370
    15
100
AcDb2dPolyline
 66
     1
 10
0.0
 20
0.0
 30
0.0
  0
VERTEX
  5
495
330
494
100
AcDbEntity
  8
Layer 1
 62
     7
370
    15
100
AcDbVertex
100
AcDb2dVertex
 10
387.0783541241506
 20
187.3746093281564
 30
0.0
  0
VERTEX
  5
496
330
494
100
AcDbEntity
  8
Layer 1
 62
     7
370
    15
100
AcDbVertex
100
AcDb2dVertex
 10
389.0225937612513
 20
185.4305419458299
 30
0.0
  0
SEQEND
  5
497
330
494
100
AcDbEntity
  8
Layer 1
370
    15
  0
POLYLINE
  5
498
330
3C
100
AcDbEntity
  8
Layer 1
 62
     7
370
    15
100
AcDb2dPolyline
 66
     1
 10
0.0
 20
0.0
 30
0.0
  0
VERTEX
  5
499
330
498
100
AcDbEntity
  8
Layer 1
 62
     7
370
    15
100
AcDbVertex
100
AcDb2dVertex
 10
499.7968830130716
 20
185.4305419458299
 30
0.0
  0
VERTEX
  5
49A
330
498
100
AcDbEntity
  8
Layer 1
 62
     7
370
    15
100
AcDbVertex
100
AcDb2dVertex
 10
501.7409503953981
 20
187.3746093281564
 30
0.0
  0
SEQEND
  5
49B
330
498
100
AcDbEntity
  8
Layer 1
370
    15
  0
POLYLINE
  5
49C
330
3C
100
AcDbEntity
  8
Layer 1
 62
     7
370
    15
100
AcDb2dPolyline
 66
     1
 10
0.0
 20
0.0
 30
0.0
  0
VERTEX
  5
49D
330
49C
100
AcDbEntity
  8
Layer 1
 62
     7
370
    15
100
AcDbVertex
100
AcDb2dVertex
 10
389.0225937612513
 20
185.4305419458299
 30
0.0
  0
VERTEX
  5
49E
330
49C
100
AcDbEntity
  8
Layer 1
 62
     7
370
    15
100
AcDbVertex
100
AcDb2dVertex
 10
399.4097289040538
 20
183.5987846763225
 30
0.0
  0
SEQEND
  5
49F
330
49C
100
AcDbEntity
  8
Layer 1
370
    15
  0
POLYLINE
  5
4A0
330
3C
100
AcDbEntity
  8
Layer 1
 62
     7
370
    15
100
AcDb2dPolyline
 66
     1
 10
0.0
 20
0.0
 30
0.0
  0
VERTEX
  5
4A1
330
4A0
100
AcDbEntity
  8
Layer 1
 62
     7
370
    15
100
AcDbVertex
100
AcDb2dVertex
 10
489.4095756154949
 20
183.5987846763225
 30
0.0
  0
VERTEX
  5
4A2
330
4A0
100
AcDbEntity
  8
Layer 1
 62
     7
370
    15
100
AcDbVertex
100
AcDb2dVertex
 10
499.7968830130716
 20
185.4305419458299
 30
0.0
  0
SEQEND
  5
4A3
330
4A0
100
AcDbEntity
  8
Layer 1
370
    15
  0
POLYLINE
  5
4A4
330
3C
100
AcDbEntity
  8
Layer 1
 62
     7
370
    15
100
AcDb2dPolyline
 66
     1
 10
0.0
 20
0.0
 30
0.0
  0
VERTEX
  5
4A5
330
4A4
100
AcDbEntity
  8
Layer 1
 62
     7
370
    15
100
AcDbVertex
100
AcDb2dVertex
 10
662.9094073863561
 20
392.1745116207064
 30
0.0
  0
VERTEX
  5
4A6
330
4A4
100
AcDbEntity
  8
Layer 1
 62
     7
370
    15
100
AcDbVertex
100
AcDb2dVertex
 10
662.9094073863561
 20
393.1746228400744
 30
0.0
  0
SEQEND
  5
4A7
330
4A4
100
AcDbEntity
  8
Layer 1
370
    15
  0
POLYLINE
  5
4A8
330
3C
100
AcDbEntity
  8
Layer 1
 62
     7
370
    15
100
AcDb2dPolyline
 66
     1
 10
0.0
 20
0.0
 30
0.0
  0
VERTEX
  5
4A9
330
4A8
100
AcDbEntity
  8
Layer 1
 62
     7
370
    15
100
AcDbVertex
100
AcDb2dVertex
 10
662.9094073863561
 20
393.1746228400744
 30
0.0
  0
VERTEX
  5
4AA
330
4A8
100
AcDbEntity
  8
Layer 1
 62
     7
370
    15
100
AcDbVertex
100
AcDb2dVertex
 10
672.9094860513907
 20
393.1746228400744
 30
0.0
  0
SEQEND
  5
4AB
330
4A8
100
AcDbEntity
  8
Layer 1
370
    15
  0
POLYLINE
  5
4AC
330
3C
100
AcDbEntity
  8
Layer 1
 62
     7
370
    15
100
AcDb2dPolyline
 66
     1
 10
0.0
 20
0.0
 30
0.0
  0
VERTEX
  5
4AD
330
4AC
100
AcDbEntity
  8
Layer 1
 62
     7
370
    15
100
AcDbVertex
100
AcDb2dVertex
 10
672.9094860513907
 20
392.1745116207064
 30
0.0
  0
VERTEX
  5
4AE
330
4AC
100
AcDbEntity
  8
Layer 1
 62
     7
370
    15
100
AcDbVertex
100
AcDb2dVertex
 10
672.9094860513907
 20
393.1746228400744
 30
0.0
  0
SEQEND
  5
4AF
330
4AC
100
AcDbEntity
  8
Layer 1
370
    15
  0
POLYLINE
  5
4B0
330
3C
100
AcDbEntity
  8
Layer 1
 62
     7
370
    15
100
AcDb2dPolyline
 66
     1
 10
0.0
 20
0.0
 30
0.0
  0
VERTEX
  5
4B1
330
4B0
100
AcDbEntity
  8
Layer 1
 62
     7
370
    15
100
AcDbVertex
100
AcDb2dVertex
 10
672.9094860513907
 20
392.1745116207064
 30
0.0
  0
VERTEX
  5
4B2
330
4B0
100
AcDbEntity
  8
Layer 1
 62
     7
370
    15
100
AcDbVertex
100
AcDb2dVertex
 10
662.9094073863561
 20
392.1745116207064
 30
0.0
  0
SEQEND
  5
4B3
330
4B0
100
AcDbEntity
  8
Layer 1
370
    15
  0
POLYLINE
  5
4B4
330
3C
100
AcDbEntity
  8
Layer 1
 62
     7
370
    15
100
AcDb2dPolyline
 66
     1
 10
0.0
 20
0.0
 30
0.0
  0
VERTEX
  5
4B5
330
4B4
100
AcDbEntity
  8
Layer 1
 62
     7
370
    15
100
AcDbVertex
100
AcDb2dVertex
 10
212.9100015743767
 20
392.1745116207064
 30
0.0
  0
VERTEX
  5
4B6
330
4B4
100
AcDbEntity
  8
Layer 1
 62
     7
370
    15
100
AcDbVertex
100
AcDb2dVertex
 10
212.9100015743767
 20
393.1746228400744
 30
0.0
  0
SEQEND
  5
4B7
330
4B4
100
AcDbEntity
  8
Layer 1
370
    15
  0
POLYLINE
  5
4B8
330
3C
100
AcDbEntity
  8
Layer 1
 62
     7
370
    15
100
AcDb2dPolyline
 66
     1
 10
0.0
 20
0.0
 30
0.0
  0
VERTEX
  5
4B9
330
4B8
100
AcDbEntity
  8
Layer 1
 62
     7
370
    15
100
AcDbVertex
100
AcDb2dVertex
 10
222.9097357298629
 20
392.1745116207064
 30
0.0
  0
VERTEX
  5
4BA
330
4B8
100
AcDbEntity
  8
Layer 1
 62
     7
370
    15
100
AcDbVertex
100
AcDb2dVertex
 10
222.9097357298629
 20
393.1746228400744
 30
0.0
  0
SEQEND
  5
4BB
330
4B8
100
AcDbEntity
  8
Layer 1
370
    15
  0
POLYLINE
  5
4BC
330
3C
100
AcDbEntity
  8
Layer 1
 62
     7
370
    15
100
AcDb2dPolyline
 66
     1
 10
0.0
 20
0.0
 30
0.0
  0
VERTEX
  5
4BD
330
4BC
100
AcDbEntity
  8
Layer 1
 62
     7
370
    15
100
AcDbVertex
100
AcDb2dVertex
 10
222.9097357298629
 20
392.1745116207064
 30
0.0
  0
VERTEX
  5
4BE
330
4BC
100
AcDbEntity
  8
Layer 1
 62
     7
370
    15
100
AcDbVertex
100
AcDb2dVertex
 10
212.9100015743767
 20
392.1745116207064
 30
0.0
  0
SEQEND
  5
4BF
330
4BC
100
AcDbEntity
  8
Layer 1
370
    15
  0
POLYLINE
  5
4C0
330
3C
100
AcDbEntity
  8
Layer 1
 62
     7
370
    15
100
AcDb2dPolyline
 66
     1
 10
0.0
 20
0.0
 30
0.0
  0
VERTEX
  5
4C1
330
4C0
100
AcDbEntity
  8
Layer 1
 62
     7
370
    15
100
AcDbVertex
100
AcDb2dVertex
 10
212.9100015743767
 20
393.1746228400744
 30
0.0
  0
VERTEX
  5
4C2
330
4C0
100
AcDbEntity
  8
Layer 1
 62
     7
370
    15
100
AcDbVertex
100
AcDb2dVertex
 10
222.9097357298629
 20
393.1746228400744
 30
0.0
  0
SEQEND
  5
4C3
330
4C0
100
AcDbEntity
  8
Layer 1
370
    15
  0
POLYLINE
  5
4C4
330
3C
100
AcDbEntity
  8
Layer 1
 62
     7
370
    15
100
AcDb2dPolyline
 66
     1
 10
0.0
 20
0.0
 30
0.0
  0
VERTEX
  5
4C5
330
4C4
100
AcDbEntity
  8
Layer 1
 62
     7
370
    15
100
AcDbVertex
100
AcDb2dVertex
 10
662.9094073863561
 20
391.3742159394828
 30
0.0
  0
VERTEX
  5
4C6
330
4C4
100
AcDbEntity
  8
Layer 1
 62
     7
370
    15
100
AcDbVertex
100
AcDb2dVertex
 10
662.9094073863561
 20
392.1745116207064
 30
0.0
  0
SEQEND
  5
4C7
330
4C4
100
AcDbEntity
  8
Layer 1
370
    15
  0
POLYLINE
  5
4C8
330
3C
100
AcDbEntity
  8
Layer 1
 62
     7
370
    15
100
AcDb2dPolyline
 66
     1
 10
0.0
 20
0.0
 30
0.0
  0
VERTEX
  5
4C9
330
4C8
100
AcDbEntity
  8
Layer 1
 62
     7
370
    15
100
AcDbVertex
100
AcDb2dVertex
 10
222.9097357298629
 20
391.3742159394828
 30
0.0
  0
VERTEX
  5
4CA
330
4C8
100
AcDbEntity
  8
Layer 1
 62
     7
370
    15
100
AcDbVertex
100
AcDb2dVertex
 10
222.9097357298629
 20
392.1745116207064
 30
0.0
  0
SEQEND
  5
4CB
330
4C8
100
AcDbEntity
  8
Layer 1
370
    15
  0
POLYLINE
  5
4CC
330
3C
100
AcDbEntity
  8
Layer 1
 62
     7
370
    15
100
AcDb2dPolyline
 66
     1
 10
0.0
 20
0.0
 30
0.0
  0
VERTEX
  5
4CD
330
4CC
100
AcDbEntity
  8
Layer 1
 62
     7
370
    15
100
AcDbVertex
100
AcDb2dVertex
 10
662.9094073863561
 20
391.3742159394828
 30
0.0
  0
VERTEX
  5
4CE
330
4CC
100
AcDbEntity
  8
Layer 1
 62
     7
370
    15
100
AcDbVertex
100
AcDb2dVertex
 10
222.9097357298629
 20
391.3742159394828
 30
0.0
  0
SEQEND
  5
4CF
330
4CC
100
AcDbEntity
  8
Layer 1
370
    15
  0
POLYLINE
  5
4D0
330
3C
100
AcDbEntity
  8
Layer 1
 62
     7
370
    15
100
AcDb2dPolyline
 66
     1
 10
0.0
 20
0.0
 30
0.0
  0
VERTEX
  5
4D1
330
4D0
100
AcDbEntity
  8
Layer 1
 62
     7
370
    15
100
AcDbVertex
100
AcDb2dVertex
 10
222.9097357298629
 20
393.1746228400744
 30
0.0
  0
VERTEX
  5
4D2
330
4D0
100
AcDbEntity
  8
Layer 1
 62
     7
370
    15
100
AcDbVertex
100
AcDb2dVertex
 10
662.9094073863561
 20
393.1746228400744
 30
0.0
  0
SEQEND
  5
4D3
330
4D0
100
AcDbEntity
  8
Layer 1
370
    15
  0
POLYLINE
  5
4D4
330
3C
100
AcDbEntity
  8
Layer 1
 62
     7
370
    15
100
AcDb2dPolyline
 66
     1
 10
0.0
 20
0.0
 30
0.0
  0
VERTEX
  5
4D5
330
4D4
100
AcDbEntity
  8
Layer 1
 62
     7
370
    15
100
AcDbVertex
100
AcDb2dVertex
 10
212.9112073577965
 20
393.1746228400744
 30
0.0
  0
VERTEX
  5
4D6
330
4D4
100
AcDbEntity
  8
Layer 1
 62
     7
370
    15
100
AcDbVertex
100
AcDb2dVertex
 10
216.9097574327517
 20
395.9747964504855
 30
0.0
  0
SEQEND
  5
4D7
330
4D4
100
AcDbEntity
  8
Layer 1
370
    15
  0
POLYLINE
  5
4D8
330
3C
100
AcDbEntity
  8
Layer 1
 62
     7
370
    15
100
AcDb2dPolyline
 66
     1
 10
0.0
 20
0.0
 30
0.0
  0
VERTEX
  5
4D9
330
4D8
100
AcDbEntity
  8
Layer 1
 62
     7
370
    15
100
AcDbVertex
100
AcDb2dVertex
 10
216.9097574327517
 20
395.9747964504855
 30
0.0
  0
VERTEX
  5
4DA
330
4D8
100
AcDbEntity
  8
Layer 1
 62
     7
370
    15
100
AcDbVertex
100
AcDb2dVertex
 10
222.9097357298629
 20
395.9747964504855
 30
0.0
  0
SEQEND
  5
4DB
330
4D8
100
AcDbEntity
  8
Layer 1
370
    15
  0
POLYLINE
  5
4DC
330
3C
100
AcDbEntity
  8
Layer 1
 62
     7
370
    15
100
AcDb2dPolyline
 66
     1
 10
0.0
 20
0.0
 30
0.0
  0
VERTEX
  5
4DD
330
4DC
100
AcDbEntity
  8
Layer 1
 62
     7
370
    15
100
AcDbVertex
100
AcDb2dVertex
 10
222.9097357298629
 20
393.1746228400744
 30
0.0
  0
VERTEX
  5
4DE
330
4DC
100
AcDbEntity
  8
Layer 1
 62
     7
370
    15
100
AcDbVertex
100
AcDb2dVertex
 10
222.9097357298629
 20
395.9747964504855
 30
0.0
  0
SEQEND
  5
4DF
330
4DC
100
AcDbEntity
  8
Layer 1
370
    15
  0
POLYLINE
  5
4E0
330
3C
100
AcDbEntity
  8
Layer 1
 62
     7
370
    15
100
AcDb2dPolyline
 66
     1
 10
0.0
 20
0.0
 30
0.0
  0
VERTEX
  5
4E1
330
4E0
100
AcDbEntity
  8
Layer 1
 62
     7
370
    15
100
AcDbVertex
100
AcDb2dVertex
 10
222.9097357298629
 20
395.9747964504855
 30
0.0
  0
VERTEX
  5
4E2
330
4E0
100
AcDbEntity
  8
Layer 1
 62
     7
370
    15
100
AcDbVertex
100
AcDb2dVertex
 10
662.9094073863561
 20
395.9747964504855
 30
0.0
  0
SEQEND
  5
4E3
330
4E0
100
AcDbEntity
  8
Layer 1
370
    15
  0
POLYLINE
  5
4E4
330
3C
100
AcDbEntity
  8
Layer 1
 62
     7
370
    15
100
AcDb2dPolyline
 66
     1
 10
0.0
 20
0.0
 30
0.0
  0
VERTEX
  5
4E5
330
4E4
100
AcDbEntity
  8
Layer 1
 62
     7
370
    15
100
AcDbVertex
100
AcDb2dVertex
 10
662.9094073863561
 20
393.1746228400744
 30
0.0
  0
VERTEX
  5
4E6
330
4E4
100
AcDbEntity
  8
Layer 1
 62
     7
370
    15
100
AcDbVertex
100
AcDb2dVertex
 10
662.9094073863561
 20
395.9747964504855
 30
0.0
  0
SEQEND
  5
4E7
330
4E4
100
AcDbEntity
  8
Layer 1
370
    15
  0
POLYLINE
  5
4E8
330
3C
100
AcDbEntity
  8
Layer 1
 62
     7
370
    15
100
AcDb2dPolyline
 66
     1
 10
0.0
 20
0.0
 30
0.0
  0
VERTEX
  5
4E9
330
4E8
100
AcDbEntity
  8
Layer 1
 62
     7
370
    15
100
AcDbVertex
100
AcDb2dVertex
 10
662.9094073863561
 20
395.9747964504855
 30
0.0
  0
VERTEX
  5
4EA
330
4E8
100
AcDbEntity
  8
Layer 1
 62
     7
370
    15
100
AcDbVertex
100
AcDb2dVertex
 10
668.9097301930157
 20
395.9747964504855
 30
0.0
  0
SEQEND
  5
4EB
330
4E8
100
AcDbEntity
  8
Layer 1
370
    15
  0
POLYLINE
  5
4EC
330
3C
100
AcDbEntity
  8
Layer 1
 62
     7
370
    15
100
AcDb2dPolyline
 66
     1
 10
0.0
 20
0.0
 30
0.0
  0
VERTEX
  5
4ED
330
4EC
100
AcDbEntity
  8
Layer 1
 62
     7
370
    15
100
AcDbVertex
100
AcDb2dVertex
 10
672.9081080131966
 20
393.1746228400744
 30
0.0
  0
VERTEX
  5
4EE
330
4EC
100
AcDbEntity
  8
Layer 1
 62
     7
370
    15
100
AcDbVertex
100
AcDb2dVertex
 10
668.9097301930157
 20
395.9747964504855
 30
0.0
  0
SEQEND
  5
4EF
330
4EC
100
AcDbEntity
  8
Layer 1
370
    15
  0
POLYLINE
  5
4F0
330
3C
100
AcDbEntity
  8
Layer 1
 62
     7
370
    15
100
AcDb2dPolyline
 66
     1
 10
0.0
 20
0.0
 30
0.0
  0
VERTEX
  5
4F1
330
4F0
100
AcDbEntity
  8
Layer 1
 62
     7
370
    15
100
AcDbVertex
100
AcDb2dVertex
 10
672.1091903701672
 20
391.3742159394828
 30
0.0
  0
VERTEX
  5
4F2
330
4F0
100
AcDbEntity
  8
Layer 1
 62
     7
370
    15
100
AcDbVertex
100
AcDb2dVertex
 10
672.1091903701672
 20
392.1745116207064
 30
0.0
  0
SEQEND
  5
4F3
330
4F0
100
AcDbEntity
  8
Layer 1
370
    15
  0
POLYLINE
  5
4F4
330
3C
100
AcDbEntity
  8
Layer 1
 62
     7
370
    15
100
AcDb2dPolyline
 66
     1
 10
0.0
 20
0.0
 30
0.0
  0
VERTEX
  5
4F5
330
4F4
100
AcDbEntity
  8
Layer 1
 62
     7
370
    15
100
AcDbVertex
100
AcDb2dVertex
 10
672.1091903701672
 20
391.3742159394828
 30
0.0
  0
VERTEX
  5
4F6
330
4F4
100
AcDbEntity
  8
Layer 1
 62
     7
370
    15
100
AcDbVertex
100
AcDb2dVertex
 10
662.9094073863561
 20
391.3742159394828
 30
0.0
  0
SEQEND
  5
4F7
330
4F4
100
AcDbEntity
  8
Layer 1
370
    15
  0
POLYLINE
  5
4F8
330
3C
100
AcDbEntity
  8
Layer 1
 62
     7
370
    15
100
AcDb2dPolyline
 66
     1
 10
0.0
 20
0.0
 30
0.0
  0
VERTEX
  5
4F9
330
4F8
100
AcDbEntity
  8
Layer 1
 62
     7
370
    15
100
AcDbVertex
100
AcDb2dVertex
 10
213.7097804912774
 20
391.3742159394828
 30
0.0
  0
VERTEX
  5
4FA
330
4F8
100
AcDbEntity
  8
Layer 1
 62
     7
370
    15
100
AcDbVertex
100
AcDb2dVertex
 10
213.7097804912774
 20
392.1745116207064
 30
0.0
  0
SEQEND
  5
4FB
330
4F8
100
AcDbEntity
  8
Layer 1
370
    15
  0
POLYLINE
  5
4FC
330
3C
100
AcDbEntity
  8
Layer 1
 62
     7
370
    15
100
AcDb2dPolyline
 66
     1
 10
0.0
 20
0.0
 30
0.0
  0
VERTEX
  5
4FD
330
4FC
100
AcDbEntity
  8
Layer 1
 62
     7
370
    15
100
AcDbVertex
100
AcDb2dVertex
 10
222.9097357298629
 20
391.3742159394828
 30
0.0
  0
VERTEX
  5
4FE
330
4FC
100
AcDbEntity
  8
Layer 1
 62
     7
370
    15
100
AcDbVertex
100
AcDb2dVertex
 10
213.7097804912774
 20
391.3742159394828
 30
0.0
  0
SEQEND
  5
4FF
330
4FC
100
AcDbEntity
  8
Layer 1
370
    15
  0
POLYLINE
  5
500
330
3C
100
AcDbEntity
  8
Layer 1
 62
     7
370
    15
100
AcDb2dPolyline
 66
     1
 10
0.0
 20
0.0
 30
0.0
  0
VERTEX
  5
501
330
500
100
AcDbEntity
  8
Layer 1
 62
     7
370
    15
100
AcDbVertex
100
AcDb2dVertex
 10
672.9094860513907
 20
391.3742159394828
 30
0.0
  0
VERTEX
  5
502
330
500
100
AcDbEntity
  8
Layer 1
 62
     7
370
    15
100
AcDbVertex
100
AcDb2dVertex
 10
672.9094860513907
 20
392.1745116207064
 30
0.0
  0
SEQEND
  5
503
330
500
100
AcDbEntity
  8
Layer 1
370
    15
  0
POLYLINE
  5
504
330
3C
100
AcDbEntity
  8
Layer 1
 62
     7
370
    15
100
AcDb2dPolyline
 66
     1
 10
0.0
 20
0.0
 30
0.0
  0
VERTEX
  5
505
330
504
100
AcDbEntity
  8
Layer 1
 62
     7
370
    15
100
AcDbVertex
100
AcDb2dVertex
 10
672.9094860513907
 20
391.3742159394828
 30
0.0
  0
VERTEX
  5
506
330
504
100
AcDbEntity
  8
Layer 1
 62
     7
370
    15
100
AcDbVertex
100
AcDb2dVertex
 10
672.1091903701672
 20
391.3742159394828
 30
0.0
  0
SEQEND
  5
507
330
504
100
AcDbEntity
  8
Layer 1
370
    15
  0
POLYLINE
  5
508
330
3C
100
AcDbEntity
  8
Layer 1
 62
     7
370
    15
100
AcDb2dPolyline
 66
     1
 10
0.0
 20
0.0
 30
0.0
  0
VERTEX
  5
509
330
508
100
AcDbEntity
  8
Layer 1
 62
     7
370
    15
100
AcDbVertex
100
AcDb2dVertex
 10
212.9100015743767
 20
391.3742159394828
 30
0.0
  0
VERTEX
  5
50A
330
508
100
AcDbEntity
  8
Layer 1
 62
     7
370
    15
100
AcDbVertex
100
AcDb2dVertex
 10
212.9100015743767
 20
392.1745116207064
 30
0.0
  0
SEQEND
  5
50B
330
508
100
AcDbEntity
  8
Layer 1
370
    15
  0
POLYLINE
  5
50C
330
3C
100
AcDbEntity
  8
Layer 1
 62
     7
370
    15
100
AcDb2dPolyline
 66
     1
 10
0.0
 20
0.0
 30
0.0
  0
VERTEX
  5
50D
330
50C
100
AcDbEntity
  8
Layer 1
 62
     7
370
    15
100
AcDbVertex
100
AcDb2dVertex
 10
213.7097804912774
 20
391.3742159394828
 30
0.0
  0
VERTEX
  5
50E
330
50C
100
AcDbEntity
  8
Layer 1
 62
     7
370
    15
100
AcDbVertex
100
AcDb2dVertex
 10
212.9100015743767
 20
391.3742159394828
 30
0.0
  0
SEQEND
  5
50F
330
50C
100
AcDbEntity
  8
Layer 1
370
    15
  0
SPLINE
  5
510
330
3C
100
AcDbEntity
  8
Layer 1
 62
     7
370
    15
100
AcDbSpline
210
0.0
220
0.0
230
1.0
 70
    11
 71
     3
 72
    17
 73
    13
 74
     0
 42
0.0000000001
 43
0.0000000001
 40
0.0
 40
0.0
 40
0.0
 40
0.0
 40
1.0
 40
1.0
 40
1.0
 40
2.0
 40
2.0
 40
2.0
 40
3.0
 40
3.0
 40
3.0
 40
4.0
 40
4.0
 40
4.0
 40
4.0
 10
608.5954100041012
 20
380.7743461504662
 30
0.0
 10
608.5954100041012
 20
378.565350925324
 30
0.0
 10
610.385481618237
 20
376.7742457825426
 30
0.0
 10
612.5951658624763
 20
376.7742457825426
 30
0.0
 10
614.804505597167
 20
376.7742457825426
 30
0.0
 10
616.5949217208513
 20
378.565350925324
 30
0.0
 10
616.5949217208513
 20
380.7743461504662
 30
0.0
 10
616.5949217208513
 20
382.9836858851569
 30
0.0
 10
614.804505597167
 20
384.7741020088412
 30
0.0
 10
612.5951658624763
 20
384.7741020088412
 30
0.0
 10
610.385481618237
 20
384.7741020088412
 30
0.0
 10
608.5954100041012
 20
382.9836858851569
 30
0.0
 10
608.5954100041012
 20
380.7743461504662
 30
0.0
  0
POLYLINE
  5
511
330
3C
100
AcDbEntity
  8
Layer 1
 62
     7
370
    15
100
AcDb2dPolyline
 66
     1
 10
0.0
 20
0.0
 30
0.0
  0
VERTEX
  5
512
330
511
100
AcDbEntity
  8
Layer 1
 62
     7
370
    15
100
AcDbVertex
100
AcDb2dVertex
 10
624.2051376477682
 20
372.7744899241675
 30
0.0
  0
VERTEX
  5
513
330
511
100
AcDbEntity
  8
Layer 1
 62
     7
370
    15
100
AcDbVertex
100
AcDb2dVertex
 10
650.5098197158447
 20
391.3742159394828
 30
0.0
  0
SEQEND
  5
514
330
511
100
AcDbEntity
  8
Layer 1
370
    15
  0
POLYLINE
  5
515
330
3C
100
AcDbEntity
  8
Layer 1
 62
     7
370
    15
100
AcDb2dPolyline
 66
     1
 10
0.0
 20
0.0
 30
0.0
  0
VERTEX
  5
516
330
515
100
AcDbEntity
  8
Layer 1
 62
     7
370
    15
100
AcDbVertex
100
AcDb2dVertex
 10
624.2051376477682
 20
372.7744899241675
 30
0.0
  0
VERTEX
  5
517
330
515
100
AcDbEntity
  8
Layer 1
 62
     7
370
    15
100
AcDbVertex
100
AcDb2dVertex
 10
261.6143499779992
 20
372.7744899241675
 30
0.0
  0
SEQEND
  5
518
330
515
100
AcDbEntity
  8
Layer 1
370
    15
  0
SPLINE
  5
519
330
3C
100
AcDbEntity
  8
Layer 1
 62
     7
370
    15
100
AcDbSpline
210
0.0
220
0.0
230
1.0
 70
    11
 71
     3
 72
    17
 73
    13
 74
     0
 42
0.0000000001
 43
0.0000000001
 40
0.0
 40
0.0
 40
0.0
 40
0.0
 40
1.0
 40
1.0
 40
1.0
 40
2.0
 40
2.0
 40
2.0
 40
3.0
 40
3.0
 40
3.0
 40
4.0
 40
4.0
 40
4.0
 40
4.0
 10
269.2242213953676
 20
380.7743461504662
 30
0.0
 10
269.2242213953676
 20
378.565350925324
 30
0.0
 10
271.0148097738262
 20
376.7742457825426
 30
0.0
 10
273.2244940180654
 20
376.7742457825426
 30
0.0
 10
275.4334892432076
 20
376.7742457825426
 30
0.0
 10
277.2242498764405
 20
378.565350925324
 30
0.0
 10
277.2242498764405
 20
380.7743461504662
 30
0.0
 10
277.2242498764405
 20
382.9836858851569
 30
0.0
 10
275.4334892432076
 20
384.7741020088412
 30
0.0
 10
273.2244940180654
 20
384.7741020088412
 30
0.0
 10
271.0148097738262
 20
384.7741020088412
 30
0.0
 10
269.2242213953676
 20
382.9836858851569
 30
0.0
 10
269.2242213953676
 20
380.7743461504662
 30
0.0
  0
POLYLINE
  5
51A
330
3C
100
AcDbEntity
  8
Layer 1
 62
     7
370
    15
100
AcDb2dPolyline
 66
     1
 10
0.0
 20
0.0
 30
0.0
  0
VERTEX
  5
51B
330
51A
100
AcDbEntity
  8
Layer 1
 62
     7
370
    15
100
AcDbVertex
100
AcDb2dVertex
 10
235.3096679099226
 20
391.3742159394828
 30
0.0
  0
VERTEX
  5
51C
330
51A
100
AcDbEntity
  8
Layer 1
 62
     7
370
    15
100
AcDbVertex
100
AcDb2dVertex
 10
261.6143499779992
 20
372.7744899241675
 30
0.0
  0
SEQEND
  5
51D
330
51A
100
AcDbEntity
  8
Layer 1
370
    15
  0
POLYLINE
  5
51E
330
3C
100
AcDbEntity
  8
Layer 1
 62
     7
370
    15
100
AcDb2dPolyline
 66
     1
 10
0.0
 20
0.0
 30
0.0
  0
VERTEX
  5
51F
330
51E
100
AcDbEntity
  8
Layer 1
 62
     7
370
    15
100
AcDbVertex
100
AcDb2dVertex
 10
237.5679280005039
 20
384.5742864706967
 30
0.0
  0
VERTEX
  5
520
330
51E
100
AcDbEntity
  8
Layer 1
 62
     7
370
    15
100
AcDbVertex
100
AcDb2dVertex
 10
233.6417249307389
 20
391.3742159394828
 30
0.0
  0
SEQEND
  5
521
330
51E
100
AcDbEntity
  8
Layer 1
370
    15
  0
POLYLINE
  5
522
330
3C
100
AcDbEntity
  8
Layer 1
 62
     7
370
    15
100
AcDb2dPolyline
 66
     1
 10
0.0
 20
0.0
 30
0.0
  0
VERTEX
  5
523
330
522
100
AcDbEntity
  8
Layer 1
 62
     7
370
    15
100
AcDbVertex
100
AcDb2dVertex
 10
648.251215115715
 20
384.5742864706967
 30
0.0
  0
VERTEX
  5
524
330
522
100
AcDbEntity
  8
Layer 1
 62
     7
370
    15
100
AcDbVertex
100
AcDb2dVertex
 10
652.1769014211571
 20
391.3742159394828
 30
0.0
  0
SEQEND
  5
525
330
522
100
AcDbEntity
  8
Layer 1
370
    15
  0
POLYLINE
  5
526
330
3C
100
AcDbEntity
  8
Layer 1
 62
     7
370
    15
100
AcDb2dPolyline
 66
     1
 10
0.0
 20
0.0
 30
0.0
  0
VERTEX
  5
527
330
526
100
AcDbEntity
  8
Layer 1
 62
     7
370
    15
100
AcDbVertex
100
AcDb2dVertex
 10
659.7089136805589
 20
372.7744899241675
 30
0.0
  0
VERTEX
  5
528
330
526
100
AcDbEntity
  8
Layer 1
 62
     7
370
    15
100
AcDbVertex
100
AcDb2dVertex
 10
658.9096515279809
 20
372.7744899241675
 30
0.0
  0
SEQEND
  5
529
330
526
100
AcDbEntity
  8
Layer 1
370
    15
  0
POLYLINE
  5
52A
330
3C
100
AcDbEntity
  8
Layer 1
 62
     7
370
    15
100
AcDb2dPolyline
 66
     1
 10
0.0
 20
0.0
 30
0.0
  0
VERTEX
  5
52B
330
52A
100
AcDbEntity
  8
Layer 1
 62
     7
370
    15
100
AcDbVertex
100
AcDb2dVertex
 10
658.9096515279809
 20
372.7744899241675
 30
0.0
  0
VERTEX
  5
52C
330
52A
100
AcDbEntity
  8
Layer 1
 62
     7
370
    15
100
AcDbVertex
100
AcDb2dVertex
 10
658.9096515279809
 20
391.3742159394828
 30
0.0
  0
SEQEND
  5
52D
330
52A
100
AcDbEntity
  8
Layer 1
370
    15
  0
POLYLINE
  5
52E
330
3C
100
AcDbEntity
  8
Layer 1
 62
     7
370
    15
100
AcDb2dPolyline
 66
     1
 10
0.0
 20
0.0
 30
0.0
  0
VERTEX
  5
52F
330
52E
100
AcDbEntity
  8
Layer 1
 62
     7
370
    15
100
AcDbVertex
100
AcDb2dVertex
 10
659.7089136805589
 20
391.3742159394828
 30
0.0
  0
VERTEX
  5
530
330
52E
100
AcDbEntity
  8
Layer 1
 62
     7
370
    15
100
AcDbVertex
100
AcDb2dVertex
 10
659.7089136805589
 20
372.7744899241675
 30
0.0
  0
SEQEND
  5
531
330
52E
100
AcDbEntity
  8
Layer 1
370
    15
  0
POLYLINE
  5
532
330
3C
100
AcDbEntity
  8
Layer 1
 62
     7
370
    15
100
AcDb2dPolyline
 66
     1
 10
0.0
 20
0.0
 30
0.0
  0
VERTEX
  5
533
330
532
100
AcDbEntity
  8
Layer 1
 62
     7
370
    15
100
AcDbVertex
100
AcDb2dVertex
 10
226.9100083525607
 20
372.7744899241675
 30
0.0
  0
VERTEX
  5
534
330
532
100
AcDbEntity
  8
Layer 1
 62
     7
370
    15
100
AcDbVertex
100
AcDb2dVertex
 10
226.1097126713372
 20
372.7744899241675
 30
0.0
  0
SEQEND
  5
535
330
532
100
AcDbEntity
  8
Layer 1
370
    15
  0
POLYLINE
  5
536
330
3C
100
AcDbEntity
  8
Layer 1
 62
     7
370
    15
100
AcDb2dPolyline
 66
     1
 10
0.0
 20
0.0
 30
0.0
  0
VERTEX
  5
537
330
536
100
AcDbEntity
  8
Layer 1
 62
     7
370
    15
100
AcDbVertex
100
AcDb2dVertex
 10
226.1097126713372
 20
372.7744899241675
 30
0.0
  0
VERTEX
  5
538
330
536
100
AcDbEntity
  8
Layer 1
 62
     7
370
    15
100
AcDbVertex
100
AcDb2dVertex
 10
226.1097126713372
 20
391.3742159394828
 30
0.0
  0
SEQEND
  5
539
330
536
100
AcDbEntity
  8
Layer 1
370
    15
  0
POLYLINE
  5
53A
330
3C
100
AcDbEntity
  8
Layer 1
 62
     7
370
    15
100
AcDb2dPolyline
 66
     1
 10
0.0
 20
0.0
 30
0.0
  0
VERTEX
  5
53B
330
53A
100
AcDbEntity
  8
Layer 1
 62
     7
370
    15
100
AcDbVertex
100
AcDb2dVertex
 10
226.9100083525607
 20
391.3742159394828
 30
0.0
  0
VERTEX
  5
53C
330
53A
100
AcDbEntity
  8
Layer 1
 62
     7
370
    15
100
AcDbVertex
100
AcDb2dVertex
 10
226.9100083525607
 20
372.7744899241675
 30
0.0
  0
SEQEND
  5
53D
330
53A
100
AcDbEntity
  8
Layer 1
370
    15
  0
POLYLINE
  5
53E
330
3C
100
AcDbEntity
  8
Layer 1
 62
     7
370
    15
100
AcDb2dPolyline
 66
     1
 10
0.0
 20
0.0
 30
0.0
  0
VERTEX
  5
53F
330
53E
100
AcDbEntity
  8
Layer 1
 62
     7
370
    15
100
AcDbVertex
100
AcDb2dVertex
 10
239.9929307125712
 20
383.1741996654912
 30
0.0
  0
VERTEX
  5
540
330
53E
100
AcDbEntity
  8
Layer 1
 62
     7
370
    15
100
AcDbVertex
100
AcDb2dVertex
 10
246.9063760775963
 20
383.1741996654912
 30
0.0
  0
SEQEND
  5
541
330
53E
100
AcDbEntity
  8
Layer 1
370
    15
  0
SPLINE
  5
542
330
3C
100
AcDbEntity
  8
Layer 1
 62
     7
370
    15
100
AcDbSpline
210
0.0
220
0.0
230
1.0
 70
     8
 71
     3
 72
     8
 73
     4
 74
     0
 42
0.0000000001
 43
0.0000000001
 40
0.0
 40
0.0
 40
0.0
 40
0.0
 40
1.0
 40
1.0
 40
1.0
 40
1.0
 10
237.5679280005039
 20
384.5742864706967
 30
0.0
 10
238.0683281197364
 20
383.7081894657049
 30
0.0
 10
238.9924749836547
 20
383.1741996654912
 30
0.0
 10
239.9929307125712
 20
383.1741996654912
 30
0.0
  0
POLYLINE
  5
543
330
3C
100
AcDbEntity
  8
Layer 1
 62
     7
370
    15
100
AcDb2dPolyline
 66
     1
 10
0.0
 20
0.0
 30
0.0
  0
VERTEX
  5
544
330
543
100
AcDbEntity
  8
Layer 1
 62
     7
370
    15
100
AcDbVertex
100
AcDb2dVertex
 10
270.0241725670426
 20
383.1741996654912
 30
0.0
  0
VERTEX
  5
545
330
543
100
AcDbEntity
  8
Layer 1
 62
     7
370
    15
100
AcDbVertex
100
AcDb2dVertex
 10
276.4242987047655
 20
383.1741996654912
 30
0.0
  0
SEQEND
  5
546
330
543
100
AcDbEntity
  8
Layer 1
370
    15
  0
POLYLINE
  5
547
330
3C
100
AcDbEntity
  8
Layer 1
 62
     7
370
    15
100
AcDb2dPolyline
 66
     1
 10
0.0
 20
0.0
 30
0.0
  0
VERTEX
  5
548
330
547
100
AcDbEntity
  8
Layer 1
 62
     7
370
    15
100
AcDbVertex
100
AcDb2dVertex
 10
609.3946721566791
 20
383.1741996654912
 30
0.0
  0
VERTEX
  5
549
330
547
100
AcDbEntity
  8
Layer 1
 62
     7
370
    15
100
AcDbVertex
100
AcDb2dVertex
 10
615.7953150587248
 20
383.1741996654912
 30
0.0
  0
SEQEND
  5
54A
330
547
100
AcDbEntity
  8
Layer 1
370
    15
  0
SPLINE
  5
54B
330
3C
100
AcDbEntity
  8
Layer 1
 62
     7
370
    15
100
AcDbSpline
210
0.0
220
0.0
230
1.0
 70
     8
 71
     3
 72
     8
 73
     4
 74
     0
 42
0.0000000001
 43
0.0000000001
 40
0.0
 40
0.0
 40
0.0
 40
0.0
 40
1.0
 40
1.0
 40
1.0
 40
1.0
 10
645.8262124036477
 20
383.1741996654912
 30
0.0
 10
646.8270126421128
 20
383.1741996654912
 30
0.0
 10
647.7513317608052
 20
383.7081894657049
 30
0.0
 10
648.251215115715
 20
384.5742864706967
 30
0.0
  0
POLYLINE
  5
54C
330
3C
100
AcDbEntity
  8
Layer 1
 62
     7
370
    15
100
AcDb2dPolyline
 66
     1
 10
0.0
 20
0.0
 30
0.0
  0
VERTEX
  5
54D
330
54C
100
AcDbEntity
  8
Layer 1
 62
     7
370
    15
100
AcDbVertex
100
AcDb2dVertex
 10
638.9132838029453
 20
383.1741996654912
 30
0.0
  0
VERTEX
  5
54E
330
54C
100
AcDbEntity
  8
Layer 1
 62
     7
370
    15
100
AcDbVertex
100
AcDb2dVertex
 10
645.8262124036477
 20
383.1741996654912
 30
0.0
  0
SEQEND
  5
54F
330
54C
100
AcDbEntity
  8
Layer 1
370
    15
  0
POLYLINE
  5
550
330
3C
100
AcDbEntity
  8
Layer 1
 62
     7
370
    15
100
AcDb2dPolyline
 66
     1
 10
0.0
 20
0.0
 30
0.0
  0
VERTEX
  5
551
330
550
100
AcDbEntity
  8
Layer 1
 62
     7
370
    15
100
AcDbVertex
100
AcDb2dVertex
 10
236.4098591531371
 20
380.1745550264841
 30
0.0
  0
VERTEX
  5
552
330
550
100
AcDbEntity
  8
Layer 1
 62
     7
370
    15
100
AcDbVertex
100
AcDb2dVertex
 10
251.1490111676815
 20
380.1745550264841
 30
0.0
  0
SEQEND
  5
553
330
550
100
AcDbEntity
  8
Layer 1
370
    15
  0
POLYLINE
  5
554
330
3C
100
AcDbEntity
  8
Layer 1
 62
     7
370
    15
100
AcDb2dPolyline
 66
     1
 10
0.0
 20
0.0
 30
0.0
  0
VERTEX
  5
555
330
554
100
AcDbEntity
  8
Layer 1
 62
     7
370
    15
100
AcDbVertex
100
AcDb2dVertex
 10
269.2695244009986
 20
380.1745550264841
 30
0.0
  0
VERTEX
  5
556
330
554
100
AcDbEntity
  8
Layer 1
 62
     7
370
    15
100
AcDbVertex
100
AcDb2dVertex
 10
277.1789468708095
 20
380.1745550264841
 30
0.0
  0
SEQEND
  5
557
330
554
100
AcDbEntity
  8
Layer 1
370
    15
  0
POLYLINE
  5
558
330
3C
100
AcDbEntity
  8
Layer 1
 62
     7
370
    15
100
AcDb2dPolyline
 66
     1
 10
0.0
 20
0.0
 30
0.0
  0
VERTEX
  5
559
330
558
100
AcDbEntity
  8
Layer 1
 62
     7
370
    15
100
AcDbVertex
100
AcDb2dVertex
 10
236.4098591531371
 20
379.3742593452606
 30
0.0
  0
VERTEX
  5
55A
330
558
100
AcDbEntity
  8
Layer 1
 62
     7
370
    15
100
AcDbVertex
100
AcDb2dVertex
 10
252.2805527798118
 20
379.3742593452606
 30
0.0
  0
SEQEND
  5
55B
330
558
100
AcDbEntity
  8
Layer 1
370
    15
  0
POLYLINE
  5
55C
330
3C
100
AcDbEntity
  8
Layer 1
 62
     7
370
    15
100
AcDb2dPolyline
 66
     1
 10
0.0
 20
0.0
 30
0.0
  0
VERTEX
  5
55D
330
55C
100
AcDbEntity
  8
Layer 1
 62
     7
370
    15
100
AcDbVertex
100
AcDb2dVertex
 10
269.4770914039849
 20
379.3742593452606
 30
0.0
  0
VERTEX
  5
55E
330
55C
100
AcDbEntity
  8
Layer 1
 62
     7
370
    15
100
AcDbVertex
100
AcDb2dVertex
 10
276.9713798678231
 20
379.3742593452606
 30
0.0
  0
SEQEND
  5
55F
330
55C
100
AcDbEntity
  8
Layer 1
370
    15
  0
POLYLINE
  5
560
330
3C
100
AcDbEntity
  8
Layer 1
 62
     7
370
    15
100
AcDb2dPolyline
 66
     1
 10
0.0
 20
0.0
 30
0.0
  0
VERTEX
  5
561
330
560
100
AcDbEntity
  8
Layer 1
 62
     7
370
    15
100
AcDbVertex
100
AcDb2dVertex
 10
236.4098591531371
 20
379.3742593452606
 30
0.0
  0
VERTEX
  5
562
330
560
100
AcDbEntity
  8
Layer 1
 62
     7
370
    15
100
AcDbVertex
100
AcDb2dVertex
 10
236.4098591531371
 20
380.1745550264841
 30
0.0
  0
SEQEND
  5
563
330
560
100
AcDbEntity
  8
Layer 1
370
    15
  0
POLYLINE
  5
564
330
3C
100
AcDbEntity
  8
Layer 1
 62
     7
370
    15
100
AcDb2dPolyline
 66
     1
 10
0.0
 20
0.0
 30
0.0
  0
VERTEX
  5
565
330
564
100
AcDbEntity
  8
Layer 1
 62
     7
370
    15
100
AcDbVertex
100
AcDb2dVertex
 10
649.4091117083075
 20
379.3742593452606
 30
0.0
  0
VERTEX
  5
566
330
564
100
AcDbEntity
  8
Layer 1
 62
     7
370
    15
100
AcDbVertex
100
AcDb2dVertex
 10
649.4091117083075
 20
380.1745550264841
 30
0.0
  0
SEQEND
  5
567
330
564
100
AcDbEntity
  8
Layer 1
370
    15
  0
POLYLINE
  5
568
330
3C
100
AcDbEntity
  8
Layer 1
 62
     7
370
    15
100
AcDb2dPolyline
 66
     1
 10
0.0
 20
0.0
 30
0.0
  0
VERTEX
  5
569
330
568
100
AcDbEntity
  8
Layer 1
 62
     7
370
    15
100
AcDbVertex
100
AcDb2dVertex
 10
608.6401962454095
 20
380.1745550264841
 30
0.0
  0
VERTEX
  5
56A
330
568
100
AcDbEntity
  8
Layer 1
 62
     7
370
    15
100
AcDbVertex
100
AcDb2dVertex
 10
616.5501354795431
 20
380.1745550264841
 30
0.0
  0
SEQEND
  5
56B
330
568
100
AcDbEntity
  8
Layer 1
370
    15
  0
POLYLINE
  5
56C
330
3C
100
AcDbEntity
  8
Layer 1
 62
     7
370
    15
100
AcDb2dPolyline
 66
     1
 10
0.0
 20
0.0
 30
0.0
  0
VERTEX
  5
56D
330
56C
100
AcDbEntity
  8
Layer 1
 62
     7
370
    15
100
AcDbVertex
100
AcDb2dVertex
 10
634.6703042033116
 20
380.1745550264841
 30
0.0
  0
VERTEX
  5
56E
330
56C
100
AcDbEntity
  8
Layer 1
 62
     7
370
    15
100
AcDbVertex
100
AcDb2dVertex
 10
649.4091117083075
 20
380.1745550264841
 30
0.0
  0
SEQEND
  5
56F
330
56C
100
AcDbEntity
  8
Layer 1
370
    15
  0
POLYLINE
  5
570
330
3C
100
AcDbEntity
  8
Layer 1
 62
     7
370
    15
100
AcDb2dPolyline
 66
     1
 10
0.0
 20
0.0
 30
0.0
  0
VERTEX
  5
571
330
570
100
AcDbEntity
  8
Layer 1
 62
     7
370
    15
100
AcDbVertex
100
AcDb2dVertex
 10
608.8482800127185
 20
379.3742593452606
 30
0.0
  0
VERTEX
  5
572
330
570
100
AcDbEntity
  8
Layer 1
 62
     7
370
    15
100
AcDbVertex
100
AcDb2dVertex
 10
616.3420517122339
 20
379.3742593452606
 30
0.0
  0
SEQEND
  5
573
330
570
100
AcDbEntity
  8
Layer 1
370
    15
  0
POLYLINE
  5
574
330
3C
100
AcDbEntity
  8
Layer 1
 62
     7
370
    15
100
AcDb2dPolyline
 66
     1
 10
0.0
 20
0.0
 30
0.0
  0
VERTEX
  5
575
330
574
100
AcDbEntity
  8
Layer 1
 62
     7
370
    15
100
AcDbVertex
100
AcDb2dVertex
 10
633.6105928320487
 20
379.3742593452606
 30
0.0
  0
VERTEX
  5
576
330
574
100
AcDbEntity
  8
Layer 1
 62
     7
370
    15
100
AcDbVertex
100
AcDb2dVertex
 10
649.4091117083075
 20
379.3742593452606
 30
0.0
  0
SEQEND
  5
577
330
574
100
AcDbEntity
  8
Layer 1
370
    15
  0
POLYLINE
  5
578
330
3C
100
AcDbEntity
  8
Layer 1
 62
     7
370
    15
100
AcDb2dPolyline
 66
     1
 10
0.0
 20
0.0
 30
0.0
  0
VERTEX
  5
579
330
578
100
AcDbEntity
  8
Layer 1
 62
     7
370
    15
100
AcDbVertex
100
AcDb2dVertex
 10
241.9099540953385
 20
380.1745550264841
 30
0.0
  0
VERTEX
  5
57A
330
578
100
AcDbEntity
  8
Layer 1
 62
     7
370
    15
100
AcDbVertex
100
AcDb2dVertex
 10
241.9099540953385
 20
381.1743217363037
 30
0.0
  0
SEQEND
  5
57B
330
578
100
AcDbEntity
  8
Layer 1
370
    15
  0
SPLINE
  5
57C
330
3C
100
AcDbEntity
  8
Layer 1
 62
     7
370
    15
100
AcDbSpline
210
0.0
220
0.0
230
1.0
 70
     8
 71
     3
 72
     8
 73
     4
 74
     0
 42
0.0000000001
 43
0.0000000001
 40
0.0
 40
0.0
 40
0.0
 40
0.0
 40
1.0
 40
1.0
 40
1.0
 40
1.0
 10
243.909832024526
 20
383.1741996654912
 30
0.0
 10
242.8051621571807
 20
383.1741996654912
 30
0.0
 10
241.9099540953385
 20
382.2791638584233
 30
0.0
 10
241.9099540953385
 20
381.1743217363037
 30
0.0
  0
POLYLINE
  5
57D
330
3C
100
AcDbEntity
  8
Layer 1
 62
     7
370
    15
100
AcDb2dPolyline
 66
     1
 10
0.0
 20
0.0
 30
0.0
  0
VERTEX
  5
57E
330
57D
100
AcDbEntity
  8
Layer 1
 62
     7
370
    15
100
AcDbVertex
100
AcDb2dVertex
 10
643.9093612756546
 20
380.1745550264841
 30
0.0
  0
VERTEX
  5
57F
330
57D
100
AcDbEntity
  8
Layer 1
 62
     7
370
    15
100
AcDbVertex
100
AcDb2dVertex
 10
643.9093612756546
 20
381.1743217363037
 30
0.0
  0
SEQEND
  5
580
330
57D
100
AcDbEntity
  8
Layer 1
370
    15
  0
SPLINE
  5
581
330
3C
100
AcDbEntity
  8
Layer 1
 62
     7
370
    15
100
AcDbSpline
210
0.0
220
0.0
230
1.0
 70
     8
 71
     3
 72
     8
 73
     4
 74
     0
 42
0.0000000001
 43
0.0000000001
 40
0.0
 40
0.0
 40
0.0
 40
0.0
 40
1.0
 40
1.0
 40
1.0
 40
1.0
 10
643.9093612756546
 20
381.1743217363037
 30
0.0
 10
643.9093612756546
 20
382.2791638584233
 30
0.0
 10
643.0143254685868
 20
383.1741996654912
 30
0.0
 10
641.9094833464671
 20
383.1741996654912
 30
0.0
  0
POLYLINE
  5
582
330
3C
100
AcDbEntity
  8
Layer 1
 62
     7
370
    15
100
AcDb2dPolyline
 66
     1
 10
0.0
 20
0.0
 30
0.0
  0
VERTEX
  5
583
330
582
100
AcDbEntity
  8
Layer 1
 62
     7
370
    15
100
AcDbVertex
100
AcDb2dVertex
 10
256.1962483083468
 20
227.1062065404457
 30
0.0
  0
VERTEX
  5
584
330
582
100
AcDbEntity
  8
Layer 1
 62
     7
370
    15
100
AcDbVertex
100
AcDb2dVertex
 10
252.2088947937186
 20
379.3742593452606
 30
0.0
  0
SEQEND
  5
585
330
582
100
AcDbEntity
  8
Layer 1
370
    15
  0
POLYLINE
  5
586
330
3C
100
AcDbEntity
  8
Layer 1
 62
     7
370
    15
100
AcDb2dPolyline
 66
     1
 10
0.0
 20
0.0
 30
0.0
  0
VERTEX
  5
587
330
586
100
AcDbEntity
  8
Layer 1
 62
     7
370
    15
100
AcDbVertex
100
AcDb2dVertex
 10
629.6232393174206
 20
227.1062065404457
 30
0.0
  0
VERTEX
  5
588
330
586
100
AcDbEntity
  8
Layer 1
 62
     7
370
    15
100
AcDbVertex
100
AcDb2dVertex
 10
633.6105928320487
 20
379.3742593452606
 30
0.0
  0
SEQEND
  5
589
330
586
100
AcDbEntity
  8
Layer 1
370
    15
  0
POLYLINE
  5
58A
330
3C
100
AcDbEntity
  8
Layer 1
 62
     7
370
    15
100
AcDb2dPolyline
 66
     1
 10
0.0
 20
0.0
 30
0.0
  0
VERTEX
  5
58B
330
58A
100
AcDbEntity
  8
Layer 1
 62
     7
370
    15
100
AcDbVertex
100
AcDb2dVertex
 10
333.4099676358315
 20
187.3746093281564
 30
0.0
  0
VERTEX
  5
58C
330
58A
100
AcDbEntity
  8
Layer 1
 62
     7
370
    15
100
AcDbVertex
100
AcDb2dVertex
 10
552.4096922447101
 20
187.3746093281564
 30
0.0
  0
SEQEND
  5
58D
330
58A
100
AcDbEntity
  8
Layer 1
370
    15
  0
SPLINE
  5
58E
330
3C
100
AcDbEntity
  8
Layer 1
 62
     7
370
    15
100
AcDbSpline
210
0.0
220
0.0
230
1.0
 70
     8
 71
     3
 72
     8
 73
     4
 74
     0
 42
0.0000000001
 43
0.0000000001
 40
0.0
 40
0.0
 40
0.0
 40
0.0
 40
1.0
 40
1.0
 40
1.0
 40
1.0
 10
588.8367538675478
 20
187.3746093281564
 30
0.0
 10
610.9546113924002
 20
187.3746093281564
 30
0.0
 10
629.0444632758986
 20
204.9969617543063
 30
0.0
 10
629.6232393174206
 20
227.1062065404457
 30
0.0
  0
POLYLINE
  5
58F
330
3C
100
AcDbEntity
  8
Layer 1
 62
     7
370
    15
100
AcDb2dPolyline
 66
     1
 10
0.0
 20
0.0
 30
0.0
  0
VERTEX
  5
590
330
58F
100
AcDbEntity
  8
Layer 1
 62
     7
370
    15
100
AcDbVertex
100
AcDb2dVertex
 10
552.4096922447101
 20
187.3746093281564
 30
0.0
  0
VERTEX
  5
591
330
58F
100
AcDbEntity
  8
Layer 1
 62
     7
370
    15
100
AcDbVertex
100
AcDb2dVertex
 10
588.8367538675478
 20
187.3746093281564
 30
0.0
  0
SEQEND
  5
592
330
58F
100
AcDbEntity
  8
Layer 1
370
    15
  0
POLYLINE
  5
593
330
3C
100
AcDbEntity
  8
Layer 1
 62
     7
370
    15
100
AcDb2dPolyline
 66
     1
 10
0.0
 20
0.0
 30
0.0
  0
VERTEX
  5
594
330
593
100
AcDbEntity
  8
Layer 1
 62
     7
370
    15
100
AcDbVertex
100
AcDb2dVertex
 10
296.9822169938968
 20
187.3746093281564
 30
0.0
  0
VERTEX
  5
595
330
593
100
AcDbEntity
  8
Layer 1
 62
     7
370
    15
100
AcDbVertex
100
AcDb2dVertex
 10
333.4099676358315
 20
187.3746093281564
 30
0.0
  0
SEQEND
  5
596
330
593
100
AcDbEntity
  8
Layer 1
370
    15
  0
SPLINE
  5
597
330
3C
100
AcDbEntity
  8
Layer 1
 62
     7
370
    15
100
AcDbSpline
210
0.0
220
0.0
230
1.0
 70
     8
 71
     3
 72
     8
 73
     4
 74
     0
 42
0.0000000001
 43
0.0000000001
 40
0.0
 40
0.0
 40
0.0
 40
0.0
 40
1.0
 40
1.0
 40
1.0
 40
1.0
 10
256.1962483083468
 20
227.1062065404457
 30
0.0
 10
256.775196604643
 20
204.9969617543063
 30
0.0
 10
274.8653929976899
 20
187.3746093281564
 30
0.0
 10
296.9822169938968
 20
187.3746093281564
 30
0.0
  0
POLYLINE
  5
598
330
3C
100
AcDbEntity
  8
Layer 1
 62
     7
370
    15
100
AcDb2dPolyline
 66
     1
 10
0.0
 20
0.0
 30
0.0
  0
VERTEX
  5
599
330
598
100
AcDbEntity
  8
Layer 1
 62
     7
370
    15
100
AcDbVertex
100
AcDb2dVertex
 10
444.4097383871615
 20
185.4305419458299
 30
0.0
  0
VERTEX
  5
59A
330
598
100
AcDbEntity
  8
Layer 1
 62
     7
370
    15
100
AcDbVertex
100
AcDb2dVertex
 10
499.7968830130716
 20
185.4305419458299
 30
0.0
  0
SEQEND
  5
59B
330
598
100
AcDbEntity
  8
Layer 1
370
    15
  0
POLYLINE
  5
59C
330
3C
100
AcDbEntity
  8
Layer 1
 62
     7
370
    15
100
AcDb2dPolyline
 66
     1
 10
0.0
 20
0.0
 30
0.0
  0
VERTEX
  5
59D
330
59C
100
AcDbEntity
  8
Layer 1
 62
     7
370
    15
100
AcDbVertex
100
AcDb2dVertex
 10
389.0225937612513
 20
185.4305419458299
 30
0.0
  0
VERTEX
  5
59E
330
59C
100
AcDbEntity
  8
Layer 1
 62
     7
370
    15
100
AcDbVertex
100
AcDb2dVertex
 10
444.4097383871615
 20
185.4305419458299
 30
0.0
  0
SEQEND
  5
59F
330
59C
100
AcDbEntity
  8
Layer 1
370
    15
  0
POLYLINE
  5
5A0
330
3C
100
AcDbEntity
  8
Layer 1
 62
     7
370
    15
100
AcDb2dPolyline
 66
     1
 10
0.0
 20
0.0
 30
0.0
  0
VERTEX
  5
5A1
330
5A0
100
AcDbEntity
  8
Layer 1
 62
     7
370
    15
100
AcDbVertex
100
AcDb2dVertex
 10
444.4097383871615
 20
183.5987846763225
 30
0.0
  0
VERTEX
  5
5A2
330
5A0
100
AcDbEntity
  8
Layer 1
 62
     7
370
    15
100
AcDbVertex
100
AcDb2dVertex
 10
399.4097289040538
 20
183.5987846763225
 30
0.0
  0
SEQEND
  5
5A3
330
5A0
100
AcDbEntity
  8
Layer 1
370
    15
  0
POLYLINE
  5
5A4
330
3C
100
AcDbEntity
  8
Layer 1
 62
     7
370
    15
100
AcDb2dPolyline
 66
     1
 10
0.0
 20
0.0
 30
0.0
  0
VERTEX
  5
5A5
330
5A4
100
AcDbEntity
  8
Layer 1
 62
     7
370
    15
100
AcDbVertex
100
AcDb2dVertex
 10
489.4095756154949
 20
183.5987846763225
 30
0.0
  0
VERTEX
  5
5A6
330
5A4
100
AcDbEntity
  8
Layer 1
 62
     7
370
    15
100
AcDbVertex
100
AcDb2dVertex
 10
444.4097383871615
 20
183.5987846763225
 30
0.0
  0
SEQEND
  5
5A7
330
5A4
100
AcDbEntity
  8
Layer 1
370
    15
  0
POLYLINE
  5
5A8
330
3C
100
AcDbEntity
  8
Layer 1
 62
   253
370
    15
100
AcDb2dPolyline
 66
     1
 10
0.0
 20
0.0
 30
0.0
  0
VERTEX
  5
5A9
330
5A8
100
AcDbEntity
  8
Layer 1
 62
   253
370
    15
100
AcDbVertex
100
AcDb2dVertex
 10
244.9264797022232
 20
384.5742864706967
 30
0.0
  0
VERTEX
  5
5AA
330
5A8
100
AcDbEntity
  8
Layer 1
 62
   253
370
    15
100
AcDbVertex
100
AcDb2dVertex
 10
237.5679280005039
 20
384.5742864706967
 30
0.0
  0
SEQEND
  5
5AB
330
5A8
100
AcDbEntity
  8
Layer 1
370
    15
  0
POLYLINE
  5
5AC
330
3C
100
AcDbEntity
  8
Layer 1
 62
   253
370
    15
100
AcDb2dPolyline
 66
     1
 10
0.0
 20
0.0
 30
0.0
  0
VERTEX
  5
5AD
330
5AC
100
AcDbEntity
  8
Layer 1
 62
   253
370
    15
100
AcDbVertex
100
AcDb2dVertex
 10
648.251215115715
 20
384.5742864706967
 30
0.0
  0
VERTEX
  5
5AE
330
5AC
100
AcDbEntity
  8
Layer 1
 62
   253
370
    15
100
AcDbVertex
100
AcDb2dVertex
 10
640.8931801783184
 20
384.5742864706967
 30
0.0
  0
SEQEND
  5
5AF
330
5AC
100
AcDbEntity
  8
Layer 1
370
    15
  0
POLYLINE
  5
5B0
330
3C
100
AcDbEntity
  8
Layer 1
 62
   253
370
    15
100
AcDb2dPolyline
 66
     1
 10
0.0
 20
0.0
 30
0.0
  0
VERTEX
  5
5B1
330
5B0
100
AcDbEntity
  8
Layer 1
 62
   253
370
    15
100
AcDbVertex
100
AcDb2dVertex
 10
613.8436684663308
 20
384.5742864706967
 30
0.0
  0
VERTEX
  5
5B2
330
5B0
100
AcDbEntity
  8
Layer 1
 62
   253
370
    15
100
AcDbVertex
100
AcDb2dVertex
 10
611.3463187490731
 20
384.5742864706967
 30
0.0
  0
SEQEND
  5
5B3
330
5B0
100
AcDbEntity
  8
Layer 1
370
    15
  0
POLYLINE
  5
5B4
330
3C
100
AcDbEntity
  8
Layer 1
 62
   253
370
    15
100
AcDb2dPolyline
 66
     1
 10
0.0
 20
0.0
 30
0.0
  0
VERTEX
  5
5B5
330
5B4
100
AcDbEntity
  8
Layer 1
 62
   253
370
    15
100
AcDbVertex
100
AcDb2dVertex
 10
274.4731688766942
 20
384.5742864706967
 30
0.0
  0
VERTEX
  5
5B6
330
5B4
100
AcDbEntity
  8
Layer 1
 62
   253
370
    15
100
AcDbVertex
100
AcDb2dVertex
 10
271.9753023951138
 20
384.5742864706967
 30
0.0
  0
SEQEND
  5
5B7
330
5B4
100
AcDbEntity
  8
Layer 1
370
    15
  0
POLYLINE
  5
5B8
330
3C
100
AcDbEntity
  8
Layer 1
 62
   253
370
    15
100
AcDb2dPolyline
 66
     1
 10
0.0
 20
0.0
 30
0.0
  0
VERTEX
  5
5B9
330
5B8
100
AcDbEntity
  8
Layer 1
 62
   253
370
    15
100
AcDbVertex
100
AcDb2dVertex
 10
277.204268322626
 20
381.1743217363037
 30
0.0
  0
VERTEX
  5
5BA
330
5B8
100
AcDbEntity
  8
Layer 1
 62
   253
370
    15
100
AcDbVertex
100
AcDb2dVertex
 10
269.244202949182
 20
381.1743217363037
 30
0.0
  0
SEQEND
  5
5BB
330
5B8
100
AcDbEntity
  8
Layer 1
370
    15
  0
POLYLINE
  5
5BC
330
3C
100
AcDbEntity
  8
Layer 1
 62
   253
370
    15
100
AcDb2dPolyline
 66
     1
 10
0.0
 20
0.0
 30
0.0
  0
VERTEX
  5
5BD
330
5BC
100
AcDbEntity
  8
Layer 1
 62
   253
370
    15
100
AcDbVertex
100
AcDb2dVertex
 10
249.7347994709864
 20
381.1743217363037
 30
0.0
  0
VERTEX
  5
5BE
330
5BC
100
AcDbEntity
  8
Layer 1
 62
   253
370
    15
100
AcDbVertex
100
AcDb2dVertex
 10
241.9099540953385
 20
381.1743217363037
 30
0.0
  0
SEQEND
  5
5BF
330
5BC
100
AcDbEntity
  8
Layer 1
370
    15
  0
POLYLINE
  5
5C0
330
3C
100
AcDbEntity
  8
Layer 1
 62
   253
370
    15
100
AcDb2dPolyline
 66
     1
 10
0.0
 20
0.0
 30
0.0
  0
VERTEX
  5
5C1
330
5C0
100
AcDbEntity
  8
Layer 1
 62
   253
370
    15
100
AcDbVertex
100
AcDb2dVertex
 10
643.9093612756546
 20
381.1743217363037
 30
0.0
  0
VERTEX
  5
5C2
330
5C0
100
AcDbEntity
  8
Layer 1
 62
   253
370
    15
100
AcDbVertex
100
AcDb2dVertex
 10
636.0845159000066
 20
381.1743217363037
 30
0.0
  0
SEQEND
  5
5C3
330
5C0
100
AcDbEntity
  8
Layer 1
370
    15
  0
POLYLINE
  5
5C4
330
3C
100
AcDbEntity
  8
Layer 1
 62
   253
370
    15
100
AcDb2dPolyline
 66
     1
 10
0.0
 20
0.0
 30
0.0
  0
VERTEX
  5
5C5
330
5C4
100
AcDbEntity
  8
Layer 1
 62
   253
370
    15
100
AcDbVertex
100
AcDb2dVertex
 10
616.5749401670369
 20
381.1743217363037
 30
0.0
  0
VERTEX
  5
5C6
330
5C4
100
AcDbEntity
  8
Layer 1
 62
   253
370
    15
100
AcDbVertex
100
AcDb2dVertex
 10
608.6153915579156
 20
381.1743217363037
 30
0.0
  0
SEQEND
  5
5C7
330
5C4
100
AcDbEntity
  8
Layer 1
370
    15
  0
POLYLINE
  5
5C8
330
3C
100
AcDbEntity
  8
Layer 1
370
     0
100
AcDb2dPolyline
 66
     1
 10
0.0
 20
0.0
 30
0.0
  0
VERTEX
  5
5C9
330
5C8
100
AcDbEntity
  8
Layer 1
370
     0
100
AcDbVertex
100
AcDb2dVertex
 10
112.910076197901
 20
183.5987846763225
 30
0.0
  0
VERTEX
  5
5CA
330
5C8
100
AcDbEntity
  8
Layer 1
370
     0
100
AcDbVertex
100
AcDb2dVertex
 10
107.9098646106093
 20
213.5986761618781
 30
0.0
  0
VERTEX
  5
5CB
330
5C8
100
AcDbEntity
  8
Layer 1
370
     0
100
AcDbVertex
100
AcDb2dVertex
 10
117.9101155304183
 20
213.5986761618781
 30
0.0
  0
SEQEND
  5
5CC
330
5C8
100
AcDbEntity
  8
Layer 1
370
     0
  0
HATCH
  5
5CD
330
3C
100
AcDbEntity
  8
Layer 1
 62
     7
100
AcDbHatch
 10
0.0
 20
0.0
 30
0.0
210
0.0
220
0.0
230
1.0
  2
SOLID
 70
     1
 71
     0
 91
        1
 92
        1
 93
        3
 72
     1
 10
112.910076197901
 20
183.5987846763225
 11
107.9098646106093
 21
213.5986761618781
 72
     1
 10
107.9098646106093
 20
213.5986761618781
 11
117.9101155304183
 21
213.5986761618781
 72
     1
 10
117.9101155304183
 20
213.5986761618781
 11
112.910076197901
 21
183.5987846763225
 97
        0
 75
     2
 76
     1
 98
        0
  0
POLYLINE
  5
5CE
330
3C
100
AcDbEntity
  8
Layer 1
370
     0
100
AcDb2dPolyline
 66
     1
 10
0.0
 20
0.0
 30
0.0
  0
VERTEX
  5
5CF
330
5CE
100
AcDbEntity
  8
Layer 1
370
     0
100
AcDbVertex
100
AcDb2dVertex
 10
112.910076197901
 20
395.9747964504855
 30
0.0
  0
VERTEX
  5
5D0
330
5CE
100
AcDbEntity
  8
Layer 1
370
     0
100
AcDbVertex
100
AcDb2dVertex
 10
117.9101155304183
 20
365.9745604553814
 30
0.0
  0
VERTEX
  5
5D1
330
5CE
100
AcDbEntity
  8
Layer 1
370
     0
100
AcDbVertex
100
AcDb2dVertex
 10
107.9098646106093
 20
365.9745604553814
 30
0.0
  0
SEQEND
  5
5D2
330
5CE
100
AcDbEntity
  8
Layer 1
370
     0
  0
HATCH
  5
5D3
330
3C
100
AcDbEntity
  8
Layer 1
 62
     7
100
AcDbHatch
 10
0.0
 20
0.0
 30
0.0
210
0.0
220
0.0
230
1.0
  2
SOLID
 70
     1
 71
     0
 91
        1
 92
        1
 93
        3
 72
     1
 10
112.910076197901
 20
395.9747964504855
 11
117.9101155304183
 21
365.9745604553814
 72
     1
 10
117.9101155304183
 20
365.9745604553814
 11
107.9098646106093
 21
365.9745604553814
 72
     1
 10
107.9098646106093
 20
365.9745604553814
 11
112.910076197901
 21
395.9747964504855
 97
        0
 75
     2
 76
     1
 98
        0
  0
POLYLINE
  5
5D4
330
3C
100
AcDbEntity
  8
Layer 1
 62
     7
370
    25
100
AcDb2dPolyline
 66
     1
 10
0.0
 20
0.0
 30
0.0
  0
VERTEX
  5
5D5
330
5D4
100
AcDbEntity
  8
Layer 1
 62
     7
370
    25
100
AcDbVertex
100
AcDb2dVertex
 10
243.0830091080661
 20
183.5987846763225
 30
0.0
  0
VERTEX
  5
5D6
330
5D4
100
AcDbEntity
  8
Layer 1
 62
     7
370
    25
100
AcDbVertex
100
AcDb2dVertex
 10
102.9101697876405
 20
183.5987846763225
 30
0.0
  0
SEQEND
  5
5D7
330
5D4
100
AcDbEntity
  8
Layer 1
370
    25
  0
POLYLINE
  5
5D8
330
3C
100
AcDbEntity
  8
Layer 1
 62
     7
370
    25
100
AcDb2dPolyline
 66
     1
 10
0.0
 20
0.0
 30
0.0
  0
VERTEX
  5
5D9
330
5D8
100
AcDbEntity
  8
Layer 1
 62
     7
370
    25
100
AcDbVertex
100
AcDb2dVertex
 10
172.2940483510237
 20
395.9747964504855
 30
0.0
  0
VERTEX
  5
5DA
330
5D8
100
AcDbEntity
  8
Layer 1
 62
     7
370
    25
100
AcDbVertex
100
AcDb2dVertex
 10
102.9101697876405
 20
395.9747964504855
 30
0.0
  0
SEQEND
  5
5DB
330
5D8
100
AcDbEntity
  8
Layer 1
370
    25
  0
POLYLINE
  5
5DC
330
3C
100
AcDbEntity
  8
Layer 1
 62
     7
370
    25
100
AcDb2dPolyline
 66
     1
 10
0.0
 20
0.0
 30
0.0
  0
VERTEX
  5
5DD
330
5DC
100
AcDbEntity
  8
Layer 1
 62
     7
370
    25
100
AcDbVertex
100
AcDb2dVertex
 10
112.910076197901
 20
183.5987846763225
 30
0.0
  0
VERTEX
  5
5DE
330
5DC
100
AcDbEntity
  8
Layer 1
 62
     7
370
    25
100
AcDbVertex
100
AcDb2dVertex
 10
112.910076197901
 20
395.9747964504855
 30
0.0
  0
SEQEND
  5
5DF
330
5DC
100
AcDbEntity
  8
Layer 1
370
    25
  0
POLYLINE
  5
5E0
330
3C
100
AcDbEntity
  8
Layer 1
 62
     7
370
    25
100
AcDb2dPolyline
 66
     1
 10
0.0
 20
0.0
 30
0.0
  0
VERTEX
  5
5E1
330
5E0
100
AcDbEntity
  8
Layer 1
 62
     7
370
    25
100
AcDbVertex
100
AcDb2dVertex
 10
65.39514701056093
 20
227.0362711020951
 30
0.0
  0
VERTEX
  5
5E2
330
5E0
100
AcDbEntity
  8
Layer 1
 62
     7
370
    25
100
AcDbVertex
100
AcDb2dVertex
 10
58.33941920199501
 20
232.3282822769874
 30
0.0
  0
SEQEND
  5
5E3
330
5E0
100
AcDbEntity
  8
Layer 1
370
    25
  0
POLYLINE
  5
5E4
330
3C
100
AcDbEntity
  8
Layer 1
 62
     7
370
    25
100
AcDb2dPolyline
 66
     1
 10
0.0
 20
0.0
 30
0.0
  0
VERTEX
  5
5E5
330
5E4
100
AcDbEntity
  8
Layer 1
 62
     7
370
    25
100
AcDbVertex
100
AcDb2dVertex
 10
58.33941920199501
 20
232.3282822769874
 30
0.0
  0
VERTEX
  5
5E6
330
5E4
100
AcDbEntity
  8
Layer 1
 62
     7
370
    25
100
AcDbVertex
100
AcDb2dVertex
 10
58.33941920199501
 20
242.9116156076749
 30
0.0
  0
SEQEND
  5
5E7
330
5E4
100
AcDbEntity
  8
Layer 1
370
    25
  0
POLYLINE
  5
5E8
330
3C
100
AcDbEntity
  8
Layer 1
 62
     7
370
    25
100
AcDb2dPolyline
 66
     1
 10
0.0
 20
0.0
 30
0.0
  0
VERTEX
  5
5E9
330
5E8
100
AcDbEntity
  8
Layer 1
 62
     7
370
    25
100
AcDbVertex
100
AcDb2dVertex
 10
58.33941920199501
 20
242.9116156076749
 30
0.0
  0
VERTEX
  5
5EA
330
5E8
100
AcDbEntity
  8
Layer 1
 62
     7
370
    25
100
AcDbVertex
100
AcDb2dVertex
 10
65.39514701056093
 20
248.2032822730186
 30
0.0
  0
SEQEND
  5
5EB
330
5E8
100
AcDbEntity
  8
Layer 1
370
    25
  0
POLYLINE
  5
5EC
330
3C
100
AcDbEntity
  8
Layer 1
 62
     7
370
    25
100
AcDb2dPolyline
 66
     1
 10
0.0
 20
0.0
 30
0.0
  0
VERTEX
  5
5ED
330
5EC
100
AcDbEntity
  8
Layer 1
 62
     7
370
    25
100
AcDbVertex
100
AcDb2dVertex
 10
65.39514701056093
 20
248.2032822730186
 30
0.0
  0
VERTEX
  5
5EE
330
5EC
100
AcDbEntity
  8
Layer 1
 62
     7
370
    25
100
AcDbVertex
100
AcDb2dVertex
 10
72.45087481912687
 20
248.2032822730186
 30
0.0
  0
SEQEND
  5
5EF
330
5EC
100
AcDbEntity
  8
Layer 1
370
    25
  0
POLYLINE
  5
5F0
330
3C
100
AcDbEntity
  8
Layer 1
 62
     7
370
    25
100
AcDb2dPolyline
 66
     1
 10
0.0
 20
0.0
 30
0.0
  0
VERTEX
  5
5F1
330
5F0
100
AcDbEntity
  8
Layer 1
 62
     7
370
    25
100
AcDbVertex
100
AcDb2dVertex
 10
72.45087481912687
 20
248.2032822730186
 30
0.0
  0
VERTEX
  5
5F2
330
5F0
100
AcDbEntity
  8
Layer 1
 62
     7
370
    25
100
AcDbVertex
100
AcDb2dVertex
 10
79.50625811814427
 20
242.9116156076749
 30
0.0
  0
SEQEND
  5
5F3
330
5F0
100
AcDbEntity
  8
Layer 1
370
    25
  0
POLYLINE
  5
5F4
330
3C
100
AcDbEntity
  8
Layer 1
 62
     7
370
    25
100
AcDb2dPolyline
 66
     1
 10
0.0
 20
0.0
 30
0.0
  0
VERTEX
  5
5F5
330
5F4
100
AcDbEntity
  8
Layer 1
 62
     7
370
    25
100
AcDbVertex
100
AcDb2dVertex
 10
79.50625811814427
 20
242.9116156076749
 30
0.0
  0
VERTEX
  5
5F6
330
5F4
100
AcDbEntity
  8
Layer 1
 62
     7
370
    25
100
AcDbVertex
100
AcDb2dVertex
 10
79.50625811814427
 20
232.3282822769874
 30
0.0
  0
SEQEND
  5
5F7
330
5F4
100
AcDbEntity
  8
Layer 1
370
    25
  0
POLYLINE
  5
5F8
330
3C
100
AcDbEntity
  8
Layer 1
 62
     7
370
    25
100
AcDb2dPolyline
 66
     1
 10
0.0
 20
0.0
 30
0.0
  0
VERTEX
  5
5F9
330
5F8
100
AcDbEntity
  8
Layer 1
 62
     7
370
    25
100
AcDbVertex
100
AcDb2dVertex
 10
79.50625811814427
 20
232.3282822769874
 30
0.0
  0
VERTEX
  5
5FA
330
5F8
100
AcDbEntity
  8
Layer 1
 62
     7
370
    25
100
AcDbVertex
100
AcDb2dVertex
 10
86.56164141716168
 20
227.0362711020951
 30
0.0
  0
SEQEND
  5
5FB
330
5F8
100
AcDbEntity
  8
Layer 1
370
    25
  0
POLYLINE
  5
5FC
330
3C
100
AcDbEntity
  8
Layer 1
 62
     7
370
    25
100
AcDb2dPolyline
 66
     1
 10
0.0
 20
0.0
 30
0.0
  0
VERTEX
  5
5FD
330
5FC
100
AcDbEntity
  8
Layer 1
 62
     7
370
    25
100
AcDbVertex
100
AcDb2dVertex
 10
86.56164141716168
 20
227.0362711020951
 30
0.0
  0
VERTEX
  5
5FE
330
5FC
100
AcDbEntity
  8
Layer 1
 62
     7
370
    25
100
AcDbVertex
100
AcDb2dVertex
 10
100.672752524745
 20
227.0362711020951
 30
0.0
  0
SEQEND
  5
5FF
330
5FC
100
AcDbEntity
  8
Layer 1
370
    25
  0
POLYLINE
  5
600
330
3C
100
AcDbEntity
  8
Layer 1
 62
     7
370
    25
100
AcDb2dPolyline
 66
     1
 10
0.0
 20
0.0
 30
0.0
  0
VERTEX
  5
601
330
600
100
AcDbEntity
  8
Layer 1
 62
     7
370
    25
100
AcDbVertex
100
AcDb2dVertex
 10
100.672752524745
 20
227.0362711020951
 30
0.0
  0
VERTEX
  5
602
330
600
100
AcDbEntity
  8
Layer 1
 62
     7
370
    25
100
AcDbVertex
100
AcDb2dVertex
 10
100.672752524745
 20
248.2032822730186
 30
0.0
  0
SEQEND
  5
603
330
600
100
AcDbEntity
  8
Layer 1
370
    25
  0
POLYLINE
  5
604
330
3C
100
AcDbEntity
  8
Layer 1
 62
     7
370
    25
100
AcDb2dPolyline
 66
     1
 10
0.0
 20
0.0
 30
0.0
  0
VERTEX
  5
605
330
604
100
AcDbEntity
  8
Layer 1
 62
     7
370
    25
100
AcDbVertex
100
AcDb2dVertex
 10
100.672752524745
 20
258.7859265846091
 30
0.0
  0
VERTEX
  5
606
330
604
100
AcDbEntity
  8
Layer 1
 62
     7
370
    25
100
AcDbVertex
100
AcDb2dVertex
 10
100.672752524745
 20
269.3692599152966
 30
0.0
  0
SEQEND
  5
607
330
604
100
AcDbEntity
  8
Layer 1
370
    25
  0
POLYLINE
  5
608
330
3C
100
AcDbEntity
  8
Layer 1
 62
     7
370
    25
100
AcDb2dPolyline
 66
     1
 10
0.0
 20
0.0
 30
0.0
  0
VERTEX
  5
609
330
608
100
AcDbEntity
  8
Layer 1
 62
     7
370
    25
100
AcDbVertex
100
AcDb2dVertex
 10
100.672752524745
 20
264.0775932499528
 30
0.0
  0
VERTEX
  5
60A
330
608
100
AcDbEntity
  8
Layer 1
 62
     7
370
    25
100
AcDbVertex
100
AcDb2dVertex
 10
58.33941920199501
 20
264.0775932499528
 30
0.0
  0
SEQEND
  5
60B
330
608
100
AcDbEntity
  8
Layer 1
370
    25
  0
POLYLINE
  5
60C
330
3C
100
AcDbEntity
  8
Layer 1
 62
     7
370
    25
100
AcDb2dPolyline
 66
     1
 10
0.0
 20
0.0
 30
0.0
  0
VERTEX
  5
60D
330
60C
100
AcDbEntity
  8
Layer 1
 62
     7
370
    25
100
AcDbVertex
100
AcDb2dVertex
 10
58.33941920199501
 20
264.0775932499528
 30
0.0
  0
VERTEX
  5
60E
330
60C
100
AcDbEntity
  8
Layer 1
 62
     7
370
    25
100
AcDbVertex
100
AcDb2dVertex
 10
65.39514701056093
 20
258.7859265846091
 30
0.0
  0
SEQEND
  5
60F
330
60C
100
AcDbEntity
  8
Layer 1
370
    25
  0
POLYLINE
  5
610
330
3C
100
AcDbEntity
  8
Layer 1
 62
     7
370
    25
100
AcDb2dPolyline
 66
     1
 10
0.0
 20
0.0
 30
0.0
  0
VERTEX
  5
611
330
610
100
AcDbEntity
  8
Layer 1
 62
     7
370
    25
100
AcDbVertex
100
AcDb2dVertex
 10
65.39514701056093
 20
279.9529377555326
 30
0.0
  0
VERTEX
  5
612
330
610
100
AcDbEntity
  8
Layer 1
 62
     7
370
    25
100
AcDbVertex
100
AcDb2dVertex
 10
58.33941920199501
 20
285.2446044208764
 30
0.0
  0
SEQEND
  5
613
330
610
100
AcDbEntity
  8
Layer 1
370
    25
  0
POLYLINE
  5
614
330
3C
100
AcDbEntity
  8
Layer 1
 62
     7
370
    25
100
AcDb2dPolyline
 66
     1
 10
0.0
 20
0.0
 30
0.0
  0
VERTEX
  5
615
330
614
100
AcDbEntity
  8
Layer 1
 62
     7
370
    25
100
AcDbVertex
100
AcDb2dVertex
 10
58.33941920199501
 20
285.2446044208764
 30
0.0
  0
VERTEX
  5
616
330
614
100
AcDbEntity
  8
Layer 1
 62
     7
370
    25
100
AcDbVertex
100
AcDb2dVertex
 10
58.33941920199501
 20
295.8279377515639
 30
0.0
  0
SEQEND
  5
617
330
614
100
AcDbEntity
  8
Layer 1
370
    25
  0
POLYLINE
  5
618
330
3C
100
AcDbEntity
  8
Layer 1
 62
     7
370
    25
100
AcDb2dPolyline
 66
     1
 10
0.0
 20
0.0
 30
0.0
  0
VERTEX
  5
619
330
618
100
AcDbEntity
  8
Layer 1
 62
     7
370
    25
100
AcDbVertex
100
AcDb2dVertex
 10
58.33941920199501
 20
295.8279377515639
 30
0.0
  0
VERTEX
  5
61A
330
618
100
AcDbEntity
  8
Layer 1
 62
     7
370
    25
100
AcDbVertex
100
AcDb2dVertex
 10
65.39514701056093
 20
301.1196044169076
 30
0.0
  0
SEQEND
  5
61B
330
618
100
AcDbEntity
  8
Layer 1
370
    25
  0
POLYLINE
  5
61C
330
3C
100
AcDbEntity
  8
Layer 1
 62
     7
370
    25
100
AcDb2dPolyline
 66
     1
 10
0.0
 20
0.0
 30
0.0
  0
VERTEX
  5
61D
330
61C
100
AcDbEntity
  8
Layer 1
 62
     7
370
    25
100
AcDbVertex
100
AcDb2dVertex
 10
65.39514701056093
 20
301.1196044169076
 30
0.0
  0
VERTEX
  5
61E
330
61C
100
AcDbEntity
  8
Layer 1
 62
     7
370
    25
100
AcDbVertex
100
AcDb2dVertex
 10
72.45087481912687
 20
301.1196044169076
 30
0.0
  0
SEQEND
  5
61F
330
61C
100
AcDbEntity
  8
Layer 1
370
    25
  0
POLYLINE
  5
620
330
3C
100
AcDbEntity
  8
Layer 1
 62
     7
370
    25
100
AcDb2dPolyline
 66
     1
 10
0.0
 20
0.0
 30
0.0
  0
VERTEX
  5
621
330
620
100
AcDbEntity
  8
Layer 1
 62
     7
370
    25
100
AcDbVertex
100
AcDb2dVertex
 10
72.45087481912687
 20
301.1196044169076
 30
0.0
  0
VERTEX
  5
622
330
620
100
AcDbEntity
  8
Layer 1
 62
     7
370
    25
100
AcDbVertex
100
AcDb2dVertex
 10
79.50625811814427
 20
295.8279377515639
 30
0.0
  0
SEQEND
  5
623
330
620
100
AcDbEntity
  8
Layer 1
370
    25
  0
POLYLINE
  5
624
330
3C
100
AcDbEntity
  8
Layer 1
 62
     7
370
    25
100
AcDb2dPolyline
 66
     1
 10
0.0
 20
0.0
 30
0.0
  0
VERTEX
  5
625
330
624
100
AcDbEntity
  8
Layer 1
 62
     7
370
    25
100
AcDbVertex
100
AcDb2dVertex
 10
79.50625811814427
 20
295.8279377515639
 30
0.0
  0
VERTEX
  5
626
330
624
100
AcDbEntity
  8
Layer 1
 62
     7
370
    25
100
AcDbVertex
100
AcDb2dVertex
 10
79.50625811814427
 20
285.2446044208764
 30
0.0
  0
SEQEND
  5
627
330
624
100
AcDbEntity
  8
Layer 1
370
    25
  0
POLYLINE
  5
628
330
3C
100
AcDbEntity
  8
Layer 1
 62
     7
370
    25
100
AcDb2dPolyline
 66
     1
 10
0.0
 20
0.0
 30
0.0
  0
VERTEX
  5
629
330
628
100
AcDbEntity
  8
Layer 1
 62
     7
370
    25
100
AcDbVertex
100
AcDb2dVertex
 10
79.50625811814427
 20
285.2446044208764
 30
0.0
  0
VERTEX
  5
62A
330
628
100
AcDbEntity
  8
Layer 1
 62
     7
370
    25
100
AcDbVertex
100
AcDb2dVertex
 10
86.56164141716168
 20
279.9529377555326
 30
0.0
  0
SEQEND
  5
62B
330
628
100
AcDbEntity
  8
Layer 1
370
    25
  0
POLYLINE
  5
62C
330
3C
100
AcDbEntity
  8
Layer 1
 62
     7
370
    25
100
AcDb2dPolyline
 66
     1
 10
0.0
 20
0.0
 30
0.0
  0
VERTEX
  5
62D
330
62C
100
AcDbEntity
  8
Layer 1
 62
     7
370
    25
100
AcDbVertex
100
AcDb2dVertex
 10
86.56164141716168
 20
279.9529377555326
 30
0.0
  0
VERTEX
  5
62E
330
62C
100
AcDbEntity
  8
Layer 1
 62
     7
370
    25
100
AcDbVertex
100
AcDb2dVertex
 10
100.672752524745
 20
279.9529377555326
 30
0.0
  0
SEQEND
  5
62F
330
62C
100
AcDbEntity
  8
Layer 1
370
    25
  0
POLYLINE
  5
630
330
3C
100
AcDbEntity
  8
Layer 1
 62
     7
370
    25
100
AcDb2dPolyline
 66
     1
 10
0.0
 20
0.0
 30
0.0
  0
VERTEX
  5
631
330
630
100
AcDbEntity
  8
Layer 1
 62
     7
370
    25
100
AcDbVertex
100
AcDb2dVertex
 10
100.672752524745
 20
279.9529377555326
 30
0.0
  0
VERTEX
  5
632
330
630
100
AcDbEntity
  8
Layer 1
 62
     7
370
    25
100
AcDbVertex
100
AcDb2dVertex
 10
100.672752524745
 20
301.1196044169076
 30
0.0
  0
SEQEND
  5
633
330
630
100
AcDbEntity
  8
Layer 1
370
    25
  0
ENDBLK
  5
3F
330
3C
100
AcDbEntity
  8
0
100
AcDbBlockEnd
  0
BLOCK
  5
637
330
635
100
AcDbEntity
  8
0
100
AcDbBlockBegin
  2
block 3
 70
     0
 71
     0
 10
0.0
 20
0.0
 30
0.0
  3
block 3
  1

  0
SPLINE
  5
639
330
635
100
AcDbEntity
  8
Layer 1
370
     0
100
AcDbSpline
210
0.0
220
0.0
230
1.0
 70
    11
 71
     3
 72
    38
 73
    34
 74
     0
 42
0.0000000001
 43
0.0000000001
 40
0.0
 40
0.0
 40
0.0
 40
0.0
 40
1.0
 40
1.0
 40
1.0
 40
2.0
 40
2.0
 40
2.0
 40
3.0
 40
3.0
 40
3.0
 40
4.0
 40
4.0
 40
4.0
 40
5.0
 40
5.0
 40
5.0
 40
6.0
 40
6.0
 40
6.0
 40
7.0
 40
7.0
 40
7.0
 40
8.0
 40
8.0
 40
8.0
 40
9.0
 40
9.0
 40
9.0
 40
10.0
 40
10.0
 40
10.0
 40
11.0
 40
11.0
 40
11.0
 40
11.0
 10
1089.7708629003
 20
99.68624943254372
 30
0.0
 10
1089.7708629003
 20
99.68624943254372
 30
0.0
 10
1089.739857040933
 20
99.82095266601699
 30
0.0
 10
1089.739857040933
 20
99.82095266601699
 30
0.0
 10
1090.133631454897
 20
100.5599256476031
 30
0.0
 10
1090.769596081474
 20
100.8999565719972
 30
0.0
 10
1091.575748425023
 20
100.4376247578767
 30
0.0
 10
1092.282682018596
 20
100.0783012987652
 30
0.0
 10
1093.457804088615
 20
100.8661946362418
 30
0.0
 10
1094.198155108395
 20
101.0432725441836
 30
0.0
 10
1096.884640567793
 20
102.0540635595559
 30
0.0
 10
1099.711685922989
 20
102.751006376222
 30
0.0
 10
1102.430555279948
 20
103.7166666407375
 30
0.0
 10
1102.430555279948
 20
103.7166666407375
 30
0.0
 10
1102.594886334594
 20
103.7631754297884
 30
0.0
 10
1102.790223248608
 20
103.7638644488854
 30
0.0
 10
1103.534363873422
 20
103.7693766016618
 30
0.0
 10
1104.065597597247
 20
103.0924153388102
 30
0.0
 10
1103.416197098278
 20
102.4647189413977
 30
0.0
 10
1102.725455453485
 20
101.7970594363563
 30
0.0
 10
1100.793445905357
 20
101.1287109122178
 30
0.0
 10
1099.900821665129
 20
100.6987629956586
 30
0.0
 10
1099.900821665129
 20
100.6987629956586
 30
0.0
 10
1093.538763832518
 20
98.25515676797093
 30
0.0
 10
1092.989615612169
 20
98.00814342167853
 30
0.0
 10
1092.882473142578
 20
97.9609456135306
 30
0.0
 10
1092.79324516951
 20
97.9044460475725
 30
0.0
 10
1092.707117782379
 20
97.8410562906439
 30
0.0
 10
1092.707117782379
 20
97.8410562906439
 30
0.0
 10
1092.438400334529
 20
97.63745114746564
 30
0.0
 10
1092.438400334529
 20
97.63745114746564
 30
0.0
 10
1091.179217934671
 20
96.73173554439346
 30
0.0
 10
1089.98824842542
 20
98.70749780518425
 30
0.0
 10
1089.7708629003
 20
99.68624943254372
 30
0.0
  0
HATCH
  5
63A
330
635
100
AcDbEntity
  8
Layer 1
 62
   254
100
AcDbHatch
 10
0.0
 20
0.0
 30
0.0
210
0.0
220
0.0
230
1.0
  2
SOLID
 70
     1
 71
     0
 91
        1
 92
        1
 93
        2
 72
     4
 94
        3
 73
     0
 74
     0
 95
       38
 96
       34
 40
0.0
 40
0.0
 40
0.0
 40
0.0
 40
0.3527777776895833
 40
0.3527777776895833
 40
0.3527777776895833
 40
0.7055555553791667
 40
0.7055555553791667
 40
0.7055555553791667
 40
1.05833333306875
 40
1.05833333306875
 40
1.05833333306875
 40
1.411111110758333
 40
1.411111110758333
 40
1.411111110758333
 40
1.763888888447917
 40
1.763888888447917
 40
1.763888888447917
 40
2.1166666661375
 40
2.1166666661375
 40
2.1166666661375
 40
2.469444443827083
 40
2.469444443827083
 40
2.469444443827083
 40
2.822222221516667
 40
2.822222221516667
 40
2.822222221516667
 40
3.17499999920625
 40
3.17499999920625
 40
3.17499999920625
 40
3.527777776895833
 40
3.527777776895833
 40
3.527777776895833
 40
3.880555554585417
 40
3.880555554585417
 40
3.880555554585417
 40
3.880555554585417
 10
1089.7708629003
 20
99.68624943254372
 10
1089.7708629003
 20
99.68624943254372
 10
1089.739857040933
 20
99.82095266601699
 10
1089.739857040933
 20
99.82095266601699
 10
1090.133631454897
 20
100.5599256476031
 10
1090.769596081474
 20
100.8999565719972
 10
1091.575748425023
 20
100.4376247578767
 10
1092.282682018596
 20
100.0783012987652
 10
1093.457804088615
 20
100.8661946362418
 10
1094.198155108395
 20
101.0432725441836
 10
1096.884640567793
 20
102.0540635595559
 10
1099.711685922989
 20
102.751006376222
 10
1102.430555279948
 20
103.7166666407375
 10
1102.430555279948
 20
103.7166666407375
 10
1102.594886334594
 20
103.7631754297884
 10
1102.790223248608
 20
103.7638644488854
 10
1103.534363873422
 20
103.7693766016618
 10
1104.065597597247
 20
103.0924153388102
 10
1103.416197098278
 20
102.4647189413977
 10
1102.725455453485
 20
101.7970594363563
 10
1100.793445905357
 20
101.1287109122178
 10
1099.900821665129
 20
100.6987629956586
 10
1099.900821665129
 20
100.6987629956586
 10
1093.538763832518
 20
98.25515676797093
 10
1092.989615612169
 20
98.00814342167853
 10
1092.882473142578
 20
97.9609456135306
 10
1092.79324516951
 20
97.9044460475725
 10
1092.707117782379
 20
97.8410562906439
 10
1092.707117782379
 20
97.8410562906439
 10
1092.438400334529
 20
97.63745114746564
 10
1092.438400334529
 20
97.63745114746564
 10
1091.179217934671
 20
96.73173554439346
 10
1089.98824842542
 20
98.70749780518425
 10
1089.7708629003
 20
99.68624943254372
 72
     1
 10
1089.7708629003
 20
99.68624943254372
 11
1089.7708629003
 21
99.68624943254372
 97
        0
 75
     2
 76
     1
 98
        0
  0
SPLINE
  5
63B
330
635
100
AcDbEntity
  8
Layer 1
370
     0
100
AcDbSpline
210
0.0
220
0.0
230
1.0
 70
    11
 71
     3
 72
    14
 73
    10
 74
     0
 42
0.0000000001
 43
0.0000000001
 40
0.0
 40
0.0
 40
0.0
 40
0.0
 40
1.0
 40
1.0
 40
1.0
 40
2.0
 40
2.0
 40
2.0
 40
3.0
 40
3.0
 40
3.0
 40
3.0
 10
1063.255685498075
 20
105.2063259285595
 30
0.0
 10
1063.040022520698
 20
102.2738606515149
 30
0.0
 10
1061.836306158152
 20
100.3332383646736
 30
0.0
 10
1060.401079378997
 20
97.911336238543
 30
0.0
 10
1060.41899387552
 20
100.9530110424701
 30
0.0
 10
1060.83240533375
 20
103.6746364758175
 30
0.0
 10
1062.70102512495
 20
105.64764266022
 30
0.0
 10
1062.940803770723
 20
105.9745822217702
 30
0.0
 10
1063.316319178615
 20
105.9177381462636
 30
0.0
 10
1063.255685498075
 20
105.2063259285595
 30
0.0
  0
SPLINE
  5
63C
330
635
100
AcDbEntity
  8
Layer 1
370
     0
100
AcDbSpline
210
0.0
220
0.0
230
1.0
 70
    11
 71
     3
 72
    14
 73
    10
 74
     0
 42
0.0000000001
 43
0.0000000001
 40
0.0
 40
0.0
 40
0.0
 40
0.0
 40
1.0
 40
1.0
 40
1.0
 40
2.0
 40
2.0
 40
2.0
 40
3.0
 40
3.0
 40
3.0
 40
3.0
 10
1092.488009709517
 20
92.95281030662291
 30
0.0
 10
1092.47801893261
 20
92.70648597942755
 30
0.0
 10
1091.890974661923
 20
92.05777449955501
 30
0.0
 10
1090.835052895694
 20
91.87483992928824
 30
0.0
 10
1090.64212754852
 20
93.11645234217228
 30
0.0
 10
1091.241574162954
 20
93.84164494181736
 30
0.0
 10
1091.82861843364
 20
93.84164494181736
 30
0.0
 10
1092.314032387512
 20
93.84164494181736
 30
0.0
 10
1092.514536944753
 20
93.65939939064765
 30
0.0
 10
1092.488009709517
 20
92.95281030662291
 30
0.0
  0
SPLINE
  5
63D
330
635
100
AcDbEntity
  8
Layer 1
370
     0
100
AcDbSpline
210
0.0
220
0.0
230
1.0
 70
    11
 71
     3
 72
   200
 73
   196
 74
     0
 42
0.0000000001
 43
0.0000000001
 40
0.0
 40
0.0
 40
0.0
 40
0.0
 40
1.0
 40
1.0
 40
1.0
 40
2.0
 40
2.0
 40
2.0
 40
3.0
 40
3.0
 40
3.0
 40
4.0
 40
4.0
 40
4.0
 40
5.0
 40
5.0
 40
5.0
 40
6.0
 40
6.0
 40
6.0
 40
7.0
 40
7.0
 40
7.0
 40
8.0
 40
8.0
 40
8.0
 40
9.0
 40
9.0
 40
9.0
 40
10.0
 40
10.0
 40
10.0
 40
11.0
 40
11.0
 40
11.0
 40
12.0
 40
12.0
 40
12.0
 40
13.0
 40
13.0
 40
13.0
 40
14.0
 40
14.0
 40
14.0
 40
15.0
 40
15.0
 40
15.0
 40
16.0
 40
16.0
 40
16.0
 40
17.0
 40
17.0
 40
17.0
 40
18.0
 40
18.0
 40
18.0
 40
19.0
 40
19.0
 40
19.0
 40
20.0
 40
20.0
 40
20.0
 40
21.0
 40
21.0
 40
21.0
 40
22.0
 40
22.0
 40
22.0
 40
23.0
 40
23.0
 40
23.0
 40
24.0
 40
24.0
 40
24.0
 40
25.0
 40
25.0
 40
25.0
 40
26.0
 40
26.0
 40
26.0
 40
27.0
 40
27.0
 40
27.0
 40
28.0
 40
28.0
 40
28.0
 40
29.0
 40
29.0
 40
29.0
 40
30.0
 40
30.0
 40
30.0
 40
31.0
 40
31.0
 40
31.0
 40
32.0
 40
32.0
 40
32.0
 40
33.0
 40
33.0
 40
33.0
 40
34.0
 40
34.0
 40
34.0
 40
35.0
 40
35.0
 40
35.0
 40
36.0
 40
36.0
 40
36.0
 40
37.0
 40
37.0
 40
37.0
 40
38.0
 40
38.0
 40
38.0
 40
39.0
 40
39.0
 40
39.0
 40
40.0
 40
40.0
 40
40.0
 40
41.0
 40
41.0
 40
41.0
 40
42.0
 40
42.0
 40
42.0
 40
43.0
 40
43.0
 40
43.0
 40
44.0
 40
44.0
 40
44.0
 40
45.0
 40
45.0
 40
45.0
 40
46.0
 40
46.0
 40
46.0
 40
47.0
 40
47.0
 40
47.0
 40
48.0
 40
48.0
 40
48.0
 40
49.0
 40
49.0
 40
49.0
 40
50.0
 40
50.0
 40
50.0
 40
51.0
 40
51.0
 40
51.0
 40
52.0
 40
52.0
 40
52.0
 40
53.0
 40
53.0
 40
53.0
 40
54.0
 40
54.0
 40
54.0
 40
55.0
 40
55.0
 40
55.0
 40
56.0
 40
56.0
 40
56.0
 40
57.0
 40
57.0
 40
57.0
 40
58.0
 40
58.0
 40
58.0
 40
59.0
 40
59.0
 40
59.0
 40
60.0
 40
60.0
 40
60.0
 40
61.0
 40
61.0
 40
61.0
 40
62.0
 40
62.0
 40
62.0
 40
63.0
 40
63.0
 40
63.0
 40
64.0
 40
64.0
 40
64.0
 40
65.0
 40
65.0
 40
65.0
 40
65.0
 10
1100.284949811734
 20
90.36795516403996
 30
0.0
 10
1100.284949811734
 20
90.36795516403996
 30
0.0
 10
1100.513704151955
 20
89.4129746955287
 30
0.0
 10
1100.513704151955
 20
89.4129746955287
 30
0.0
 10
1100.639450137166
 20
88.91756996474977
 30
0.0
 10
1100.785177676193
 20
88.4573052079204
 30
0.0
 10
1101.028056907903
 20
88.00427515161005
 30
0.0
 10
1102.571459685295
 20
85.93894040820277
 30
0.0
 10
1106.511270882226
 20
86.17561846803943
 30
0.0
 10
1108.530441346131
 20
86.80159231770932
 30
0.0
 10
1109.648719340644
 20
87.14920245217104
 30
0.0
 10
1110.722900112944
 20
87.72349986956219
 30
0.0
 10
1111.729901523283
 20
88.32225746489861
 30
0.0
 10
1114.298220207537
 20
86.63416067712619
 30
0.0
 10
1117.541433097351
 20
86.1118842015623
 30
0.0
 10
1120.79050264949
 20
86.0991373482669
 30
0.0
 10
1124.111574697271
 20
86.08673500451998
 30
0.0
 10
1127.502582183402
 20
86.60935598963239
 30
0.0
 10
1130.289664430969
 20
87.01518823779482
 30
0.0
 10
1133.25348007693
 20
87.2053575085806
 30
0.0
 10
1135.61716008936
 20
88.60303274694647
 30
0.0
 10
1138.735660522608
 20
87.93227265596832
 30
0.0
 10
1139.408143161329
 20
88.15689288160661
 30
0.0
 10
1139.93799884696
 20
88.5000243919375
 30
0.0
 10
1139.888389471972
 20
89.33614906620764
 30
0.0
 10
1139.586254597916
 20
90.0761555764393
 30
0.0
 10
1139.168364515555
 20
90.5932644087753
 30
0.0
 10
1138.296755357787
 20
90.66251082802881
 30
0.0
 10
1136.826388604682
 20
90.02999129693696
 30
0.0
 10
1135.16619709034
 20
90.21740449133455
 30
0.0
 10
1133.631407051662
 20
89.8405110452482
 30
0.0
 10
1129.729491905068
 20
88.93100583714225
 30
0.0
 10
1125.575051259405
 20
88.57409394487037
 30
0.0
 10
1121.159816885509
 20
88.33500431819402
 30
0.0
 10
1118.422688522478
 20
88.3580864579452
 30
0.0
 10
1114.962434617093
 20
88.40046113241378
 30
0.0
 10
1113.053851718264
 20
90.7076415788856
 30
0.0
 10
1112.842667365019
 20
91.402861847809
 30
0.0
 10
1113.413519686924
 20
92.32580292830744
 30
0.0
 10
1113.18579887535
 20
93.31420082302562
 30
0.0
 10
1112.829920511723
 20
94.00390893917263
 30
0.0
 10
1112.245976826973
 20
94.46038409096825
 30
0.0
 10
1111.397794318505
 20
94.236452884427
 30
0.0
 10
1110.235074592233
 20
93.39619409557457
 30
0.0
 10
1110.250922031465
 20
92.0095431627615
 30
0.0
 10
1110.35496391512
 20
90.7489827247086
 30
0.0
 10
1108.680647509288
 20
88.58511825042316
 30
0.0
 10
1104.826963699488
 20
87.68181421419067
 30
0.0
 10
1103.176762962053
 20
89.35957571550733
 30
0.0
 10
1103.090291065373
 20
89.65619843678735
 30
0.0
 10
1102.92527099163
 20
90.23841957379456
 30
0.0
 10
1103.093047141761
 20
90.66664494261111
 30
0.0
 10
1103.108205561897
 20
90.71832137488987
 30
0.0
 10
1103.124397510677
 20
90.77447643129945
 30
0.0
 10
1103.131632211196
 20
90.83821069777656
 30
0.0
 10
1103.218104107876
 20
91.48830021584321
 30
0.0
 10
1103.004508187791
 20
91.97543671745754
 30
0.0
 10
1102.409540197488
 20
92.18662107070335
 30
0.0
 10
1101.278859859229
 20
92.60175507667596
 30
0.0
 10
1101.346039221191
 20
93.10921764165326
 30
0.0
 10
1100.545399030419
 20
93.815806725678
 30
0.0
 10
1099.722021209445
 20
94.57407224198148
 30
0.0
 10
1098.762562116802
 20
94.208892120545
 30
0.0
 10
1098.190676266251
 20
93.44924856604742
 30
0.0
 10
1098.050460880001
 20
91.4152641915559
 30
0.0
 10
1096.613511553104
 20
89.74818248624351
 30
0.0
 10
1095.033935273117
 20
88.65298663148259
 30
0.0
 10
1094.024522295938
 20
88.30399845882678
 30
0.0
 10
1092.759138724206
 20
88.41940915758265
 30
0.0
 10
1091.933349336392
 20
88.9799261930328
 30
0.0
 10
1091.659119735766
 20
89.16940644472155
 30
0.0
 10
1091.562657062179
 20
89.37886825022473
 30
0.0
 10
1091.557144909402
 20
89.52666284654195
 30
0.0
 10
1092.874204913413
 20
89.89735512075484
 30
0.0
 10
1094.055528155306
 20
90.79307994691979
 30
0.0
 10
1094.730077851317
 20
92.02366805425103
 30
0.0
 10
1095.52830647525
 20
94.16651744607643
 30
0.0
 10
1093.97973605463
 20
96.4537163387338
 30
0.0
 10
1091.599175074322
 20
96.12160913395572
 30
0.0
 10
1089.403615721573
 20
95.81430661667143
 30
0.0
 10
1088.321511229656
 20
94.26470266740606
 30
0.0
 10
1088.425208603762
 20
91.5944091567889
 30
0.0
 10
1087.218391655279
 20
91.64470755087355
 30
0.0
 10
1086.136287163362
 20
92.04640568445367
 30
0.0
 10
1085.014908582913
 20
92.49771319302141
 30
0.0
 10
1084.052693413883
 20
92.88631996375759
 30
0.0
 10
1083.880783149169
 20
93.78927949044157
 30
0.0
 10
1082.480007324866
 20
93.52779674311111
 30
0.0
 10
1081.378265788683
 20
92.36266544999961
 30
0.0
 10
1082.150656196476
 20
91.59716523317711
 30
0.0
 10
1082.872748210185
 20
90.67698022906687
 30
0.0
 10
1083.596218262087
 20
89.75920679179632
 30
0.0
 10
1083.56280083588
 20
88.38254663589048
 30
0.0
 10
1082.417306587035
 20
87.73211260827532
 30
0.0
 10
1080.774685059667
 20
87.34281681844207
 30
0.0
 10
1079.40078098015
 20
88.78079967398536
 30
0.0
 10
1078.401703289427
 20
89.84671221712166
 30
0.0
 10
1078.414794652271
 20
90.48233233415026
 30
0.0
 10
1078.433398167892
 20
91.71602102741822
 30
0.0
 10
1078.270100641891
 20
92.25965709499064
 30
0.0
 10
1077.944539118535
 20
93.35071883516927
 30
0.0
 10
1077.240017091801
 20
94.2874402976087
 30
0.0
 10
1075.945694717993
 20
93.85508081420984
 30
0.0
 10
1075.137819826702
 20
92.7802110228119
 30
0.0
 10
1075.446844891729
 20
91.49277883997404
 30
0.0
 10
1075.889884171132
 20
90.39620494701902
 30
0.0
 10
1075.528493654729
 20
89.27310381882756
 30
0.0
 10
1074.99347032587
 20
88.17790796406663
 30
0.0
 10
1073.945127769708
 20
87.62118053365026
 30
0.0
 10
1072.726252987027
 20
87.3307589842437
 30
0.0
 10
1070.604074168113
 20
87.62221406229584
 30
0.0
 10
1069.725919328923
 20
89.79813637077963
 30
0.0
 10
1069.776562232556
 20
90.0871798819921
 30
0.0
 10
1069.910231937384
 20
90.90952417432123
 30
0.0
 10
1069.911609975578
 20
91.74771590588252
 30
0.0
 10
1069.912988013772
 20
92.26516924776705
 30
0.0
 10
1069.86441216743
 20
92.82499726412014
 30
0.0
 10
1069.697669545944
 20
93.28147241591574
 30
0.0
 10
1069.15196642108
 20
94.7645860223158
 30
0.0
 10
1066.927812775803
 20
94.74908309263218
 30
0.0
 10
1066.929190813997
 20
92.1983343953532
 30
0.0
 10
1066.929190813997
 20
91.58820798491546
 30
0.0
 10
1067.020485844356
 20
90.97635902673508
 30
0.0
 10
1067.162768287897
 20
90.3851806414662
 30
0.0
 10
1066.278412276833
 20
88.56789277299691
 30
0.0
 10
1064.45733480333
 20
88.20305716110896
 30
0.0
 10
1063.178515359205
 20
88.4476589405617
 30
0.0
 10
1061.300593810196
 20
89.40573999500968
 30
0.0
 10
1060.694257004792
 20
91.4483371082143
 30
0.0
 10
1060.429329161976
 20
93.5512233924108
 30
0.0
 10
1061.772571891675
 20
95.40330672528113
 30
0.0
 10
1062.905663796774
 20
97.02594669883379
 30
0.0
 10
1064.077685280856
 20
99.28007267483277
 30
0.0
 10
1065.422650558297
 20
101.7788004302845
 30
0.0
 10
1065.943204486118
 20
102.8006157512096
 30
0.0
 10
1066.048279898419
 20
105.8808756245715
 30
0.0
 10
1065.727196999193
 20
109.6759928111227
 30
0.0
 10
1061.05909261668
 20
108.5921657714631
 30
0.0
 10
1060.063115511894
 20
106.5809190271742
 30
0.0
 10
1057.685310607975
 20
102.8557372789736
 30
0.0
 10
1057.27534424523
 20
97.8493245198085
 30
0.0
 10
1057.694267856236
 20
93.61220158249974
 30
0.0
 10
1057.228146437082
 20
92.73576929105218
 30
0.0
 10
1056.524657938994
 20
92.06259763323436
 30
0.0
 10
1055.831504727362
 20
91.36944442160208
 30
0.0
 10
1055.191750495751
 20
90.81891816305917
 30
0.0
 10
1054.668440491541
 20
90.67009003809638
 30
0.0
 10
1054.29499214094
 20
89.81570635775441
 30
0.0
 10
1054.480682787595
 20
89.4708522996809
 30
0.0
 10
1054.535115296262
 20
89.41607528146542
 30
0.0
 10
1054.97712104702
 20
89.14976940045561
 30
0.0
 10
1056.337244744596
 20
88.73256833719186
 30
0.0
 10
1057.146153164533
 20
89.56145831094297
 30
0.0
 10
1058.012594679073
 20
90.39241534198523
 30
0.0
 10
1058.012594679073
 20
90.39241534198523
 30
0.0
 10
1058.390521653805
 20
90.74381508148072
 30
0.0
 10
1058.390521653805
 20
90.74381508148072
 30
0.0
 10
1059.286590989519
 20
88.86727157066512
 30
0.0
 10
1060.656016444905
 20
86.71374238283546
 30
0.0
 10
1062.862255593659
 20
86.10017087691246
 30
0.0
 10
1064.140730528236
 20
85.8855414281814
 30
0.0
 10
1065.689989967952
 20
85.893809657346
 30
0.0
 10
1066.848231070094
 20
86.61727970924846
 30
0.0
 10
1066.848231070094
 20
86.61727970924846
 30
0.0
 10
1068.554242354389
 20
87.71282007355791
 30
0.0
 10
1068.554242354389
 20
87.71282007355791
 30
0.0
 10
1069.795165748176
 20
86.24934351142377
 30
0.0
 10
1071.405747887531
 20
85.07318791275948
 30
0.0
 10
1073.532060821027
 20
85.2733479604525
 30
0.0
 10
1074.934214683523
 20
85.3339816409929
 30
0.0
 10
1076.043879939322
 20
86.33271482216682
 30
0.0
 10
1076.939260255939
 20
87.30285371081318
 30
0.0
 10
1076.939260255939
 20
87.30285371081318
 30
0.0
 10
1077.454302030984
 20
87.87784014730138
 30
0.0
 10
1077.454302030984
 20
87.87784014730138
 30
0.0
 10
1078.834407282375
 20
86.42642141936562
 30
0.0
 10
1080.441888835792
 20
85.073532422308
 30
0.0
 10
1082.847254503594
 20
85.51898326855081
 30
0.0
 10
1084.321755371281
 20
85.70949704888513
 30
0.0
 10
1085.106203613272
 20
86.52357311204966
 30
0.0
 10
1085.682568087954
 20
87.81376137127573
 30
0.0
 10
1085.954041612192
 20
88.44524737372203
 30
0.0
 10
1085.875493435128
 20
89.13392196122346
 30
0.0
 10
1085.80728054452
 20
89.79296872755177
 30
0.0
 10
1086.80945882118
 20
89.53458656615803
 30
0.0
 10
1087.849533148177
 20
89.320646136524
 30
0.0
 10
1088.884784341494
 20
89.28137204799216
 30
0.0
 10
1089.239284666926
 20
88.36566566801275
 30
0.0
 10
1089.865258516596
 20
87.30216469171613
 30
0.0
 10
1090.788544106643
 20
86.87669539928777
 30
0.0
 10
1092.787733016734
 20
85.9558213760805
 30
0.0
 10
1092.90073214865
 20
86.10740557743149
 30
0.0
 10
1094.780376245402
 20
86.20696883695521
 30
0.0
 10
1097.179196231782
 20
86.652419683198
 30
0.0
 10
1098.942051591584
 20
88.52620711762539
 30
0.0
 10
1100.284949811734
 20
90.36795516403996
 30
0.0
  0
SPLINE
  5
63E
330
635
100
AcDbEntity
  8
Layer 1
370
     0
100
AcDbSpline
210
0.0
220
0.0
230
1.0
 70
    11
 71
     3
 72
    53
 73
    49
 74
     0
 42
0.0000000001
 43
0.0000000001
 40
0.0
 40
0.0
 40
0.0
 40
0.0
 40
1.0
 40
1.0
 40
1.0
 40
2.0
 40
2.0
 40
2.0
 40
3.0
 40
3.0
 40
3.0
 40
4.0
 40
4.0
 40
4.0
 40
5.0
 40
5.0
 40
5.0
 40
6.0
 40
6.0
 40
6.0
 40
7.0
 40
7.0
 40
7.0
 40
8.0
 40
8.0
 40
8.0
 40
9.0
 40
9.0
 40
9.0
 40
10.0
 40
10.0
 40
10.0
 40
11.0
 40
11.0
 40
11.0
 40
12.0
 40
12.0
 40
12.0
 40
13.0
 40
13.0
 40
13.0
 40
14.0
 40
14.0
 40
14.0
 40
15.0
 40
15.0
 40
15.0
 40
16.0
 40
16.0
 40
16.0
 40
16.0
 10
1041.712469900162
 20
103.7335476086152
 30
0.0
 10
1041.712469900162
 20
103.7335476086152
 30
0.0
 10
1041.203629296991
 20
104.2044921614489
 30
0.0
 10
1041.203629296991
 20
104.2044921614489
 30
0.0
 10
1041.203629296991
 20
104.2044921614489
 30
0.0
 10
1041.69421089409
 20
104.4415147308341
 30
0.0
 10
1041.69421089409
 20
104.4415147308341
 30
0.0
 10
1042.465223263689
 20
104.688872586675
 30
0.0
 10
1043.301347937959
 20
104.750539795861
 30
0.0
 10
1043.693744313729
 20
103.8555039887931
 30
0.0
 10
1043.789517968219
 20
103.0703667277046
 30
0.0
 10
1043.462233897121
 20
102.5963215889343
 30
0.0
 10
1042.905850976253
 20
102.1071180300288
 30
0.0
 10
1041.709024804677
 20
101.9982530126949
 30
0.0
 10
1040.907351085259
 20
100.8954779478664
 30
0.0
 10
1040.167344575028
 20
100.068999540955
 30
0.0
 10
1039.313649913783
 20
98.05671926802054
 30
0.0
 10
1040.016104883225
 20
95.63895125647221
 30
0.0
 10
1040.434339475134
 20
93.61220158249974
 30
0.0
 10
1040.434339475134
 20
93.61220158249974
 30
0.0
 10
1040.68996556014
 20
93.3634656884647
 30
0.0
 10
1040.68996556014
 20
93.3634656884647
 30
0.0
 10
1041.150919336066
 20
92.90699053666908
 30
0.0
 10
1041.52609023441
 20
92.42123207324886
 30
0.0
 10
1041.492672808203
 20
91.72428925658282
 30
0.0
 10
1041.054112152931
 20
90.54434405288475
 30
0.0
 10
1038.71179173251
 20
89.97039114504213
 30
0.0
 10
1038.462711328926
 20
91.85416935637674
 30
0.0
 10
1038.038620074692
 20
92.60175507667596
 30
0.0
 10
1037.86843235772
 20
93.1443576156028
 30
0.0
 10
1037.759567340387
 20
93.69798446008245
 30
0.0
 10
1037.759567340387
 20
93.69798446008245
 30
0.0
 10
1037.683086220614
 20
94.13482256761213
 30
0.0
 10
1037.683086220614
 20
94.13482256761213
 30
0.0
 10
1037.539081229331
 20
93.04341631788499
 30
0.0
 10
1037.71443658953
 20
91.77252059337631
 30
0.0
 10
1037.897026650248
 20
90.70006236881804
 30
0.0
 10
1038.272886567689
 20
89.27999400979806
 30
0.0
 10
1039.253016233242
 20
88.19547795104141
 30
0.0
 10
1040.65723715303
 20
87.62531464823256
 30
0.0
 10
1043.875645355351
 20
86.86222599824973
 30
0.0
 10
1046.530091426736
 20
89.06088593693617
 30
0.0
 10
1048.366327320374
 20
91.43972436950118
 30
0.0
 10
1051.258484980241
 20
95.56936032767017
 30
0.0
 10
1053.826459154946
 20
100.7469943324521
 30
0.0
 10
1051.489650887301
 20
105.7496174865834
 30
0.0
 10
1048.70119060154
 20
109.2388101940445
 30
0.0
 10
1043.231412499609
 20
107.6182372777829
 30
0.0
 10
1041.712469900162
 20
103.7335476086152
 30
0.0
  0
SPLINE
  5
63F
330
635
100
AcDbEntity
  8
Layer 1
370
     0
100
AcDbSpline
210
0.0
220
0.0
230
1.0
 70
    11
 71
     3
 72
    23
 73
    19
 74
     0
 42
0.0000000001
 43
0.0000000001
 40
0.0
 40
0.0
 40
0.0
 40
0.0
 40
1.0
 40
1.0
 40
1.0
 40
2.0
 40
2.0
 40
2.0
 40
3.0
 40
3.0
 40
3.0
 40
4.0
 40
4.0
 40
4.0
 40
5.0
 40
5.0
 40
5.0
 40
6.0
 40
6.0
 40
6.0
 40
6.0
 10
1050.372406421435
 20
89.73302406610841
 30
0.0
 10
1048.107600649432
 20
86.65758732642588
 30
0.0
 10
1044.417903384729
 20
84.60810002225075
 30
0.0
 10
1040.469134939535
 20
85.16413843357007
 30
0.0
 10
1037.685497787454
 20
85.90552298199584
 30
0.0
 10
1035.883368339119
 20
88.60992293791696
 30
0.0
 10
1035.42310358229
 20
91.26953665252984
 30
0.0
 10
1034.862242037291
 20
94.74632701624398
 30
0.0
 10
1035.805164671604
 20
97.9127142767371
 30
0.0
 10
1037.641056055694
 20
100.5299533168814
 30
0.0
 10
1038.191582314237
 20
104.3316161848546
 30
0.0
 10
1040.354068750328
 20
107.9823838705739
 30
0.0
 10
1044.126792816225
 20
109.660489881439
 30
0.0
 10
1046.479448523103
 20
110.5186631668148
 30
0.0
 10
1051.746310500952
 20
110.8965901415467
 30
0.0
 10
1053.530869962312
 20
107.0391167267125
 30
0.0
 10
1056.770293247092
 20
101.0642876266437
 30
0.0
 10
1053.521568204502
 20
94.50413680363091
 30
0.0
 10
1050.372406421435
 20
89.73302406610841
 30
0.0
  0
SPLINE
  5
640
330
635
100
AcDbEntity
  8
Layer 1
370
     0
100
AcDbSpline
210
0.0
220
0.0
230
1.0
 70
    11
 71
     3
 72
    17
 73
    13
 74
     0
 42
0.0000000001
 43
0.0000000001
 40
0.0
 40
0.0
 40
0.0
 40
0.0
 40
1.0
 40
1.0
 40
1.0
 40
2.0
 40
2.0
 40
2.0
 40
3.0
 40
3.0
 40
3.0
 40
4.0
 40
4.0
 40
4.0
 40
4.0
 10
1112.955321987386
 20
96.77307669021646
 30
0.0
 10
1113.108284226931
 20
97.23816458072518
 30
0.0
 10
1113.058674851944
 20
97.85724823942458
 30
0.0
 10
1112.780311136735
 20
98.28547360824113
 30
0.0
 10
1112.177763936365
 20
99.0433946149961
 30
0.0
 10
1111.017800286482
 20
99.58186303934065
 30
0.0
 10
1110.297775330064
 20
98.58864201094312
 30
0.0
 10
1109.935351285016
 20
97.70221894258835
 30
0.0
 10
1110.206824809254
 20
96.81992998881586
 30
0.0
 10
1110.918237026958
 20
96.21152612612073
 30
0.0
 10
1111.675124505067
 20
96.0303141035966
 30
0.0
 10
1112.537087395477
 20
95.84910208107245
 30
0.0
 10
1112.955321987386
 20
96.77307669021646
 30
0.0
  0
SPLINE
  5
641
330
635
100
AcDbEntity
  8
Layer 1
370
     0
100
AcDbSpline
210
0.0
220
0.0
230
1.0
 70
    11
 71
     3
 72
    17
 73
    13
 74
     0
 42
0.0000000001
 43
0.0000000001
 40
0.0
 40
0.0
 40
0.0
 40
0.0
 40
1.0
 40
1.0
 40
1.0
 40
2.0
 40
2.0
 40
2.0
 40
3.0
 40
3.0
 40
3.0
 40
4.0
 40
4.0
 40
4.0
 40
4.0
 10
1069.516802032968
 20
98.19280053968791
 30
0.0
 10
1069.127161733586
 20
97.63469507107745
 30
0.0
 10
1068.165980093202
 20
97.63331703288334
 30
0.0
 10
1067.669541833777
 20
97.83623315696455
 30
0.0
 10
1066.950894915554
 20
98.12941078275932
 30
0.0
 10
1066.268076990377
 20
99.07750106030008
 30
0.0
 10
1066.794487580524
 20
99.99424096892506
 30
0.0
 10
1067.382220870307
 20
101.0174343280443
 30
0.0
 10
1068.601784672086
 20
100.7363145364479
 30
0.0
 10
1069.231548126789
 20
100.2233398186942
 30
0.0
 10
1069.626356069399
 20
99.90225691946888
 30
0.0
 10
1070.042523604017
 20
98.94452037456944
 30
0.0
 10
1069.516802032968
 20
98.19280053968791
 30
0.0
  0
HATCH
  5
642
330
635
100
AcDbEntity
  8
Layer 1
 62
   152
100
AcDbHatch
 10
0.0
 20
0.0
 30
0.0
210
0.0
220
0.0
230
1.0
  2
SOLID
 70
     1
 71
     0
 91
        7
 92
        1
 93
        2
 72
     4
 94
        3
 73
     0
 74
     0
 95
       14
 96
       10
 40
0.0
 40
0.0
 40
0.0
 40
0.0
 40
0.3527777776895833
 40
0.3527777776895833
 40
0.3527777776895833
 40
0.7055555553791667
 40
0.7055555553791667
 40
0.7055555553791667
 40
1.05833333306875
 40
1.05833333306875
 40
1.05833333306875
 40
1.05833333306875
 10
1063.255685498075
 20
105.2063259285595
 10
1063.040022520698
 20
102.2738606515149
 10
1061.836306158152
 20
100.3332383646736
 10
1060.401079378997
 20
97.911336238543
 10
1060.41899387552
 20
100.9530110424701
 10
1060.83240533375
 20
103.6746364758175
 10
1062.70102512495
 20
105.64764266022
 10
1062.940803770723
 20
105.9745822217702
 10
1063.316319178615
 20
105.9177381462636
 10
1063.255685498075
 20
105.2063259285595
 72
     1
 10
1063.255685498075
 20
105.2063259285595
 11
1063.255685498075
 21
105.2063259285595
 97
        0
 92
        1
 93
        2
 72
     4
 94
        3
 73
     0
 74
     0
 95
       14
 96
       10
 40
0.0
 40
0.0
 40
0.0
 40
0.0
 40
0.3527777776895833
 40
0.3527777776895833
 40
0.3527777776895833
 40
0.7055555553791667
 40
0.7055555553791667
 40
0.7055555553791667
 40
1.05833333306875
 40
1.05833333306875
 40
1.05833333306875
 40
1.05833333306875
 10
1092.488009709517
 20
92.95281030662291
 10
1092.47801893261
 20
92.70648597942755
 10
1091.890974661923
 20
92.05777449955501
 10
1090.835052895694
 20
91.87483992928824
 10
1090.64212754852
 20
93.11645234217228
 10
1091.241574162954
 20
93.84164494181736
 10
1091.82861843364
 20
93.84164494181736
 10
1092.314032387512
 20
93.84164494181736
 10
1092.514536944753
 20
93.65939939064765
 10
1092.488009709517
 20
92.95281030662291
 72
     1
 10
1092.488009709517
 20
92.95281030662291
 11
1092.488009709517
 21
92.95281030662291
 97
        0
 92
        1
 93
        2
 72
     4
 94
        3
 73
     0
 74
     0
 95
      200
 96
      196
 40
0.0
 40
0.0
 40
0.0
 40
0.0
 40
0.3527777776895833
 40
0.3527777776895833
 40
0.3527777776895833
 40
0.7055555553791667
 40
0.7055555553791667
 40
0.7055555553791667
 40
1.05833333306875
 40
1.05833333306875
 40
1.05833333306875
 40
1.411111110758333
 40
1.411111110758333
 40
1.411111110758333
 40
1.763888888447917
 40
1.763888888447917
 40
1.763888888447917
 40
2.1166666661375
 40
2.1166666661375
 40
2.1166666661375
 40
2.469444443827083
 40
2.469444443827083
 40
2.469444443827083
 40
2.822222221516667
 40
2.822222221516667
 40
2.822222221516667
 40
3.17499999920625
 40
3.17499999920625
 40
3.17499999920625
 40
3.527777776895833
 40
3.527777776895833
 40
3.527777776895833
 40
3.880555554585417
 40
3.880555554585417
 40
3.880555554585417
 40
4.233333332275
 40
4.233333332275
 40
4.233333332275
 40
4.586111109964584
 40
4.586111109964584
 40
4.586111109964584
 40
4.938888887654167
 40
4.938888887654167
 40
4.938888887654167
 40
5.29166666534375
 40
5.29166666534375
 40
5.29166666534375
 40
5.644444443033334
 40
5.644444443033334
 40
5.644444443033334
 40
5.997222220722917
 40
5.997222220722917
 40
5.997222220722917
 40
6.349999998412501
 40
6.349999998412501
 40
6.349999998412501
 40
6.702777776102083
 40
6.702777776102083
 40
6.702777776102083
 40
7.055555553791667
 40
7.055555553791667
 40
7.055555553791667
 40
7.40833333148125
 40
7.40833333148125
 40
7.40833333148125
 40
7.761111109170834
 40
7.761111109170834
 40
7.761111109170834
 40
8.113888886860417
 40
8.113888886860417
 40
8.113888886860417
 40
8.46666666455
 40
8.46666666455
 40
8.46666666455
 40
8.819444442239584
 40
8.819444442239584
 40
8.819444442239584
 40
9.172222219929168
 40
9.172222219929168
 40
9.172222219929168
 40
9.52499999761875
 40
9.52499999761875
 40
9.52499999761875
 40
9.877777775308333
 40
9.877777775308333
 40
9.877777775308333
 40
10.23055555299792
 40
10.23055555299792
 40
10.23055555299792
 40
10.5833333306875
 40
10.5833333306875
 40
10.5833333306875
 40
10.93611110837708
 40
10.93611110837708
 40
10.93611110837708
 40
11.28888888606667
 40
11.28888888606667
 40
11.28888888606667
 40
11.64166666375625
 40
11.64166666375625
 40
11.64166666375625
 40
11.99444444144583
 40
11.99444444144583
 40
11.99444444144583
 40
12.34722221913542
 40
12.34722221913542
 40
12.34722221913542
 40
12.699999996825
 40
12.699999996825
 40
12.699999996825
 40
13.05277777451458
 40
13.05277777451458
 40
13.05277777451458
 40
13.40555555220417
 40
13.40555555220417
 40
13.40555555220417
 40
13.75833332989375
 40
13.75833332989375
 40
13.75833332989375
 40
14.11111110758333
 40
14.11111110758333
 40
14.11111110758333
 40
14.46388888527292
 40
14.46388888527292
 40
14.46388888527292
 40
14.8166666629625
 40
14.8166666629625
 40
14.8166666629625
 40
15.16944444065208
 40
15.16944444065208
 40
15.16944444065208
 40
15.52222221834167
 40
15.52222221834167
 40
15.52222221834167
 40
15.87499999603125
 40
15.87499999603125
 40
15.87499999603125
 40
16.22777777372083
 40
16.22777777372083
 40
16.22777777372083
 40
16.58055555141042
 40
16.58055555141042
 40
16.58055555141042
 40
16.9333333291
 40
16.9333333291
 40
16.9333333291
 40
17.28611110678958
 40
17.28611110678958
 40
17.28611110678958
 40
17.63888888447917
 40
17.63888888447917
 40
17.63888888447917
 40
17.99166666216875
 40
17.99166666216875
 40
17.99166666216875
 40
18.34444443985834
 40
18.34444443985834
 40
18.34444443985834
 40
18.69722221754792
 40
18.69722221754792
 40
18.69722221754792
 40
19.0499999952375
 40
19.0499999952375
 40
19.0499999952375
 40
19.40277777292708
 40
19.40277777292708
 40
19.40277777292708
 40
19.75555555061667
 40
19.75555555061667
 40
19.75555555061667
 40
20.10833332830625
 40
20.10833332830625
 40
20.10833332830625
 40
20.46111110599583
 40
20.46111110599583
 40
20.46111110599583
 40
20.81388888368542
 40
20.81388888368542
 40
20.81388888368542
 40
21.166666661375
 40
21.166666661375
 40
21.166666661375
 40
21.51944443906459
 40
21.51944443906459
 40
21.51944443906459
 40
21.87222221675417
 40
21.87222221675417
 40
21.87222221675417
 40
22.22499999444375
 40
22.22499999444375
 40
22.22499999444375
 40
22.57777777213333
 40
22.57777777213333
 40
22.57777777213333
 40
22.93055554982292
 40
22.93055554982292
 40
22.93055554982292
 40
22.93055554982292
 10
1100.284949811734
 20
90.36795516403996
 10
1100.284949811734
 20
90.36795516403996
 10
1100.513704151955
 20
89.4129746955287
 10
1100.513704151955
 20
89.4129746955287
 10
1100.639450137166
 20
88.91756996474977
 10
1100.785177676193
 20
88.4573052079204
 10
1101.028056907903
 20
88.00427515161005
 10
1102.571459685295
 20
85.93894040820277
 10
1106.511270882226
 20
86.17561846803943
 10
1108.530441346131
 20
86.80159231770932
 10
1109.648719340644
 20
87.14920245217104
 10
1110.722900112944
 20
87.72349986956219
 10
1111.729901523283
 20
88.32225746489861
 10
1114.298220207537
 20
86.63416067712619
 10
1117.541433097351
 20
86.1118842015623
 10
1120.79050264949
 20
86.0991373482669
 10
1124.111574697271
 20
86.08673500451998
 10
1127.502582183402
 20
86.60935598963239
 10
1130.289664430969
 20
87.01518823779482
 10
1133.25348007693
 20
87.2053575085806
 10
1135.61716008936
 20
88.60303274694647
 10
1138.735660522608
 20
87.93227265596832
 10
1139.408143161329
 20
88.15689288160661
 10
1139.93799884696
 20
88.5000243919375
 10
1139.888389471972
 20
89.33614906620764
 10
1139.586254597916
 20
90.0761555764393
 10
1139.168364515555
 20
90.5932644087753
 10
1138.296755357787
 20
90.66251082802881
 10
1136.826388604682
 20
90.02999129693696
 10
1135.16619709034
 20
90.21740449133455
 10
1133.631407051662
 20
89.8405110452482
 10
1129.729491905068
 20
88.93100583714225
 10
1125.575051259405
 20
88.57409394487037
 10
1121.159816885509
 20
88.33500431819402
 10
1118.422688522478
 20
88.3580864579452
 10
1114.962434617093
 20
88.40046113241378
 10
1113.053851718264
 20
90.7076415788856
 10
1112.842667365019
 20
91.402861847809
 10
1113.413519686924
 20
92.32580292830744
 10
1113.18579887535
 20
93.31420082302562
 10
1112.829920511723
 20
94.00390893917263
 10
1112.245976826973
 20
94.46038409096825
 10
1111.397794318505
 20
94.236452884427
 10
1110.235074592233
 20
93.39619409557457
 10
1110.250922031465
 20
92.0095431627615
 10
1110.35496391512
 20
90.7489827247086
 10
1108.680647509288
 20
88.58511825042316
 10
1104.826963699488
 20
87.68181421419067
 10
1103.176762962053
 20
89.35957571550733
 10
1103.090291065373
 20
89.65619843678735
 10
1102.92527099163
 20
90.23841957379456
 10
1103.093047141761
 20
90.66664494261111
 10
1103.108205561897
 20
90.71832137488987
 10
1103.124397510677
 20
90.77447643129945
 10
1103.131632211196
 20
90.83821069777656
 10
1103.218104107876
 20
91.48830021584321
 10
1103.004508187791
 20
91.97543671745754
 10
1102.409540197488
 20
92.18662107070335
 10
1101.278859859229
 20
92.60175507667596
 10
1101.346039221191
 20
93.10921764165326
 10
1100.545399030419
 20
93.815806725678
 10
1099.722021209445
 20
94.57407224198148
 10
1098.762562116802
 20
94.208892120545
 10
1098.190676266251
 20
93.44924856604742
 10
1098.050460880001
 20
91.4152641915559
 10
1096.613511553104
 20
89.74818248624351
 10
1095.033935273117
 20
88.65298663148259
 10
1094.024522295938
 20
88.30399845882678
 10
1092.759138724206
 20
88.41940915758265
 10
1091.933349336392
 20
88.9799261930328
 10
1091.659119735766
 20
89.16940644472155
 10
1091.562657062179
 20
89.37886825022473
 10
1091.557144909402
 20
89.52666284654195
 10
1092.874204913413
 20
89.89735512075484
 10
1094.055528155306
 20
90.79307994691979
 10
1094.730077851317
 20
92.02366805425103
 10
1095.52830647525
 20
94.16651744607643
 10
1093.97973605463
 20
96.4537163387338
 10
1091.599175074322
 20
96.12160913395572
 10
1089.403615721573
 20
95.81430661667143
 10
1088.321511229656
 20
94.26470266740606
 10
1088.425208603762
 20
91.5944091567889
 10
1087.218391655279
 20
91.64470755087355
 10
1086.136287163362
 20
92.04640568445367
 10
1085.014908582913
 20
92.49771319302141
 10
1084.052693413883
 20
92.88631996375759
 10
1083.880783149169
 20
93.78927949044157
 10
1082.480007324866
 20
93.52779674311111
 10
1081.378265788683
 20
92.36266544999961
 10
1082.150656196476
 20
91.59716523317711
 10
1082.872748210185
 20
90.67698022906687
 10
1083.596218262087
 20
89.75920679179632
 10
1083.56280083588
 20
88.38254663589048
 10
1082.417306587035
 20
87.73211260827532
 10
1080.774685059667
 20
87.34281681844207
 10
1079.40078098015
 20
88.78079967398536
 10
1078.401703289427
 20
89.84671221712166
 10
1078.414794652271
 20
90.48233233415026
 10
1078.433398167892
 20
91.71602102741822
 10
1078.270100641891
 20
92.25965709499064
 10
1077.944539118535
 20
93.35071883516927
 10
1077.240017091801
 20
94.2874402976087
 10
1075.945694717993
 20
93.85508081420984
 10
1075.137819826702
 20
92.7802110228119
 10
1075.446844891729
 20
91.49277883997404
 10
1075.889884171132
 20
90.39620494701902
 10
1075.528493654729
 20
89.27310381882756
 10
1074.99347032587
 20
88.17790796406663
 10
1073.945127769708
 20
87.62118053365026
 10
1072.726252987027
 20
87.3307589842437
 10
1070.604074168113
 20
87.62221406229584
 10
1069.725919328923
 20
89.79813637077963
 10
1069.776562232556
 20
90.0871798819921
 10
1069.910231937384
 20
90.90952417432123
 10
1069.911609975578
 20
91.74771590588252
 10
1069.912988013772
 20
92.26516924776705
 10
1069.86441216743
 20
92.82499726412014
 10
1069.697669545944
 20
93.28147241591574
 10
1069.15196642108
 20
94.7645860223158
 10
1066.927812775803
 20
94.74908309263218
 10
1066.929190813997
 20
92.1983343953532
 10
1066.929190813997
 20
91.58820798491546
 10
1067.020485844356
 20
90.97635902673508
 10
1067.162768287897
 20
90.3851806414662
 10
1066.278412276833
 20
88.56789277299691
 10
1064.45733480333
 20
88.20305716110896
 10
1063.178515359205
 20
88.4476589405617
 10
1061.300593810196
 20
89.40573999500968
 10
1060.694257004792
 20
91.4483371082143
 10
1060.429329161976
 20
93.5512233924108
 10
1061.772571891675
 20
95.40330672528113
 10
1062.905663796774
 20
97.02594669883379
 10
1064.077685280856
 20
99.28007267483277
 10
1065.422650558297
 20
101.7788004302845
 10
1065.943204486118
 20
102.8006157512096
 10
1066.048279898419
 20
105.8808756245715
 10
1065.727196999193
 20
109.6759928111227
 10
1061.05909261668
 20
108.5921657714631
 10
1060.063115511894
 20
106.5809190271742
 10
1057.685310607975
 20
102.8557372789736
 10
1057.27534424523
 20
97.8493245198085
 10
1057.694267856236
 20
93.61220158249974
 10
1057.228146437082
 20
92.73576929105218
 10
1056.524657938994
 20
92.06259763323436
 10
1055.831504727362
 20
91.36944442160208
 10
1055.191750495751
 20
90.81891816305917
 10
1054.668440491541
 20
90.67009003809638
 10
1054.29499214094
 20
89.81570635775441
 10
1054.480682787595
 20
89.4708522996809
 10
1054.535115296262
 20
89.41607528146542
 10
1054.97712104702
 20
89.14976940045561
 10
1056.337244744596
 20
88.73256833719186
 10
1057.146153164533
 20
89.56145831094297
 10
1058.012594679073
 20
90.39241534198523
 10
1058.012594679073
 20
90.39241534198523
 10
1058.390521653805
 20
90.74381508148072
 10
1058.390521653805
 20
90.74381508148072
 10
1059.286590989519
 20
88.86727157066512
 10
1060.656016444905
 20
86.71374238283546
 10
1062.862255593659
 20
86.10017087691246
 10
1064.140730528236
 20
85.8855414281814
 10
1065.689989967952
 20
85.893809657346
 10
1066.848231070094
 20
86.61727970924846
 10
1066.848231070094
 20
86.61727970924846
 10
1068.554242354389
 20
87.71282007355791
 10
1068.554242354389
 20
87.71282007355791
 10
1069.795165748176
 20
86.24934351142377
 10
1071.405747887531
 20
85.07318791275948
 10
1073.532060821027
 20
85.2733479604525
 10
1074.934214683523
 20
85.3339816409929
 10
1076.043879939322
 20
86.33271482216682
 10
1076.939260255939
 20
87.30285371081318
 10
1076.939260255939
 20
87.30285371081318
 10
1077.454302030984
 20
87.87784014730138
 10
1077.454302030984
 20
87.87784014730138
 10
1078.834407282375
 20
86.42642141936562
 10
1080.441888835792
 20
85.073532422308
 10
1082.847254503594
 20
85.51898326855081
 10
1084.321755371281
 20
85.70949704888513
 10
1085.106203613272
 20
86.52357311204966
 10
1085.682568087954
 20
87.81376137127573
 10
1085.954041612192
 20
88.44524737372203
 10
1085.875493435128
 20
89.13392196122346
 10
1085.80728054452
 20
89.79296872755177
 10
1086.80945882118
 20
89.53458656615803
 10
1087.849533148177
 20
89.320646136524
 10
1088.884784341494
 20
89.28137204799216
 10
1089.239284666926
 20
88.36566566801275
 10
1089.865258516596
 20
87.30216469171613
 10
1090.788544106643
 20
86.87669539928777
 10
1092.787733016734
 20
85.9558213760805
 10
1092.90073214865
 20
86.10740557743149
 10
1094.780376245402
 20
86.20696883695521
 10
1097.179196231782
 20
86.652419683198
 10
1098.942051591584
 20
88.52620711762539
 10
1100.284949811734
 20
90.36795516403996
 72
     1
 10
1100.284949811734
 20
90.36795516403996
 11
1100.284949811734
 21
90.36795516403996
 97
        0
 92
        1
 93
        2
 72
     4
 94
        3
 73
     0
 74
     0
 95
       53
 96
       49
 40
0.0
 40
0.0
 40
0.0
 40
0.0
 40
0.3527777776895833
 40
0.3527777776895833
 40
0.3527777776895833
 40
0.7055555553791667
 40
0.7055555553791667
 40
0.7055555553791667
 40
1.05833333306875
 40
1.05833333306875
 40
1.05833333306875
 40
1.411111110758333
 40
1.411111110758333
 40
1.411111110758333
 40
1.763888888447917
 40
1.763888888447917
 40
1.763888888447917
 40
2.1166666661375
 40
2.1166666661375
 40
2.1166666661375
 40
2.469444443827083
 40
2.469444443827083
 40
2.469444443827083
 40
2.822222221516667
 40
2.822222221516667
 40
2.822222221516667
 40
3.17499999920625
 40
3.17499999920625
 40
3.17499999920625
 40
3.527777776895833
 40
3.527777776895833
 40
3.527777776895833
 40
3.880555554585417
 40
3.880555554585417
 40
3.880555554585417
 40
4.233333332275
 40
4.233333332275
 40
4.233333332275
 40
4.586111109964584
 40
4.586111109964584
 40
4.586111109964584
 40
4.938888887654167
 40
4.938888887654167
 40
4.938888887654167
 40
5.29166666534375
 40
5.29166666534375
 40
5.29166666534375
 40
5.644444443033334
 40
5.644444443033334
 40
5.644444443033334
 40
5.644444443033334
 10
1041.712469900162
 20
103.7335476086152
 10
1041.712469900162
 20
103.7335476086152
 10
1041.203629296991
 20
104.2044921614489
 10
1041.203629296991
 20
104.2044921614489
 10
1041.203629296991
 20
104.2044921614489
 10
1041.69421089409
 20
104.4415147308341
 10
1041.69421089409
 20
104.4415147308341
 10
1042.465223263689
 20
104.688872586675
 10
1043.301347937959
 20
104.750539795861
 10
1043.693744313729
 20
103.8555039887931
 10
1043.789517968219
 20
103.0703667277046
 10
1043.462233897121
 20
102.5963215889343
 10
1042.905850976253
 20
102.1071180300288
 10
1041.709024804677
 20
101.9982530126949
 10
1040.907351085259
 20
100.8954779478664
 10
1040.167344575028
 20
100.068999540955
 10
1039.313649913783
 20
98.05671926802054
 10
1040.016104883225
 20
95.63895125647221
 10
1040.434339475134
 20
93.61220158249974
 10
1040.434339475134
 20
93.61220158249974
 10
1040.68996556014
 20
93.3634656884647
 10
1040.68996556014
 20
93.3634656884647
 10
1041.150919336066
 20
92.90699053666908
 10
1041.52609023441
 20
92.42123207324886
 10
1041.492672808203
 20
91.72428925658282
 10
1041.054112152931
 20
90.54434405288475
 10
1038.71179173251
 20
89.97039114504213
 10
1038.462711328926
 20
91.85416935637674
 10
1038.038620074692
 20
92.60175507667596
 10
1037.86843235772
 20
93.1443576156028
 10
1037.759567340387
 20
93.69798446008245
 10
1037.759567340387
 20
93.69798446008245
 10
1037.683086220614
 20
94.13482256761213
 10
1037.683086220614
 20
94.13482256761213
 10
1037.539081229331
 20
93.04341631788499
 10
1037.71443658953
 20
91.77252059337631
 10
1037.897026650248
 20
90.70006236881804
 10
1038.272886567689
 20
89.27999400979806
 10
1039.253016233242
 20
88.19547795104141
 10
1040.65723715303
 20
87.62531464823256
 10
1043.875645355351
 20
86.86222599824973
 10
1046.530091426736
 20
89.06088593693617
 10
1048.366327320374
 20
91.43972436950118
 10
1051.258484980241
 20
95.56936032767017
 10
1053.826459154946
 20
100.7469943324521
 10
1051.489650887301
 20
105.7496174865834
 10
1048.70119060154
 20
109.2388101940445
 10
1043.231412499609
 20
107.6182372777829
 10
1041.712469900162
 20
103.7335476086152
 72
     1
 10
1041.712469900162
 20
103.7335476086152
 11
1041.712469900162
 21
103.7335476086152
 97
        0
 92
        1
 93
        2
 72
     4
 94
        3
 73
     0
 74
     0
 95
       23
 96
       19
 40
0.0
 40
0.0
 40
0.0
 40
0.0
 40
0.3527777776895833
 40
0.3527777776895833
 40
0.3527777776895833
 40
0.7055555553791667
 40
0.7055555553791667
 40
0.7055555553791667
 40
1.05833333306875
 40
1.05833333306875
 40
1.05833333306875
 40
1.411111110758333
 40
1.411111110758333
 40
1.411111110758333
 40
1.763888888447917
 40
1.763888888447917
 40
1.763888888447917
 40
2.1166666661375
 40
2.1166666661375
 40
2.1166666661375
 40
2.1166666661375
 10
1050.372406421435
 20
89.73302406610841
 10
1048.107600649432
 20
86.65758732642588
 10
1044.417903384729
 20
84.60810002225075
 10
1040.469134939535
 20
85.16413843357007
 10
1037.685497787454
 20
85.90552298199584
 10
1035.883368339119
 20
88.60992293791696
 10
1035.42310358229
 20
91.26953665252984
 10
1034.862242037291
 20
94.74632701624398
 10
1035.805164671604
 20
97.9127142767371
 10
1037.641056055694
 20
100.5299533168814
 10
1038.191582314237
 20
104.3316161848546
 10
1040.354068750328
 20
107.9823838705739
 10
1044.126792816225
 20
109.660489881439
 10
1046.479448523103
 20
110.5186631668148
 10
1051.746310500952
 20
110.8965901415467
 10
1053.530869962312
 20
107.0391167267125
 10
1056.770293247092
 20
101.0642876266437
 10
1053.521568204502
 20
94.50413680363091
 10
1050.372406421435
 20
89.73302406610841
 72
     1
 10
1050.372406421435
 20
89.73302406610841
 11
1050.372406421435
 21
89.73302406610841
 97
        0
 92
        1
 93
        2
 72
     4
 94
        3
 73
     0
 74
     0
 95
       17
 96
       13
 40
0.0
 40
0.0
 40
0.0
 40
0.0
 40
0.3527777776895833
 40
0.3527777776895833
 40
0.3527777776895833
 40
0.7055555553791667
 40
0.7055555553791667
 40
0.7055555553791667
 40
1.05833333306875
 40
1.05833333306875
 40
1.05833333306875
 40
1.411111110758333
 40
1.411111110758333
 40
1.411111110758333
 40
1.411111110758333
 10
1112.955321987386
 20
96.77307669021646
 10
1113.108284226931
 20
97.23816458072518
 10
1113.058674851944
 20
97.85724823942458
 10
1112.780311136735
 20
98.28547360824113
 10
1112.177763936365
 20
99.0433946149961
 10
1111.017800286482
 20
99.58186303934065
 10
1110.297775330064
 20
98.58864201094312
 10
1109.935351285016
 20
97.70221894258835
 10
1110.206824809254
 20
96.81992998881586
 10
1110.918237026958
 20
96.21152612612073
 10
1111.675124505067
 20
96.0303141035966
 10
1112.537087395477
 20
95.84910208107245
 10
1112.955321987386
 20
96.77307669021646
 72
     1
 10
1112.955321987386
 20
96.77307669021646
 11
1112.955321987386
 21
96.77307669021646
 97
        0
 92
        1
 93
        2
 72
     4
 94
        3
 73
     0
 74
     0
 95
       17
 96
       13
 40
0.0
 40
0.0
 40
0.0
 40
0.0
 40
0.3527777776895833
 40
0.3527777776895833
 40
0.3527777776895833
 40
0.7055555553791667
 40
0.7055555553791667
 40
0.7055555553791667
 40
1.05833333306875
 40
1.05833333306875
 40
1.05833333306875
 40
1.411111110758333
 40
1.411111110758333
 40
1.411111110758333
 40
1.411111110758333
 10
1069.516802032968
 20
98.19280053968791
 10
1069.127161733586
 20
97.63469507107745
 10
1068.165980093202
 20
97.63331703288334
 10
1067.669541833777
 20
97.83623315696455
 10
1066.950894915554
 20
98.12941078275932
 10
1066.268076990377
 20
99.07750106030008
 10
1066.794487580524
 20
99.99424096892506
 10
1067.382220870307
 20
101.0174343280443
 10
1068.601784672086
 20
100.7363145364479
 10
1069.231548126789
 20
100.2233398186942
 10
1069.626356069399
 20
99.90225691946888
 10
1070.042523604017
 20
98.94452037456944
 10
1069.516802032968
 20
98.19280053968791
 72
     1
 10
1069.516802032968
 20
98.19280053968791
 11
1069.516802032968
 21
98.19280053968791
 97
        0
 75
     2
 76
     1
 98
        0
  0
SPLINE
  5
643
330
635
100
AcDbEntity
  8
Layer 1
370
     0
100
AcDbSpline
210
0.0
220
0.0
230
1.0
 70
    11
 71
     3
 72
    20
 73
    16
 74
     0
 42
0.0000000001
 43
0.0000000001
 40
0.0
 40
0.0
 40
0.0
 40
0.0
 40
1.0
 40
1.0
 40
1.0
 40
2.0
 40
2.0
 40
2.0
 40
3.0
 40
3.0
 40
3.0
 40
4.0
 40
4.0
 40
4.0
 40
5.0
 40
5.0
 40
5.0
 40
5.0
 10
1137.319381768621
 20
93.7400146250025
 30
0.0
 10
1137.319381768621
 20
93.7400146250025
 30
0.0
 10
1137.615315470804
 20
93.7400146250025
 30
0.0
 10
1137.615315470804
 20
93.7400146250025
 30
0.0
 10
1137.773445353577
 20
93.7400146250025
 30
0.0
 10
1137.929508179059
 20
93.6904052500149
 30
0.0
 10
1137.929508179059
 20
93.51711694710684
 30
0.0
 10
1137.929508179059
 20
93.31799042805939
 30
0.0
 10
1137.806173760687
 20
93.27837182997902
 30
0.0
 10
1137.615315470804
 20
93.27837182997902
 30
0.0
 10
1137.615315470804
 20
93.27837182997902
 30
0.0
 10
1137.319381768621
 20
93.27837182997902
 30
0.0
 10
1137.319381768621
 20
93.27837182997902
 30
0.0
 10
1137.319381768621
 20
93.27837182997902
 30
0.0
 10
1137.319381768621
 20
93.7400146250025
 30
0.0
 10
1137.319381768621
 20
93.7400146250025
 30
0.0
  0
SPLINE
  5
644
330
635
100
AcDbEntity
  8
Layer 1
370
     0
100
AcDbSpline
210
0.0
220
0.0
230
1.0
 70
    11
 71
     3
 72
    35
 73
    31
 74
     0
 42
0.0000000001
 43
0.0000000001
 40
0.0
 40
0.0
 40
0.0
 40
0.0
 40
1.0
 40
1.0
 40
1.0
 40
2.0
 40
2.0
 40
2.0
 40
3.0
 40
3.0
 40
3.0
 40
4.0
 40
4.0
 40
4.0
 40
5.0
 40
5.0
 40
5.0
 40
6.0
 40
6.0
 40
6.0
 40
7.0
 40
7.0
 40
7.0
 40
8.0
 40
8.0
 40
8.0
 40
9.0
 40
9.0
 40
9.0
 40
10.0
 40
10.0
 40
10.0
 40
10.0
 10
1137.069612345941
 20
92.40848521995343
 30
0.0
 10
1137.069612345941
 20
92.40848521995343
 30
0.0
 10
1137.319381768621
 20
92.40848521995343
 30
0.0
 10
1137.319381768621
 20
92.40848521995343
 30
0.0
 10
1137.319381768621
 20
92.40848521995343
 30
0.0
 10
1137.319381768621
 20
93.08337942551388
 30
0.0
 10
1137.319381768621
 20
93.08337942551388
 30
0.0
 10
1137.319381768621
 20
93.08337942551388
 30
0.0
 10
1137.527810045479
 20
93.08337942551388
 30
0.0
 10
1137.527810045479
 20
93.08337942551388
 30
0.0
 10
1137.527810045479
 20
93.08337942551388
 30
0.0
 10
1137.953968357005
 20
92.40848521995343
 30
0.0
 10
1137.953968357005
 20
92.40848521995343
 30
0.0
 10
1137.953968357005
 20
92.40848521995343
 30
0.0
 10
1138.217862671175
 20
92.40848521995343
 30
0.0
 10
1138.217862671175
 20
92.40848521995343
 30
0.0
 10
1138.217862671175
 20
92.40848521995343
 30
0.0
 10
1137.78446965913
 20
93.08337942551388
 30
0.0
 10
1137.78446965913
 20
93.08337942551388
 30
0.0
 10
1138.02287026671
 20
93.08337942551388
 30
0.0
 10
1138.178588582643
 20
93.26080184300424
 30
0.0
 10
1138.178588582643
 20
93.50574813200551
 30
0.0
 10
1138.178588582643
 20
93.79410262412092
 30
0.0
 10
1138.004611260638
 20
93.93500702946764
 30
0.0
 10
1137.654245049788
 20
93.93500702946764
 30
0.0
 10
1137.654245049788
 20
93.93500702946764
 30
0.0
 10
1137.069612345941
 20
93.93500702946764
 30
0.0
 10
1137.069612345941
 20
93.93500702946764
 30
0.0
 10
1137.069612345941
 20
93.93500702946764
 30
0.0
 10
1137.069612345941
 20
92.40848521995343
 30
0.0
 10
1137.069612345941
 20
92.40848521995343
 30
0.0
  0
SPLINE
  5
645
330
635
100
AcDbEntity
  8
Layer 1
370
     0
100
AcDbSpline
210
0.0
220
0.0
230
1.0
 70
    11
 71
     3
 72
    17
 73
    13
 74
     0
 42
0.0000000001
 43
0.0000000001
 40
0.0
 40
0.0
 40
0.0
 40
0.0
 40
1.0
 40
1.0
 40
1.0
 40
2.0
 40
2.0
 40
2.0
 40
3.0
 40
3.0
 40
3.0
 40
4.0
 40
4.0
 40
4.0
 40
4.0
 10
1136.514262953719
 20
93.17019583174218
 30
0.0
 10
1136.514262953719
 20
93.79410262412092
 30
0.0
 10
1136.965914971835
 20
94.27848304934705
 30
0.0
 10
1137.57190726769
 20
94.27848304934705
 30
0.0
 10
1138.170320353478
 20
94.27848304934705
 30
0.0
 10
1138.621283352498
 20
93.79410262412092
 30
0.0
 10
1138.621283352498
 20
93.17019583174218
 30
0.0
 10
1138.621283352498
 20
92.54628903936343
 30
0.0
 10
1138.170320353478
 20
92.06259763323436
 30
0.0
 10
1137.57190726769
 20
92.06259763323436
 30
0.0
 10
1136.965914971835
 20
92.06259763323436
 30
0.0
 10
1136.514262953719
 20
92.54628903936343
 30
0.0
 10
1136.514262953719
 20
93.17019583174218
 30
0.0
  0
SPLINE
  5
646
330
635
100
AcDbEntity
  8
Layer 1
370
     0
100
AcDbSpline
210
0.0
220
0.0
230
1.0
 70
    11
 71
     3
 72
    17
 73
    13
 74
     0
 42
0.0000000001
 43
0.0000000001
 40
0.0
 40
0.0
 40
0.0
 40
0.0
 40
1.0
 40
1.0
 40
1.0
 40
2.0
 40
2.0
 40
2.0
 40
3.0
 40
3.0
 40
3.0
 40
4.0
 40
4.0
 40
4.0
 40
4.0
 10
1136.265527059684
 20
93.17019583174218
 30
0.0
 10
1136.265527059684
 20
92.45258244216464
 30
0.0
 10
1136.849470744434
 20
91.86691620967217
 30
0.0
 10
1137.568462172205
 20
91.86691620967217
 30
0.0
 10
1138.286420071331
 20
91.86691620967217
 30
0.0
 10
1138.870363756081
 20
92.45258244216464
 30
0.0
 10
1138.870363756081
 20
93.17019583174218
 30
0.0
 10
1138.870363756081
 20
93.88849824041677
 30
0.0
 10
1138.286420071331
 20
94.47347545381218
 30
0.0
 10
1137.568462172205
 20
94.47347545381218
 30
0.0
 10
1136.849470744434
 20
94.47347545381218
 30
0.0
 10
1136.265527059684
 20
93.88849824041677
 30
0.0
 10
1136.265527059684
 20
93.17019583174218
 30
0.0
  0
HATCH
  5
647
330
635
100
AcDbEntity
  8
Layer 1
 62
   152
100
AcDbHatch
 10
0.0
 20
0.0
 30
0.0
210
0.0
220
0.0
230
1.0
  2
SOLID
 70
     1
 71
     0
 91
        4
 92
        1
 93
        1
 72
     4
 94
        3
 73
     0
 74
     1
 95
       20
 96
       16
 40
0.0
 40
0.0
 40
0.0
 40
0.0
 40
1.0
 40
1.0
 40
1.0
 40
2.0
 40
2.0
 40
2.0
 40
3.0
 40
3.0
 40
3.0
 40
4.0
 40
4.0
 40
4.0
 40
5.0
 40
5.0
 40
5.0
 40
5.0
 10
1137.319381768621
 20
93.7400146250025
 10
1137.319381768621
 20
93.7400146250025
 10
1137.615315470804
 20
93.7400146250025
 10
1137.615315470804
 20
93.7400146250025
 10
1137.773445353577
 20
93.7400146250025
 10
1137.929508179059
 20
93.6904052500149
 10
1137.929508179059
 20
93.51711694710684
 10
1137.929508179059
 20
93.31799042805939
 10
1137.806173760687
 20
93.27837182997902
 10
1137.615315470804
 20
93.27837182997902
 10
1137.615315470804
 20
93.27837182997902
 10
1137.319381768621
 20
93.27837182997902
 10
1137.319381768621
 20
93.27837182997902
 10
1137.319381768621
 20
93.27837182997902
 10
1137.319381768621
 20
93.7400146250025
 10
1137.319381768621
 20
93.7400146250025
 97
        0
 92
        1
 93
        1
 72
     4
 94
        3
 73
     0
 74
     1
 95
       35
 96
       31
 40
0.0
 40
0.0
 40
0.0
 40
0.0
 40
1.0
 40
1.0
 40
1.0
 40
2.0
 40
2.0
 40
2.0
 40
3.0
 40
3.0
 40
3.0
 40
4.0
 40
4.0
 40
4.0
 40
5.0
 40
5.0
 40
5.0
 40
6.0
 40
6.0
 40
6.0
 40
7.0
 40
7.0
 40
7.0
 40
8.0
 40
8.0
 40
8.0
 40
9.0
 40
9.0
 40
9.0
 40
10.0
 40
10.0
 40
10.0
 40
10.0
 10
1137.069612345941
 20
92.40848521995343
 10
1137.069612345941
 20
92.40848521995343
 10
1137.319381768621
 20
92.40848521995343
 10
1137.319381768621
 20
92.40848521995343
 10
1137.319381768621
 20
92.40848521995343
 10
1137.319381768621
 20
93.08337942551388
 10
1137.319381768621
 20
93.08337942551388
 10
1137.319381768621
 20
93.08337942551388
 10
1137.527810045479
 20
93.08337942551388
 10
1137.527810045479
 20
93.08337942551388
 10
1137.527810045479
 20
93.08337942551388
 10
1137.953968357005
 20
92.40848521995343
 10
1137.953968357005
 20
92.40848521995343
 10
1137.953968357005
 20
92.40848521995343
 10
1138.217862671175
 20
92.40848521995343
 10
1138.217862671175
 20
92.40848521995343
 10
1138.217862671175
 20
92.40848521995343
 10
1137.78446965913
 20
93.08337942551388
 10
1137.78446965913
 20
93.08337942551388
 10
1138.02287026671
 20
93.08337942551388
 10
1138.178588582643
 20
93.26080184300424
 10
1138.178588582643
 20
93.50574813200551
 10
1138.178588582643
 20
93.79410262412092
 10
1138.004611260638
 20
93.93500702946764
 10
1137.654245049788
 20
93.93500702946764
 10
1137.654245049788
 20
93.93500702946764
 10
1137.069612345941
 20
93.93500702946764
 10
1137.069612345941
 20
93.93500702946764
 10
1137.069612345941
 20
93.93500702946764
 10
1137.069612345941
 20
92.40848521995343
 10
1137.069612345941
 20
92.40848521995343
 97
        0
 92
        1
 93
        2
 72
     4
 94
        3
 73
     0
 74
     0
 95
       17
 96
       13
 40
0.0
 40
0.0
 40
0.0
 40
0.0
 40
0.3527777776895833
 40
0.3527777776895833
 40
0.3527777776895833
 40
0.7055555553791667
 40
0.7055555553791667
 40
0.7055555553791667
 40
1.05833333306875
 40
1.05833333306875
 40
1.05833333306875
 40
1.411111110758333
 40
1.411111110758333
 40
1.411111110758333
 40
1.411111110758333
 10
1136.514262953719
 20
93.17019583174218
 10
1136.514262953719
 20
93.79410262412092
 10
1136.965914971835
 20
94.27848304934705
 10
1137.57190726769
 20
94.27848304934705
 10
1138.170320353478
 20
94.27848304934705
 10
1138.621283352498
 20
93.79410262412092
 10
1138.621283352498
 20
93.17019583174218
 10
1138.621283352498
 20
92.54628903936343
 10
1138.170320353478
 20
92.06259763323436
 10
1137.57190726769
 20
92.06259763323436
 10
1136.965914971835
 20
92.06259763323436
 10
1136.514262953719
 20
92.54628903936343
 10
1136.514262953719
 20
93.17019583174218
 72
     1
 10
1136.514262953719
 20
93.17019583174218
 11
1136.514262953719
 21
93.17019583174218
 97
        0
 92
        1
 93
        2
 72
     4
 94
        3
 73
     0
 74
     0
 95
       17
 96
       13
 40
0.0
 40
0.0
 40
0.0
 40
0.0
 40
0.3527777776895833
 40
0.3527777776895833
 40
0.3527777776895833
 40
0.7055555553791667
 40
0.7055555553791667
 40
0.7055555553791667
 40
1.05833333306875
 40
1.05833333306875
 40
1.05833333306875
 40
1.411111110758333
 40
1.411111110758333
 40
1.411111110758333
 40
1.411111110758333
 10
1136.265527059684
 20
93.17019583174218
 10
1136.265527059684
 20
92.45258244216464
 10
1136.849470744434
 20
91.86691620967217
 10
1137.568462172205
 20
91.86691620967217
 10
1138.286420071331
 20
91.86691620967217
 10
1138.870363756081
 20
92.45258244216464
 10
1138.870363756081
 20
93.17019583174218
 10
1138.870363756081
 20
93.88849824041677
 10
1138.286420071331
 20
94.47347545381218
 10
1137.568462172205
 20
94.47347545381218
 10
1136.849470744434
 20
94.47347545381218
 10
1136.265527059684
 20
93.88849824041677
 10
1136.265527059684
 20
93.17019583174218
 72
     1
 10
1136.265527059684
 20
93.17019583174218
 11
1136.265527059684
 21
93.17019583174218
 97
        0
 75
     2
 76
     1
 98
        0
  0
ENDBLK
  5
638
330
635
100
AcDbEntity
  8
0
100
AcDbBlockEnd
  0
ENDSEC
  0
SECTION
  2
ENTITIES
  0
INSERT
  5
3D
330
1F
100
AcDbEntity
  8
Layer 1
100
AcDbBlockReference
  2
block 2
 10
0.0
 20
0.0
 30
0.0
  0
MTEXT
  5
634
330
1F
100
AcDbEntity
  8
Layer 1
 62
     7
100
AcDbMText
 10
1001.109952549202
 20
67.77226289538332
 30
0.0
 40
9.595555553156668
 41
0.0
 71
     7
 72
     1
  1
\fFrutiger LT Std 55 Roman|b0|i0|c0|p34;\W1;CAD Drawing: NP610
 73
     1
 44
1.0
  0
INSERT
  5
636
330
1F
100
AcDbEntity
  8
Layer 1
100
AcDbBlockReference
  2
block 3
 10
0.0
 20
0.0
 30
0.0
  0
ENDSEC
  0
SECTION
  2
OBJECTS
  0
DICTIONARY
  5
C
330
0
100
AcDbDictionary
281
     1
  3
ACAD_GROUP
350
D
  3
ACAD_LAYOUT
350
1A
  3
ACAD_MLINESTYLE
350
17
  3
ACAD_PLOTSETTINGS
350
19
  3
ACAD_PLOTSTYLENAME
350
E
  3
ACAD_TABLESTYLE
350
648
  3
ACAD_VISUALSTYLE
350
2A
  0
DICTIONARY
  5
D
102
{ACAD_REACTORS
330
C
102
}
330
C
100
AcDbDictionary
281
     1
  0
DICTIONARY
  5
1A
102
{ACAD_REACTORS
330
C
102
}
330
C
100
AcDbDictionary
281
     1
  3
Layout1
350
1E
  3
Layout2
350
26
  3
Model
350
22
  0
DICTIONARY
  5
17
102
{ACAD_REACTORS
330
C
102
}
330
C
100
AcDbDictionary
281
     1
  3
Standard
350
18
  0
DICTIONARY
  5
19
102
{ACAD_REACTORS
330
C
102
}
330
C
100
AcDbDictionary
281
     1
  0
ACDBDICTIONARYWDFLT
  5
E
102
{ACAD_REACTORS
330
C
102
}
330
C
100
AcDbDictionary
281
     1
  3
Normal
350
F
100
AcDbDictionaryWithDefault
340
F
  0
DICTIONARY
  5
648
102
{ACAD_REACTORS
330
C
102
}
330
C
100
AcDbDictionary
281
     1
  0
DICTIONARY
  5
2A
102
{ACAD_REACTORS
330
C
102
}
330
C
100
AcDbDictionary
281
     1
  3
2dWireframe
350
2F
  3
3D Hidden
350
31
  3
3dWireframe
350
30
  3
Basic
350
32
  3
Brighten
350
36
  3
ColorChange
350
3A
  3
Conceptual
350
34
  3
Dim
350
35
  3
Facepattern
350
39
  3
Flat
350
2B
  3
FlatWithEdges
350
2C
  3
Gouraud
350
2D
  3
GouraudWithEdges
350
2E
  3
Linepattern
350
38
  3
Realistic
350
33
  3
Thicken
350
37
  0
LAYOUT
  5
1E
102
{ACAD_REACTORS
330
1A
102
}
330
1A
100
AcDbPlotSettings
  1

  2
none_device
  4

  6

 40
0.0
 41
0.0
 42
0.0
 43
0.0
 44
0.0
 45
0.0
 46
0.0
 47
0.0
 48
0.0
 49
0.0
140
0.0
141
0.0
142
1.0
143
1.0
 70
   688
 72
     0
 73
     0
 74
     5
  7

 75
    16
147
1.0
148
0.0
149
0.0
100
AcDbLayout
  1
Layout1
 70
     1
 71
     1
 10
0.0
 20
0.0
 11
12.0
 21
9.0
 12
0.0
 22
0.0
 32
0.0
 14
1.000000000000000E+20
 24
1.000000000000000E+20
 34
1.000000000000000E+20
 15
-1.000000000000000E+20
 25
-1.000000000000000E+20
 35
-1.000000000000000E+20
146
0.0
 13
0.0
 23
0.0
 33
0.0
 16
1.0
 26
0.0
 36
0.0
 17
0.0
 27
1.0
 37
0.0
 76
     0
330
1B
  0
LAYOUT
  5
26
102
{ACAD_REACTORS
330
1A
102
}
330
1A
100
AcDbPlotSettings
  1

  2
none_device
  4

  6

 40
0.0
 41
0.0
 42
0.0
 43
0.0
 44
0.0
 45
0.0
 46
0.0
 47
0.0
 48
0.0
 49
0.0
140
0.0
141
0.0
142
1.0
143
1.0
 70
   688
 72
     0
 73
     0
 74
     5
  7

 75
    16
147
1.0
148
0.0
149
0.0
100
AcDbLayout
  1
Layout2
 70
     1
 71
     2
 10
0.0
 20
0.0
 11
0.0
 21
0.0
 12
0.0
 22
0.0
 32
0.0
 14
0.0
 24
0.0
 34
0.0
 15
0.0
 25
0.0
 35
0.0
146
0.0
 13
0.0
 23
0.0
 33
0.0
 16
1.0
 26
0.0
 36
0.0
 17
0.0
 27
1.0
 37
0.0
 76
     0
330
23
  0
LAYOUT
  5
22
102
{ACAD_REACTORS
330
1A
102
}
330
1A
100
AcDbPlotSettings
  1

  2
none_device
  4

  6

 40
0.0
 41
0.0
 42
0.0
 43
0.0
 44
0.0
 45
0.0
 46
0.0
 47
0.0
 48
0.0
 49
0.0
140
0.0
141
0.0
142
1.0
143
1.0
 70
  1712
 72
     0
 73
     0
 74
     0
  7

 75
     0
147
1.0
148
0.0
149
0.0
100
AcDbLayout
  1
Model
 70
     1
 71
     0
 10
0.0
 20
0.0
 11
12.0
 21
9.0
 12
0.0
 22
0.0
 32
0.0
 14
1.000000000000000E+20
 24
1.000000000000000E+20
 34
1.000000000000000E+20
 15
-1.000000000000000E+20
 25
-1.000000000000000E+20
 35
-1.000000000000000E+20
146
0.0
 13
0.0
 23
0.0
 33
0.0
 16
1.0
 26
0.0
 36
0.0
 17
0.0
 27
1.0
 37
0.0
 76
     0
330
1F
331
29
  0
MLINESTYLE
  5
18
102
{ACAD_REACTORS
330
17
102
}
330
17
100
AcDbMlineStyle
  2
Standard
 70
     0
  3

 62
   256
 51
90.0
 52
90.0
 71
     2
 49
0.5
 62
   256
  6
BYLAYER
 49
-0.5
 62
   256
  6
BYLAYER
  0
ACDBPLACEHOLDER
  5
F
102
{ACAD_REACTORS
330
E
102
}
330
E
  0
VISUALSTYLE
  5
2F
102
{ACAD_REACTORS
330
2A
102
}
330
2A
100
AcDbVisualStyle
  2
2dWireframe
 70
     4
 71
     0
 72
     2
 73
     0
 90
        0
 40
-0.6
 41
-30.0
 62
     5
 63
     7
 74
     1
 91
        4
 64
     7
 65
   257
 75
     1
175
     1
 42
1.0
 92
        0
 66
   257
 43
1.0
 76
     1
 77
     6
 78
     2
 67
     7
 79
     5
170
     0
171
     0
290
     0
174
     0
 93
        1
 44
0.0
173
     0
291
     0
 45
0.0
1001
ACAD
1000
AcDbSavedByObjectVersion
1070
     0
  0
VISUALSTYLE
  5
31
102
{ACAD_REACTORS
330
2A
102
}
330
2A
100
AcDbVisualStyle
  2
3D Hidden
 70
     6
 71
     1
 72
     2
 73
     2
 90
        0
 40
-0.6
 41
-30.0
 62
     5
 63
     7
 74
     2
 91
        2
 64
     7
 65
   257
 75
     2
175
     1
 42
40.0
 92
        0
 66
   257
 43
1.0
 76
     1
 77
     6
 78
     2
 67
     7
 79
     3
170
     0
171
     0
290
     0
174
     0
 93
        1
 44
0.0
173
     0
291
     0
 45
0.0
1001
ACAD
1000
AcDbSavedByObjectVersion
1070
     0
  0
VISUALSTYLE
  5
30
102
{ACAD_REACTORS
330
2A
102
}
330
2A
100
AcDbVisualStyle
  2
3dWireframe
 70
     5
 71
     0
 72
     2
 73
     0
 90
        0
 40
-0.6
 41
-30.0
 62
     5
 63
     7
 74
     1
 91
        4
 64
     7
 65
   257
 75
     1
175
     1
 42
1.0
 92
        0
 66
   257
 43
1.0
 76
     1
 77
     6
 78
     2
 67
     7
 79
     5
170
     0
171
     0
290
     0
174
     0
 93
        1
 44
0.0
173
     0
291
     0
 45
0.0
1001
ACAD
1000
AcDbSavedByObjectVersion
1070
     0
  0
VISUALSTYLE
  5
32
102
{ACAD_REACTORS
330
2A
102
}
330
2A
100
AcDbVisualStyle
  2
Basic
 70
     7
 71
     1
 72
     0
 73
     1
 90
        0
 40
-0.6
 41
-30.0
 62
     5
 63
     7
 74
     0
 91
        4
 64
     7
 65
   257
 75
     1
175
     1
 42
1.0
 92
        8
 66
     7
 43
1.0
 76
     1
 77
     6
 78
     2
 67
     7
 79
     5
170
     0
171
     0
290
     0
174
     0
 93
        1
 44
0.0
173
     0
291
     1
 45
0.0
1001
ACAD
1000
AcDbSavedByObjectVersion
1070
     0
  0
VISUALSTYLE
  5
36
102
{ACAD_REACTORS
330
2A
102
}
330
2A
100
AcDbVisualStyle
  2
Brighten
 70
    12
 71
     2
 72
     2
 73
     0
 90
        0
 40
-0.6
 41
-30.0
 62
     5
 63
     7
 74
     1
 91
        4
 64
     7
 65
   257
 75
     1
175
     1
 42
1.0
 92
        8
 66
     7
 43
1.0
 76
     1
 77
     6
 78
     2
 67
     7
 79
     5
170
     0
171
     0
290
     0
174
     0
 93
        1
 44
50.0
173
     0
291
     1
 45
0.0
1001
ACAD
1000
AcDbSavedByObjectVersion
1070
     0
  0
VISUALSTYLE
  5
3A
102
{ACAD_REACTORS
330
2A
102
}
330
2A
100
AcDbVisualStyle
  2
ColorChange
 70
    16
 71
     2
 72
     2
 73
     3
 90
        0
 40
-0.6
 41
-30.0
 62
     5
 63
     8
 74
     1
 91
        4
 64
     7
 65
   257
 75
     1
175
     1
 42
1.0
 92
        8
 66
     8
 43
1.0
 76
     1
 77
     6
 78
     2
 67
     7
 79
     5
170
     0
171
     0
290
     0
174
     0
 93
        1
 44
0.0
173
     0
291
     1
 45
0.0
1001
ACAD
1000
AcDbSavedByObjectVersion
1070
     0
  0
VISUALSTYLE
  5
34
102
{ACAD_REACTORS
330
2A
102
}
330
2A
100
AcDbVisualStyle
  2
Conceptual
 70
     9
 71
     3
 72
     2
 73
     0
 90
        0
 40
-0.6
 41
-30.0
 62
     5
 63
     7
 74
     2
 91
        2
 64
     7
 65
   257
 75
     1
175
     1
 42
40.0
 92
        8
 66
     7
 43
1.0
 76
     1
 77
     6
 78
     2
 67
     7
 79
     3
170
     0
171
     0
290
     0
174
     0
 93
        1
 44
0.0
173
     0
291
     0
 45
0.0
1001
ACAD
1000
AcDbSavedByObjectVersion
1070
     0
  0
VISUALSTYLE
  5
35
102
{ACAD_REACTORS
330
2A
102
}
330
2A
100
AcDbVisualStyle
  2
Dim
 70
    11
 71
     2
 72
     2
 73
     0
 90
        0
 40
-0.6
 41
-30.0
 62
     5
 63
     7
 74
     1
 91
        4
 64
     7
 65
   257
 75
     1
175
     1
 42
1.0
 92
        8
 66
     7
 43
1.0
 76
     1
 77
     6
 78
     2
 67
     7
 79
     5
170
     0
171
     0
290
     0
174
     0
 93
        1
 44
-50.0
173
     0
291
     1
 45
0.0
1001
ACAD
1000
AcDbSavedByObjectVersion
1070
     0
  0
VISUALSTYLE
  5
39
102
{ACAD_REACTORS
330
2A
102
}
330
2A
100
AcDbVisualStyle
  2
Facepattern
 70
    15
 71
     2
 72
     2
 73
     0
 90
        0
 40
-0.6
 41
-30.0
 62
     5
 63
     7
 74
     1
 91
        4
 64
     7
 65
   257
 75
     1
175
     1
 42
1.0
 92
        8
 66
     7
 43
1.0
 76
     1
 77
     6
 78
     2
 67
     7
 79
     5
170
     0
171
     0
290
     0
174
     0
 93
        1
 44
0.0
173
     0
291
     1
 45
0.0
1001
ACAD
1000
AcDbSavedByObjectVersion
1070
     0
  0
VISUALSTYLE
  5
2B
102
{ACAD_REACTORS
330
2A
102
}
330
2A
100
AcDbVisualStyle
  2
Flat
 70
     0
 71
     2
 72
     1
 73
     1
 90
        2
 40
-0.6
 41
30.0
 62
     5
 63
     7
 74
     0
 91
        4
 64
     7
 65
   257
 75
     1
175
     1
 42
1.0
 92
        8
 66
     7
 43
1.0
 76
     1
 77
     6
 78
     2
 67
     7
 79
     5
170
     0
171
     0
290
     0
174
     0
 93
       13
 44
0.0
173
     0
291
     1
 45
0.0
1001
ACAD
1000
AcDbSavedByObjectVersion
1070
     0
  0
VISUALSTYLE
  5
2C
102
{ACAD_REACTORS
330
2A
102
}
330
2A
100
AcDbVisualStyle
  2
FlatWithEdges
 70
     1
 71
     2
 72
     1
 73
     1
 90
        2
 40
-0.6
 41
30.0
 62
     5
 63
     7
 74
     1
 91
        4
 64
     7
 65
   257
 75
     1
175
     1
 42
1.0
 92
        0
 66
   257
 43
1.0
 76
     1
 77
     6
 78
     2
 67
     7
 79
     5
170
     0
171
     0
290
     0
174
     0
 93
       13
 44
0.0
173
     0
291
     1
 45
0.0
1001
ACAD
1000
AcDbSavedByObjectVersion
1070
     0
  0
VISUALSTYLE
  5
2D
102
{ACAD_REACTORS
330
2A
102
}
330
2A
100
AcDbVisualStyle
  2
Gouraud
 70
     2
 71
     2
 72
     2
 73
     1
 90
        2
 40
-0.6
 41
30.0
 62
     5
 63
     7
 74
     0
 91
        4
 64
     7
 65
   257
 75
     1
175
     1
 42
1.0
 92
        0
 66
     7
 43
1.0
 76
     1
 77
     6
 78
     2
 67
     7
 79
     5
170
     0
171
     0
290
     0
174
     0
 93
       13
 44
0.0
173
     0
291
     1
 45
0.0
1001
ACAD
1000
AcDbSavedByObjectVersion
1070
     0
  0
VISUALSTYLE
  5
2E
102
{ACAD_REACTORS
330
2A
102
}
330
2A
100
AcDbVisualStyle
  2
GouraudWithEdges
 70
     3
 71
     2
 72
     2
 73
     1
 90
        2
 40
-0.6
 41
30.0
 62
     5
 63
     7
 74
     1
 91
        4
 64
     7
 65
   257
 75
     1
175
     1
 42
1.0
 92
        0
 66
   257
 43
1.0
 76
     1
 77
     6
 78
     2
 67
     7
 79
     5
170
     0
171
     0
290
     0
174
     0
 93
       13
 44
0.0
173
     0
291
     1
 45
0.0
1001
ACAD
1000
AcDbSavedByObjectVersion
1070
     0
  0
VISUALSTYLE
  5
38
102
{ACAD_REACTORS
330
2A
102
}
330
2A
100
AcDbVisualStyle
  2
Linepattern
 70
    14
 71
     2
 72
     2
 73
     0
 90
        0
 40
-0.6
 41
-30.0
 62
     5
 63
     7
 74
     1
 91
        4
 64
     7
 65
   257
 75
     7
175
     7
 42
1.0
 92
        8
 66
     7
 43
1.0
 76
     1
 77
     6
 78
     2
 67
     7
 79
     5
170
     0
171
     0
290
     0
174
     0
 93
        1
 44
0.0
173
     0
291
     1
 45
0.0
1001
ACAD
1000
AcDbSavedByObjectVersion
1070
     0
  0
VISUALSTYLE
  5
33
102
{ACAD_REACTORS
330
2A
102
}
330
2A
100
AcDbVisualStyle
  2
Realistic
 70
     8
 71
     2
 72
     2
 73
     0
 90
        0
 40
-0.6
 41
-30.0
 62
     5
 63
     7
 74
     1
 91
        0
 64
     7
 65
   257
 75
     1
175
     1
 42
1.0
 92
        8
 66
     8
 43
1.0
 76
     1
 77
     6
 78
     2
 67
     7
 79
     5
170
     0
171
     0
290
     0
174
     0
 93
       13
 44
0.0
173
     0
291
     0
 45
0.0
1001
ACAD
1000
AcDbSavedByObjectVersion
1070
     0
  0
VISUALSTYLE
  5
37
102
{ACAD_REACTORS
330
2A
102
}
330
2A
100
AcDbVisualStyle
  2
Thicken
 70
    13
 71
     2
 72
     2
 73
     0
 90
        0
 40
-0.6
 41
-30.0
 62
     5
 63
     7
 74
     1
 91
        4
 64
     7
 65
   257
 75
     1
175
     1
 42
1.0
 92
       12
 66
     7
 43
1.0
 76
     1
 77
     6
 78
     2
 67
     7
 79
     5
170
     0
171
     0
290
     0
174
     0
 93
        1
 44
0.0
173
     0
291
     1
 45
0.0
1001
ACAD
1000
AcDbSavedByObjectVersion
1070
     0
  0
ENDSEC
  0
EOF
