  0
SECTION
  2
HEADER
  9
$ACADVER
  1
AC1024
  9
$ACADMAINTVER
 70
     6
  9
$DWGCODEPAGE
  3
ANSI_1252
  9
$INSBASE
 10
0.0
 20
0.0
 30
0.0
  9
$EXTMIN
 10
1.000000000000000E+20
 20
1.000000000000000E+20
 30
1.000000000000000E+20
  9
$EXTMAX
 10
-1.000000000000000E+20
 20
-1.000000000000000E+20
 30
-1.000000000000000E+20
  9
$LIMMIN
 10
0.0
 20
0.0
  9
$LIMMAX
 10
12.0
 20
9.0
  9
$ORTHOMODE
 70
     0
  9
$REGENMODE
 70
     1
  9
$FILLMODE
 70
     1
  9
$QTEXTMODE
 70
     0
  9
$MIRRTEXT
 70
     1
  9
$LTSCALE
 40
1.0
  9
$ATTMODE
 70
     1
  9
$TEXTSIZE
 40
0.2
  9
$TRACEWID
 40
0.05
  9
$TEXTSTYLE
  7
Standard
  9
$CLAYER
  8
0
  9
$CELTYPE
  6
ByLayer
  9
$CECOLOR
 62
   256
  9
$CELTSCALE
 40
1.0
  9
$DISPSILH
 70
     0
  9
$DIMSCALE
 40
1.0
  9
$DIMASZ
 40
0.18
  9
$DIMEXO
 40
0.0625
  9
$DIMDLI
 40
0.38
  9
$DIMRND
 40
0.0
  9
$DIMDLE
 40
0.0
  9
$DIMEXE
 40
0.18
  9
$DIMTP
 40
0.0
  9
$DIMTM
 40
0.0
  9
$DIMTXT
 40
0.18
  9
$DIMCEN
 40
0.09
  9
$DIMTSZ
 40
0.0
  9
$DIMTOL
 70
     0
  9
$DIMLIM
 70
     0
  9
$DIMTIH
 70
     1
  9
$DIMTOH
 70
     1
  9
$DIMSE1
 70
     0
  9
$DIMSE2
 70
     0
  9
$DIMTAD
 70
     0
  9
$DIMZIN
 70
     0
  9
$DIMBLK
  1

  9
$DIMASO
 70
     1
  9
$DIMSHO
 70
     1
  9
$DIMPOST
  1

  9
$DIMAPOST
  1

  9
$DIMALT
 70
     0
  9
$DIMALTD
 70
     2
  9
$DIMALTF
 40
25.4
  9
$DIMLFAC
 40
1.0
  9
$DIMTOFL
 70
     0
  9
$DIMTVP
 40
0.0
  9
$DIMTIX
 70
     0
  9
$DIMSOXD
 70
     0
  9
$DIMSAH
 70
     0
  9
$DIMBLK1
  1

  9
$DIMBLK2
  1

  9
$DIMSTYLE
  2
Standard
  9
$DIMCLRD
 70
     0
  9
$DIMCLRE
 70
     0
  9
$DIMCLRT
 70
     0
  9
$DIMTFAC
 40
1.0
  9
$DIMGAP
 40
0.09
  9
$DIMJUST
 70
     0
  9
$DIMSD1
 70
     0
  9
$DIMSD2
 70
     0
  9
$DIMTOLJ
 70
     1
  9
$DIMTZIN
 70
     0
  9
$DIMALTZ
 70
     0
  9
$DIMALTTZ
 70
     0
  9
$DIMUPT
 70
     0
  9
$DIMDEC
 70
     4
  9
$DIMTDEC
 70
     4
  9
$DIMALTU
 70
     2
  9
$DIMALTTD
 70
     2
  9
$DIMTXSTY
  7
Standard
  9
$DIMAUNIT
 70
     0
  9
$DIMADEC
 70
     0
  9
$DIMALTRND
 40
0.0
  9
$DIMAZIN
 70
     0
  9
$DIMDSEP
 70
    46
  9
$DIMATFIT
 70
     3
  9
$DIMFRAC
 70
     0
  9
$DIMLDRBLK
  1

  9
$DIMLUNIT
 70
     2
  9
$DIMLWD
 70
    -2
  9
$DIMLWE
 70
    -2
  9
$DIMTMOVE
 70
     0
  9
$DIMFXL
 40
1.0
  9
$DIMFXLON
 70
     0
  9
$DIMJOGANG
 40
0.7853981633974483
  9
$DIMTFILL
 70
     0
  9
$DIMTFILLCLR
 70
     0
  9
$DIMARCSYM
 70
     0
  9
$DIMLTYPE
  6

  9
$DIMLTEX1
  6

  9
$DIMLTEX2
  6

  9
$DIMTXTDIRECTION
 70
     0
  9
$LUNITS
 70
     2
  9
$LUPREC
 70
     4
  9
$SKETCHINC
 40
0.1
  9
$FILLETRAD
 40
0.5
  9
$AUNITS
 70
     0
  9
$AUPREC
 70
     0
  9
$MENU
  1
.
  9
$ELEVATION
 40
0.0
  9
$PELEVATION
 40
0.0
  9
$THICKNESS
 40
0.0
  9
$LIMCHECK
 70
     0
  9
$CHAMFERA
 40
0.5
  9
$CHAMFERB
 40
0.5
  9
$CHAMFERC
 40
1.0
  9
$CHAMFERD
 40
0.0
  9
$SKPOLY
 70
     0
  9
$TDCREATE
 40
2457115.508276644
  9
$TDUCREATE
 40
2457115.070776644
  9
$TDUPDATE
 40
2457115.508276829
  9
$TDUUPDATE
 40
2457115.070776829
  9
$TDINDWG
 40
0.0000000116
  9
$TDUSRTIMER
 40
0.0000000116
  9
$USRTIMER
 70
     1
  9
$ANGBASE
 50
0.0
  9
$ANGDIR
 70
     0
  9
$PDMODE
 70
     0
  9
$PDSIZE
 40
0.0
  9
$PLINEWID
 40
0.0
  9
$SPLFRAME
 70
     0
  9
$SPLINETYPE
 70
     6
  9
$SPLINESEGS
 70
     8
  9
$HANDSEED
  5
2E8
  9
$SURFTAB1
 70
     6
  9
$SURFTAB2
 70
     6
  9
$SURFTYPE
 70
     6
  9
$SURFU
 70
     6
  9
$SURFV
 70
     6
  9
$UCSBASE
  2

  9
$UCSNAME
  2

  9
$UCSORG
 10
0.0
 20
0.0
 30
0.0
  9
$UCSXDIR
 10
1.0
 20
0.0
 30
0.0
  9
$UCSYDIR
 10
0.0
 20
1.0
 30
0.0
  9
$UCSORTHOREF
  2

  9
$UCSORTHOVIEW
 70
     0
  9
$UCSORGTOP
 10
0.0
 20
0.0
 30
0.0
  9
$UCSORGBOTTOM
 10
0.0
 20
0.0
 30
0.0
  9
$UCSORGLEFT
 10
0.0
 20
0.0
 30
0.0
  9
$UCSORGRIGHT
 10
0.0
 20
0.0
 30
0.0
  9
$UCSORGFRONT
 10
0.0
 20
0.0
 30
0.0
  9
$UCSORGBACK
 10
0.0
 20
0.0
 30
0.0
  9
$PUCSBASE
  2

  9
$PUCSNAME
  2

  9
$PUCSORG
 10
0.0
 20
0.0
 30
0.0
  9
$PUCSXDIR
 10
1.0
 20
0.0
 30
0.0
  9
$PUCSYDIR
 10
0.0
 20
1.0
 30
0.0
  9
$PUCSORTHOREF
  2

  9
$PUCSORTHOVIEW
 70
     0
  9
$PUCSORGTOP
 10
0.0
 20
0.0
 30
0.0
  9
$PUCSORGBOTTOM
 10
0.0
 20
0.0
 30
0.0
  9
$PUCSORGLEFT
 10
0.0
 20
0.0
 30
0.0
  9
$PUCSORGRIGHT
 10
0.0
 20
0.0
 30
0.0
  9
$PUCSORGFRONT
 10
0.0
 20
0.0
 30
0.0
  9
$PUCSORGBACK
 10
0.0
 20
0.0
 30
0.0
  9
$USERI1
 70
     0
  9
$USERI2
 70
     0
  9
$USERI3
 70
     0
  9
$USERI4
 70
     0
  9
$USERI5
 70
     0
  9
$USERR1
 40
0.0
  9
$USERR2
 40
0.0
  9
$USERR3
 40
0.0
  9
$USERR4
 40
0.0
  9
$USERR5
 40
0.0
  9
$WORLDVIEW
 70
     1
  9
$SHADEDGE
 70
     3
  9
$SHADEDIF
 70
    70
  9
$TILEMODE
 70
     1
  9
$MAXACTVP
 70
    64
  9
$PINSBASE
 10
0.0
 20
0.0
 30
0.0
  9
$PLIMCHECK
 70
     0
  9
$PEXTMIN
 10
1.000000000000000E+20
 20
1.000000000000000E+20
 30
1.000000000000000E+20
  9
$PEXTMAX
 10
-1.000000000000000E+20
 20
-1.000000000000000E+20
 30
-1.000000000000000E+20
  9
$PLIMMIN
 10
0.0
 20
0.0
  9
$PLIMMAX
 10
12.0
 20
9.0
  9
$UNITMODE
 70
     0
  9
$VISRETAIN
 70
     1
  9
$PLINEGEN
 70
     0
  9
$PSLTSCALE
 70
     1
  9
$TREEDEPTH
 70
  3020
  9
$CMLSTYLE
  2
Standard
  9
$CMLJUST
 70
     0
  9
$CMLSCALE
 40
1.0
  9
$PROXYGRAPHICS
 70
     1
  9
$MEASUREMENT
 70
     0
  9
$CELWEIGHT
370
    -1
  9
$ENDCAPS
280
     0
  9
$JOINSTYLE
280
     0
  9
$LWDISPLAY
290
     1
  9
$INSUNITS
 70
     1
  9
$HYPERLINKBASE
  1

  9
$STYLESHEET
  1

  9
$XEDIT
290
     1
  9
$CEPSNTYPE
380
     0
  9
$PSTYLEMODE
290
     1
  9
$FINGERPRINTGUID
  2
{3196257F-8FEC-4E8D-845D-14C1E738D98D}
  9
$VERSIONGUID
  2
{FAEB1C32-E019-11D5-929B-00C0DF256EC4}
  9
$EXTNAMES
290
     1
  9
$PSVPSCALE
 40
0.0
  9
$OLESTARTUP
290
     0
  9
$SORTENTS
280
   127
  9
$INDEXCTL
280
     0
  9
$HIDETEXT
280
     1
  9
$XCLIPFRAME
280
     2
  9
$HALOGAP
280
     0
  9
$OBSCOLOR
 70
   257
  9
$OBSLTYPE
280
     0
  9
$INTERSECTIONDISPLAY
280
     0
  9
$INTERSECTIONCOLOR
 70
   257
  9
$DIMASSOC
280
     2
  9
$PROJECTNAME
  1

  9
$CAMERADISPLAY
290
     0
  9
$LENSLENGTH
 40
50.0
  9
$CAMERAHEIGHT
 40
0.0
  9
$STEPSPERSEC
 40
2.0
  9
$STEPSIZE
 40
6.0
  9
$3DDWFPREC
 40
2.0
  9
$PSOLWIDTH
 40
0.25
  9
$PSOLHEIGHT
 40
4.0
  9
$LOFTANG1
 40
1.570796326794897
  9
$LOFTANG2
 40
1.570796326794897
  9
$LOFTMAG1
 40
0.0
  9
$LOFTMAG2
 40
0.0
  9
$LOFTPARAM
 70
     7
  9
$LOFTNORMALS
280
     1
  9
$LATITUDE
 40
37.795
  9
$LONGITUDE
 40
-122.394
  9
$NORTHDIRECTION
 40
0.0
  9
$TIMEZONE
 70
 -8000
  9
$LIGHTGLYPHDISPLAY
280
     1
  9
$TILEMODELIGHTSYNCH
280
     1
  9
$CMATERIAL
347
3C
  9
$SOLIDHIST
280
     1
  9
$SHOWHIST
280
     1
  9
$DWFFRAME
280
     2
  9
$DGNFRAME
280
     2
  9
$REALWORLDSCALE
290
     1
  9
$INTERFERECOLOR
 62
   256
  9
$CSHADOW
280
     0
  9
$SHADOWPLANELOCATION
 40
0.0
  0
ENDSEC
  0
SECTION
  2
CLASSES
  0
CLASS
  1
ACDBDICTIONARYWDFLT
  2
AcDbDictionaryWithDefault
  3
ObjectDBX Classes
 90
        0
 91
        4
280
     0
281
     0
  0
CLASS
  1
VISUALSTYLE
  2
AcDbVisualStyle
  3
ObjectDBX Classes
 90
     4095
 91
        4
280
     0
281
     0
  0
CLASS
  1
MATERIAL
  2
AcDbMaterial
  3
ObjectDBX Classes
 90
     1153
 91
        4
280
     0
281
     0
  0
CLASS
  1
SUN
  2
AcDbSun
  3
SCENEOE
 90
     1024
 91
        4
280
     0
281
     0
  0
ENDSEC
  0
SECTION
  2
TABLES
  0
TABLE
  2
VPORT
  5
8
330
0
100
AcDbSymbolTable
 70
     1
  0
VPORT
  5
29
330
8
100
AcDbSymbolTableRecord
100
AcDbViewportTableRecord
  2
*Active
 70
     0
 10
0.0
 20
0.0
 11
1.0
 21
1.0
 12
0.0
 22
0.0
 13
0.0
 23
0.0
 14
0.5
 24
0.5
 15
0.5
 25
0.5
 16
0.0
 26
0.0
 36
1.0
 17
2.458333333333332
 27
20.9272497337593
 37
0.0
 40
54.13560525381611
 41
0.9810754098360657
 42
50.0
 43
0.0
 44
0.0
 50
0.0
 51
0.0
 71
     0
 72
   100
 73
     1
 74
     3
 75
     0
 76
     0
 77
     0
 78
     0
281
     0
 65
     1
110
0.0
120
0.0
130
0.0
111
1.0
121
0.0
131
0.0
112
0.0
122
1.0
132
0.0
 79
     0
146
0.0
 60
     3
 61
     5
292
     1
282
     1
141
0.0
142
0.0
 63
   250
361
3F
  0
ENDTAB
  0
TABLE
  2
LTYPE
  5
5
330
0
100
AcDbSymbolTable
 70
     1
  0
LTYPE
  5
14
330
5
100
AcDbSymbolTableRecord
100
AcDbLinetypeTableRecord
  2
ByBlock
 70
     0
  3

 72
    65
 73
     0
 40
0.0
  0
LTYPE
  5
15
330
5
100
AcDbSymbolTableRecord
100
AcDbLinetypeTableRecord
  2
ByLayer
 70
     0
  3

 72
    65
 73
     0
 40
0.0
  0
LTYPE
  5
16
330
5
100
AcDbSymbolTableRecord
100
AcDbLinetypeTableRecord
  2
Continuous
 70
     0
  3
Solid line
 72
    65
 73
     0
 40
0.0
  0
ENDTAB
  0
TABLE
  2
LAYER
  5
2
330
0
100
AcDbSymbolTable
 70
     2
  0
LAYER
  5
10
330
2
100
AcDbSymbolTableRecord
100
AcDbLayerTableRecord
  2
0
 70
     0
 62
     7
  6
Continuous
370
    -3
390
F
347
3E
  0
LAYER
  5
40
330
2
100
AcDbSymbolTableRecord
100
AcDbLayerTableRecord
  2
Layer 1
 70
     0
 62
     7
  6
Continuous
370
    -3
390
F
347
3E
  0
ENDTAB
  0
TABLE
  2
STYLE
  5
3
330
0
100
AcDbSymbolTable
 70
     1
  0
STYLE
  5
11
330
3
100
AcDbSymbolTableRecord
100
AcDbTextStyleTableRecord
  2
Standard
 70
     0
 40
0.0
 41
1.0
 50
0.0
 71
     0
 42
0.2
  3
txt
  4

  0
ENDTAB
  0
TABLE
  2
VIEW
  5
6
330
0
100
AcDbSymbolTable
 70
     0
  0
ENDTAB
  0
TABLE
  2
UCS
  5
7
330
0
100
AcDbSymbolTable
 70
     0
  0
ENDTAB
  0
TABLE
  2
APPID
  5
9
330
0
100
AcDbSymbolTable
 70
     1
  0
APPID
  5
12
330
9
100
AcDbSymbolTableRecord
100
AcDbRegAppTableRecord
  2
ACAD
 70
     0
  0
ENDTAB
  0
TABLE
  2
DIMSTYLE
  5
A
330
0
100
AcDbSymbolTable
 70
     1
100
AcDbDimStyleTable
  0
DIMSTYLE
105
27
330
A
100
AcDbSymbolTableRecord
100
AcDbDimStyleTableRecord
  2
Standard
 70
     0
178
     0
340
11
  0
ENDTAB
  0
TABLE
  2
BLOCK_RECORD
  5
1
330
0
100
AcDbSymbolTable
 70
    43
  0
BLOCK_RECORD
  5
1F
330
1
100
AcDbSymbolTableRecord
100
AcDbBlockTableRecord
  2
*Model_Space
340
22
 70
     0
280
     1
281
     0
  0
BLOCK_RECORD
  5
1B
330
1
100
AcDbSymbolTableRecord
100
AcDbBlockTableRecord
  2
*Paper_Space
340
1E
 70
     0
280
     1
281
     0
  0
BLOCK_RECORD
  5
23
330
1
100
AcDbSymbolTableRecord
100
AcDbBlockTableRecord
  2
*Paper_Space0
340
26
 70
     0
280
     1
281
     0
  0
BLOCK_RECORD
  5
15C
330
1
100
AcDbSymbolTableRecord
100
AcDbBlockTableRecord
  2
block 2
340
0
102
{BLKREFS
331
15D
102
}
 70
     0
280
     1
281
     0
  0
BLOCK_RECORD
  5
164
330
1
100
AcDbSymbolTableRecord
100
AcDbBlockTableRecord
  2
block 3
340
0
102
{BLKREFS
331
165
102
}
 70
     0
280
     1
281
     0
  0
BLOCK_RECORD
  5
16F
330
1
100
AcDbSymbolTableRecord
100
AcDbBlockTableRecord
  2
block 4
340
0
102
{BLKREFS
331
170
102
}
 70
     0
280
     1
281
     0
  0
BLOCK_RECORD
  5
177
330
1
100
AcDbSymbolTableRecord
100
AcDbBlockTableRecord
  2
block 5
340
0
102
{BLKREFS
331
178
102
}
 70
     0
280
     1
281
     0
  0
BLOCK_RECORD
  5
182
330
1
100
AcDbSymbolTableRecord
100
AcDbBlockTableRecord
  2
block 6
340
0
102
{BLKREFS
331
183
102
}
 70
     0
280
     1
281
     0
  0
BLOCK_RECORD
  5
18A
330
1
100
AcDbSymbolTableRecord
100
AcDbBlockTableRecord
  2
block 7
340
0
102
{BLKREFS
331
18B
102
}
 70
     0
280
     1
281
     0
  0
BLOCK_RECORD
  5
195
330
1
100
AcDbSymbolTableRecord
100
AcDbBlockTableRecord
  2
block 8
340
0
102
{BLKREFS
331
196
102
}
 70
     0
280
     1
281
     0
  0
BLOCK_RECORD
  5
19D
330
1
100
AcDbSymbolTableRecord
100
AcDbBlockTableRecord
  2
block 9
340
0
102
{BLKREFS
331
19E
102
}
 70
     0
280
     1
281
     0
  0
BLOCK_RECORD
  5
1A8
330
1
100
AcDbSymbolTableRecord
100
AcDbBlockTableRecord
  2
block 10
340
0
102
{BLKREFS
331
1A9
102
}
 70
     0
280
     1
281
     0
  0
BLOCK_RECORD
  5
1B0
330
1
100
AcDbSymbolTableRecord
100
AcDbBlockTableRecord
  2
block 11
340
0
102
{BLKREFS
331
1B1
102
}
 70
     0
280
     1
281
     0
  0
BLOCK_RECORD
  5
1BB
330
1
100
AcDbSymbolTableRecord
100
AcDbBlockTableRecord
  2
block 12
340
0
102
{BLKREFS
331
1BC
102
}
 70
     0
280
     1
281
     0
  0
BLOCK_RECORD
  5
1C3
330
1
100
AcDbSymbolTableRecord
100
AcDbBlockTableRecord
  2
block 13
340
0
102
{BLKREFS
331
1C4
102
}
 70
     0
280
     1
281
     0
  0
BLOCK_RECORD
  5
1CE
330
1
100
AcDbSymbolTableRecord
100
AcDbBlockTableRecord
  2
block 14
340
0
102
{BLKREFS
331
1CF
102
}
 70
     0
280
     1
281
     0
  0
BLOCK_RECORD
  5
1D6
330
1
100
AcDbSymbolTableRecord
100
AcDbBlockTableRecord
  2
block 15
340
0
102
{BLKREFS
331
1D7
102
}
 70
     0
280
     1
281
     0
  0
BLOCK_RECORD
  5
1E1
330
1
100
AcDbSymbolTableRecord
100
AcDbBlockTableRecord
  2
block 16
340
0
102
{BLKREFS
331
1E2
102
}
 70
     0
280
     1
281
     0
  0
BLOCK_RECORD
  5
1E9
330
1
100
AcDbSymbolTableRecord
100
AcDbBlockTableRecord
  2
block 17
340
0
102
{BLKREFS
331
1EA
102
}
 70
     0
280
     1
281
     0
  0
BLOCK_RECORD
  5
207
330
1
100
AcDbSymbolTableRecord
100
AcDbBlockTableRecord
  2
block 18
340
0
102
{BLKREFS
331
208
102
}
 70
     0
280
     1
281
     0
  0
BLOCK_RECORD
  5
20F
330
1
100
AcDbSymbolTableRecord
100
AcDbBlockTableRecord
  2
block 19
340
0
102
{BLKREFS
331
210
102
}
 70
     0
280
     1
281
     0
  0
BLOCK_RECORD
  5
21A
330
1
100
AcDbSymbolTableRecord
100
AcDbBlockTableRecord
  2
block 20
340
0
102
{BLKREFS
331
21B
102
}
 70
     0
280
     1
281
     0
  0
BLOCK_RECORD
  5
222
330
1
100
AcDbSymbolTableRecord
100
AcDbBlockTableRecord
  2
block 21
340
0
102
{BLKREFS
331
223
102
}
 70
     0
280
     1
281
     0
  0
BLOCK_RECORD
  5
22D
330
1
100
AcDbSymbolTableRecord
100
AcDbBlockTableRecord
  2
block 22
340
0
102
{BLKREFS
331
22E
102
}
 70
     0
280
     1
281
     0
  0
BLOCK_RECORD
  5
236
330
1
100
AcDbSymbolTableRecord
100
AcDbBlockTableRecord
  2
block 23
340
0
102
{BLKREFS
331
237
102
}
 70
     0
280
     1
281
     0
  0
BLOCK_RECORD
  5
241
330
1
100
AcDbSymbolTableRecord
100
AcDbBlockTableRecord
  2
block 24
340
0
102
{BLKREFS
331
242
102
}
 70
     0
280
     1
281
     0
  0
BLOCK_RECORD
  5
249
330
1
100
AcDbSymbolTableRecord
100
AcDbBlockTableRecord
  2
block 25
340
0
102
{BLKREFS
331
24A
102
}
 70
     0
280
     1
281
     0
  0
BLOCK_RECORD
  5
254
330
1
100
AcDbSymbolTableRecord
100
AcDbBlockTableRecord
  2
block 26
340
0
102
{BLKREFS
331
255
102
}
 70
     0
280
     1
281
     0
  0
BLOCK_RECORD
  5
25C
330
1
100
AcDbSymbolTableRecord
100
AcDbBlockTableRecord
  2
block 27
340
0
102
{BLKREFS
331
25D
102
}
 70
     0
280
     1
281
     0
  0
BLOCK_RECORD
  5
28A
330
1
100
AcDbSymbolTableRecord
100
AcDbBlockTableRecord
  2
block 28
340
0
102
{BLKREFS
331
28B
102
}
 70
     0
280
     1
281
     0
  0
BLOCK_RECORD
  5
28F
330
1
100
AcDbSymbolTableRecord
100
AcDbBlockTableRecord
  2
block 29
340
0
102
{BLKREFS
331
290
102
}
 70
     0
280
     1
281
     0
  0
BLOCK_RECORD
  5
294
330
1
100
AcDbSymbolTableRecord
100
AcDbBlockTableRecord
  2
block 30
340
0
102
{BLKREFS
331
295
102
}
 70
     0
280
     1
281
     0
  0
BLOCK_RECORD
  5
29A
330
1
100
AcDbSymbolTableRecord
100
AcDbBlockTableRecord
  2
block 31
340
0
102
{BLKREFS
331
29B
102
}
 70
     0
280
     1
281
     0
  0
BLOCK_RECORD
  5
29F
330
1
100
AcDbSymbolTableRecord
100
AcDbBlockTableRecord
  2
block 32
340
0
102
{BLKREFS
331
2A0
102
}
 70
     0
280
     1
281
     0
  0
BLOCK_RECORD
  5
2A4
330
1
100
AcDbSymbolTableRecord
100
AcDbBlockTableRecord
  2
block 33
340
0
102
{BLKREFS
331
2A5
102
}
 70
     0
280
     1
281
     0
  0
BLOCK_RECORD
  5
2A9
330
1
100
AcDbSymbolTableRecord
100
AcDbBlockTableRecord
  2
block 34
340
0
102
{BLKREFS
331
2AA
102
}
 70
     0
280
     1
281
     0
  0
BLOCK_RECORD
  5
2AE
330
1
100
AcDbSymbolTableRecord
100
AcDbBlockTableRecord
  2
block 35
340
0
102
{BLKREFS
331
2AF
102
}
 70
     0
280
     1
281
     0
  0
BLOCK_RECORD
  5
2B3
330
1
100
AcDbSymbolTableRecord
100
AcDbBlockTableRecord
  2
block 36
340
0
102
{BLKREFS
331
2B4
102
}
 70
     0
280
     1
281
     0
  0
BLOCK_RECORD
  5
2B8
330
1
100
AcDbSymbolTableRecord
100
AcDbBlockTableRecord
  2
block 37
340
0
102
{BLKREFS
331
2B9
102
}
 70
     0
280
     1
281
     0
  0
BLOCK_RECORD
  5
2BD
330
1
100
AcDbSymbolTableRecord
100
AcDbBlockTableRecord
  2
block 38
340
0
102
{BLKREFS
331
2BE
102
}
 70
     0
280
     1
281
     0
  0
BLOCK_RECORD
  5
2C9
330
1
100
AcDbSymbolTableRecord
100
AcDbBlockTableRecord
  2
block 39
340
0
102
{BLKREFS
331
2CA
102
}
 70
     0
280
     1
281
     0
  0
BLOCK_RECORD
  5
2CE
330
1
100
AcDbSymbolTableRecord
100
AcDbBlockTableRecord
  2
block 40
340
0
102
{BLKREFS
331
2CF
102
}
 70
     0
280
     1
281
     0
  0
BLOCK_RECORD
  5
2D3
330
1
100
AcDbSymbolTableRecord
100
AcDbBlockTableRecord
  2
block 41
340
0
102
{BLKREFS
331
2D4
102
}
 70
     0
280
     1
281
     0
  0
BLOCK_RECORD
  5
2D8
330
1
100
AcDbSymbolTableRecord
100
AcDbBlockTableRecord
  2
block 42
340
0
102
{BLKREFS
331
2D9
102
}
 70
     0
280
     1
281
     0
  0
BLOCK_RECORD
  5
2DD
330
1
100
AcDbSymbolTableRecord
100
AcDbBlockTableRecord
  2
block 43
340
0
102
{BLKREFS
331
2DE
102
}
 70
     0
280
     1
281
     0
  0
ENDTAB
  0
ENDSEC
  0
SECTION
  2
BLOCKS
  0
BLOCK
  5
20
330
1F
100
AcDbEntity
  8
0
100
AcDbBlockBegin
  2
*Model_Space
 70
     0
 10
0.0
 20
0.0
 30
0.0
  3
*Model_Space
  1

  0
ENDBLK
  5
21
330
1F
100
AcDbEntity
  8
0
100
AcDbBlockEnd
  0
BLOCK
  5
1C
330
1B
100
AcDbEntity
 67
     1
  8
0
100
AcDbBlockBegin
  2
*Paper_Space
 70
     0
 10
0.0
 20
0.0
 30
0.0
  3
*Paper_Space
  1

  0
ENDBLK
  5
1D
330
1B
100
AcDbEntity
 67
     1
  8
0
100
AcDbBlockEnd
  0
BLOCK
  5
24
330
23
100
AcDbEntity
  8
0
100
AcDbBlockBegin
  2
*Paper_Space0
 70
     0
 10
0.0
 20
0.0
 30
0.0
  3
*Paper_Space0
  1

  0
ENDBLK
  5
25
330
23
100
AcDbEntity
  8
0
100
AcDbBlockEnd
  0
BLOCK
  5
15E
330
15C
100
AcDbEntity
  8
0
100
AcDbBlockBegin
  2
block 2
 70
     0
 10
0.0
 20
0.0
 30
0.0
  3
block 2
  1

  0
POLYLINE
  5
160
330
15C
100
AcDbEntity
  8
Layer 1
 62
     7
420
 16777215
370
    20
100
AcDb2dPolyline
 66
     1
 10
0.0
 20
0.0
 30
0.0
  0
VERTEX
  5
161
330
160
100
AcDbEntity
  8
Layer 1
 62
     7
420
 16777215
370
    20
100
AcDbVertex
100
AcDb2dVertex
 10
-15.3796555420131
 20
35.65921007850284
 30
0.0
  0
VERTEX
  5
162
330
160
100
AcDbEntity
  8
Layer 1
 62
     7
420
 16777215
370
    20
100
AcDbVertex
100
AcDb2dVertex
 10
-15.3796555420131
 20
29.26038193280506
 30
0.0
  0
SEQEND
  5
163
330
160
100
AcDbEntity
  8
Layer 1
 62
     7
420
 16777215
370
    20
  0
INSERT
  5
165
330
15C
100
AcDbEntity
  8
Layer 1
100
AcDbBlockReference
  2
block 3
 10
0.0
 20
0.0
 30
0.0
  0
ENDBLK
  5
15F
330
15C
100
AcDbEntity
  8
0
100
AcDbBlockEnd
  0
BLOCK
  5
166
330
164
100
AcDbEntity
  8
0
100
AcDbBlockBegin
  2
block 3
 70
     0
 10
0.0
 20
0.0
 30
0.0
  3
block 3
  1

  0
POLYLINE
  5
168
330
164
100
AcDbEntity
  8
Layer 1
370
     0
100
AcDb2dPolyline
 66
     1
 10
0.0
 20
0.0
 30
0.0
  0
VERTEX
  5
169
330
168
100
AcDbEntity
  8
Layer 1
370
     0
100
AcDbVertex
100
AcDb2dVertex
 10
-15.52600124370292
 20
35.55939887580493
 30
0.0
  0
VERTEX
  5
16A
330
168
100
AcDbEntity
  8
Layer 1
370
     0
100
AcDbVertex
100
AcDb2dVertex
 10
-15.3796555420131
 20
36.10547814050771
 30
0.0
  0
VERTEX
  5
16B
330
168
100
AcDbEntity
  8
Layer 1
370
     0
100
AcDbVertex
100
AcDb2dVertex
 10
-15.23331051820423
 20
35.55939887580493
 30
0.0
  0
VERTEX
  5
16C
330
168
100
AcDbEntity
  8
Layer 1
370
     0
100
AcDbVertex
100
AcDb2dVertex
 10
-15.52600124370292
 20
35.55939887580493
 30
0.0
  0
SEQEND
  5
16E
330
168
100
AcDbEntity
  8
Layer 1
370
     0
  0
HATCH
  5
16D
330
164
100
AcDbEntity
  8
Layer 1
 62
     7
420
 16777215
100
AcDbHatch
 10
0.0
 20
0.0
 30
0.0
210
0.0
220
0.0
230
1.0
  2
SOLID
 70
     1
 71
     0
 91
        1
 92
        1
 93
        3
 72
     1
 10
-15.52600124370292
 20
35.55939887580493
 11
-15.3796555420131
 21
36.10547814050771
 72
     1
 10
-15.3796555420131
 20
36.10547814050771
 11
-15.23331051820423
 21
35.55939887580493
 72
     1
 10
-15.23331051820423
 20
35.55939887580493
 11
-15.52600124370292
 21
35.55939887580493
 97
        0
 75
     2
 76
     1
 98
        0
  0
ENDBLK
  5
167
330
164
100
AcDbEntity
  8
0
100
AcDbBlockEnd
  0
BLOCK
  5
171
330
16F
100
AcDbEntity
  8
0
100
AcDbBlockBegin
  2
block 4
 70
     0
 10
0.0
 20
0.0
 30
0.0
  3
block 4
  1

  0
POLYLINE
  5
173
330
16F
100
AcDbEntity
  8
Layer 1
 62
     7
420
 16777215
370
    20
100
AcDb2dPolyline
 66
     1
 10
0.0
 20
0.0
 30
0.0
  0
VERTEX
  5
174
330
173
100
AcDbEntity
  8
Layer 1
 62
     7
420
 16777215
370
    20
100
AcDbVertex
100
AcDb2dVertex
 10
-13.6551953483129
 20
38.61262383748173
 30
0.0
  0
VERTEX
  5
175
330
173
100
AcDbEntity
  8
Layer 1
 62
     7
420
 16777215
370
    20
100
AcDbVertex
100
AcDb2dVertex
 10
-13.6551953483129
 20
35.82826276101826
 30
0.0
  0
SEQEND
  5
176
330
173
100
AcDbEntity
  8
Layer 1
 62
     7
420
 16777215
370
    20
  0
INSERT
  5
178
330
16F
100
AcDbEntity
  8
Layer 1
100
AcDbBlockReference
  2
block 5
 10
0.0
 20
0.0
 30
0.0
  0
ENDBLK
  5
172
330
16F
100
AcDbEntity
  8
0
100
AcDbBlockEnd
  0
BLOCK
  5
179
330
177
100
AcDbEntity
  8
0
100
AcDbBlockBegin
  2
block 5
 70
     0
 10
0.0
 20
0.0
 30
0.0
  3
block 5
  1

  0
POLYLINE
  5
17B
330
177
100
AcDbEntity
  8
Layer 1
370
     0
100
AcDb2dPolyline
 66
     1
 10
0.0
 20
0.0
 30
0.0
  0
VERTEX
  5
17C
330
17B
100
AcDbEntity
  8
Layer 1
370
     0
100
AcDbVertex
100
AcDb2dVertex
 10
-13.80154105000272
 20
38.51281263478396
 30
0.0
  0
VERTEX
  5
17D
330
17B
100
AcDbEntity
  8
Layer 1
370
     0
100
AcDbVertex
100
AcDb2dVertex
 10
-13.6551953483129
 20
39.0588918994866
 30
0.0
  0
VERTEX
  5
17E
330
17B
100
AcDbEntity
  8
Layer 1
370
     0
100
AcDbVertex
100
AcDb2dVertex
 10
-13.50885032450414
 20
38.51281263478396
 30
0.0
  0
VERTEX
  5
17F
330
17B
100
AcDbEntity
  8
Layer 1
370
     0
100
AcDbVertex
100
AcDb2dVertex
 10
-13.80154105000272
 20
38.51281263478396
 30
0.0
  0
SEQEND
  5
181
330
17B
100
AcDbEntity
  8
Layer 1
370
     0
  0
HATCH
  5
180
330
177
100
AcDbEntity
  8
Layer 1
 62
     7
420
 16777215
100
AcDbHatch
 10
0.0
 20
0.0
 30
0.0
210
0.0
220
0.0
230
1.0
  2
SOLID
 70
     1
 71
     0
 91
        1
 92
        1
 93
        3
 72
     1
 10
-13.80154105000272
 20
38.51281263478396
 11
-13.6551953483129
 21
39.0588918994866
 72
     1
 10
-13.6551953483129
 20
39.0588918994866
 11
-13.50885032450414
 21
38.51281263478396
 72
     1
 10
-13.50885032450414
 20
38.51281263478396
 11
-13.80154105000272
 21
38.51281263478396
 97
        0
 75
     2
 76
     1
 98
        0
  0
ENDBLK
  5
17A
330
177
100
AcDbEntity
  8
0
100
AcDbBlockEnd
  0
BLOCK
  5
184
330
182
100
AcDbEntity
  8
0
100
AcDbBlockBegin
  2
block 6
 70
     0
 10
0.0
 20
0.0
 30
0.0
  3
block 6
  1

  0
POLYLINE
  5
186
330
182
100
AcDbEntity
  8
Layer 1
 62
     7
420
 16777215
370
    20
100
AcDb2dPolyline
 66
     1
 10
0.0
 20
0.0
 30
0.0
  0
VERTEX
  5
187
330
186
100
AcDbEntity
  8
Layer 1
 62
     7
420
 16777215
370
    20
100
AcDbVertex
100
AcDb2dVertex
 10
-13.6551953483129
 20
31.90127084526021
 30
0.0
  0
VERTEX
  5
188
330
186
100
AcDbEntity
  8
Layer 1
 62
     7
420
 16777215
370
    20
100
AcDbVertex
100
AcDb2dVertex
 10
-13.6551953483129
 20
33.48258832513229
 30
0.0
  0
SEQEND
  5
189
330
186
100
AcDbEntity
  8
Layer 1
 62
     7
420
 16777215
370
    20
  0
INSERT
  5
18B
330
182
100
AcDbEntity
  8
Layer 1
100
AcDbBlockReference
  2
block 7
 10
0.0
 20
0.0
 30
0.0
  0
ENDBLK
  5
185
330
182
100
AcDbEntity
  8
0
100
AcDbBlockEnd
  0
BLOCK
  5
18C
330
18A
100
AcDbEntity
  8
0
100
AcDbBlockBegin
  2
block 7
 70
     0
 10
0.0
 20
0.0
 30
0.0
  3
block 7
  1

  0
POLYLINE
  5
18E
330
18A
100
AcDbEntity
  8
Layer 1
370
     0
100
AcDb2dPolyline
 66
     1
 10
0.0
 20
0.0
 30
0.0
  0
VERTEX
  5
18F
330
18E
100
AcDbEntity
  8
Layer 1
370
     0
100
AcDbVertex
100
AcDb2dVertex
 10
-13.50884964662307
 20
32.00108204795813
 30
0.0
  0
VERTEX
  5
190
330
18E
100
AcDbEntity
  8
Layer 1
370
     0
100
AcDbVertex
100
AcDb2dVertex
 10
-13.6551953483129
 20
31.45500278325534
 30
0.0
  0
VERTEX
  5
191
330
18E
100
AcDbEntity
  8
Layer 1
370
     0
100
AcDbVertex
100
AcDb2dVertex
 10
-13.80154037212166
 20
32.00108204795813
 30
0.0
  0
VERTEX
  5
192
330
18E
100
AcDbEntity
  8
Layer 1
370
     0
100
AcDbVertex
100
AcDb2dVertex
 10
-13.50884964662307
 20
32.00108204795813
 30
0.0
  0
SEQEND
  5
194
330
18E
100
AcDbEntity
  8
Layer 1
370
     0
  0
HATCH
  5
193
330
18A
100
AcDbEntity
  8
Layer 1
 62
     7
420
 16777215
100
AcDbHatch
 10
0.0
 20
0.0
 30
0.0
210
0.0
220
0.0
230
1.0
  2
SOLID
 70
     1
 71
     0
 91
        1
 92
        1
 93
        3
 72
     1
 10
-13.50884964662307
 20
32.00108204795813
 11
-13.6551953483129
 21
31.45500278325534
 72
     1
 10
-13.6551953483129
 20
31.45500278325534
 11
-13.80154037212166
 21
32.00108204795813
 72
     1
 10
-13.80154037212166
 20
32.00108204795813
 11
-13.50884964662307
 21
32.00108204795813
 97
        0
 75
     2
 76
     1
 98
        0
  0
ENDBLK
  5
18D
330
18A
100
AcDbEntity
  8
0
100
AcDbBlockEnd
  0
BLOCK
  5
197
330
195
100
AcDbEntity
  8
0
100
AcDbBlockBegin
  2
block 8
 70
     0
 10
0.0
 20
0.0
 30
0.0
  3
block 8
  1

  0
POLYLINE
  5
199
330
195
100
AcDbEntity
  8
Layer 1
 62
     7
420
 16777215
370
    20
100
AcDb2dPolyline
 66
     1
 10
0.0
 20
0.0
 30
0.0
  0
VERTEX
  5
19A
330
199
100
AcDbEntity
  8
Layer 1
 62
     7
420
 16777215
370
    20
100
AcDbVertex
100
AcDb2dVertex
 10
-15.37965621989407
 20
20.79245481101952
 30
0.0
  0
VERTEX
  5
19B
330
199
100
AcDbEntity
  8
Layer 1
 62
     7
420
 16777215
370
    20
100
AcDbVertex
100
AcDb2dVertex
 10
-15.37965621989407
 20
26.54464410866088
 30
0.0
  0
SEQEND
  5
19C
330
199
100
AcDbEntity
  8
Layer 1
 62
     7
420
 16777215
370
    20
  0
INSERT
  5
19E
330
195
100
AcDbEntity
  8
Layer 1
100
AcDbBlockReference
  2
block 9
 10
0.0
 20
0.0
 30
0.0
  0
ENDBLK
  5
198
330
195
100
AcDbEntity
  8
0
100
AcDbBlockEnd
  0
BLOCK
  5
19F
330
19D
100
AcDbEntity
  8
0
100
AcDbBlockBegin
  2
block 9
 70
     0
 10
0.0
 20
0.0
 30
0.0
  3
block 9
  1

  0
POLYLINE
  5
1A1
330
19D
100
AcDbEntity
  8
Layer 1
370
     0
100
AcDb2dPolyline
 66
     1
 10
0.0
 20
0.0
 30
0.0
  0
VERTEX
  5
1A2
330
1A1
100
AcDbEntity
  8
Layer 1
370
     0
100
AcDbVertex
100
AcDb2dVertex
 10
-15.2333111960853
 20
20.89226601371724
 30
0.0
  0
VERTEX
  5
1A3
330
1A1
100
AcDbEntity
  8
Layer 1
370
     0
100
AcDbVertex
100
AcDb2dVertex
 10
-15.37965621989407
 20
20.34619217206283
 30
0.0
  0
VERTEX
  5
1A4
330
1A1
100
AcDbEntity
  8
Layer 1
370
     0
100
AcDbVertex
100
AcDb2dVertex
 10
-15.52600192158388
 20
20.89226601371724
 30
0.0
  0
VERTEX
  5
1A5
330
1A1
100
AcDbEntity
  8
Layer 1
370
     0
100
AcDbVertex
100
AcDb2dVertex
 10
-15.2333111960853
 20
20.89226601371724
 30
0.0
  0
SEQEND
  5
1A7
330
1A1
100
AcDbEntity
  8
Layer 1
370
     0
  0
HATCH
  5
1A6
330
19D
100
AcDbEntity
  8
Layer 1
 62
     7
420
 16777215
100
AcDbHatch
 10
0.0
 20
0.0
 30
0.0
210
0.0
220
0.0
230
1.0
  2
SOLID
 70
     1
 71
     0
 91
        1
 92
        1
 93
        3
 72
     1
 10
-15.2333111960853
 20
20.89226601371724
 11
-15.37965621989407
 21
20.34619217206283
 72
     1
 10
-15.37965621989407
 20
20.34619217206283
 11
-15.52600192158388
 21
20.89226601371724
 72
     1
 10
-15.52600192158388
 20
20.89226601371724
 11
-15.2333111960853
 21
20.89226601371724
 97
        0
 75
     2
 76
     1
 98
        0
  0
ENDBLK
  5
1A0
330
19D
100
AcDbEntity
  8
0
100
AcDbBlockEnd
  0
BLOCK
  5
1AA
330
1A8
100
AcDbEntity
  8
0
100
AcDbBlockBegin
  2
block 10
 70
     0
 10
0.0
 20
0.0
 30
0.0
  3
block 10
  1

  0
POLYLINE
  5
1AC
330
1A8
100
AcDbEntity
  8
Layer 1
 62
     7
420
 16777215
370
    20
100
AcDb2dPolyline
 66
     1
 10
0.0
 20
0.0
 30
0.0
  0
VERTEX
  5
1AD
330
1AC
100
AcDbEntity
  8
Layer 1
 62
     7
420
 16777215
370
    20
100
AcDbVertex
100
AcDb2dVertex
 10
-16.0271012976592
 20
10.59250098748907
 30
0.0
  0
VERTEX
  5
1AE
330
1AC
100
AcDbEntity
  8
Layer 1
 62
     7
420
 16777215
370
    20
100
AcDbVertex
100
AcDb2dVertex
 10
-16.0271012976592
 20
8.252396022136761
 30
0.0
  0
SEQEND
  5
1AF
330
1AC
100
AcDbEntity
  8
Layer 1
 62
     7
420
 16777215
370
    20
  0
INSERT
  5
1B1
330
1A8
100
AcDbEntity
  8
Layer 1
100
AcDbBlockReference
  2
block 11
 10
0.0
 20
0.0
 30
0.0
  0
ENDBLK
  5
1AB
330
1A8
100
AcDbEntity
  8
0
100
AcDbBlockEnd
  0
BLOCK
  5
1B2
330
1B0
100
AcDbEntity
  8
0
100
AcDbBlockBegin
  2
block 11
 70
     0
 10
0.0
 20
0.0
 30
0.0
  3
block 11
  1

  0
POLYLINE
  5
1B4
330
1B0
100
AcDbEntity
  8
Layer 1
370
     0
100
AcDb2dPolyline
 66
     1
 10
0.0
 20
0.0
 30
0.0
  0
VERTEX
  5
1B5
330
1B4
100
AcDbEntity
  8
Layer 1
370
     0
100
AcDbVertex
100
AcDb2dVertex
 10
-16.17344699934906
 20
10.49268978479136
 30
0.0
  0
VERTEX
  5
1B6
330
1B4
100
AcDbEntity
  8
Layer 1
370
     0
100
AcDbVertex
100
AcDb2dVertex
 10
-16.0271012976592
 20
11.03876633796992
 30
0.0
  0
VERTEX
  5
1B7
330
1B4
100
AcDbEntity
  8
Layer 1
370
     0
100
AcDbVertex
100
AcDb2dVertex
 10
-15.88075627385045
 20
10.49268978479136
 30
0.0
  0
VERTEX
  5
1B8
330
1B4
100
AcDbEntity
  8
Layer 1
370
     0
100
AcDbVertex
100
AcDb2dVertex
 10
-16.17344699934906
 20
10.49268978479136
 30
0.0
  0
SEQEND
  5
1BA
330
1B4
100
AcDbEntity
  8
Layer 1
370
     0
  0
HATCH
  5
1B9
330
1B0
100
AcDbEntity
  8
Layer 1
 62
     7
420
 16777215
100
AcDbHatch
 10
0.0
 20
0.0
 30
0.0
210
0.0
220
0.0
230
1.0
  2
SOLID
 70
     1
 71
     0
 91
        1
 92
        1
 93
        3
 72
     1
 10
-16.17344699934906
 20
10.49268978479136
 11
-16.0271012976592
 21
11.03876633796992
 72
     1
 10
-16.0271012976592
 20
11.03876633796992
 11
-15.88075627385045
 21
10.49268978479136
 72
     1
 10
-15.88075627385045
 20
10.49268978479136
 11
-16.17344699934906
 21
10.49268978479136
 97
        0
 75
     2
 76
     1
 98
        0
  0
ENDBLK
  5
1B3
330
1B0
100
AcDbEntity
  8
0
100
AcDbBlockEnd
  0
BLOCK
  5
1BD
330
1BB
100
AcDbEntity
  8
0
100
AcDbBlockBegin
  2
block 12
 70
     0
 10
0.0
 20
0.0
 30
0.0
  3
block 12
  1

  0
POLYLINE
  5
1BF
330
1BB
100
AcDbEntity
  8
Layer 1
 62
     7
420
 16777215
370
    20
100
AcDb2dPolyline
 66
     1
 10
0.0
 20
0.0
 30
0.0
  0
VERTEX
  5
1C0
330
1BF
100
AcDbEntity
  8
Layer 1
 62
     7
420
 16777215
370
    20
100
AcDbVertex
100
AcDb2dVertex
 10
-16.0271012976592
 20
3.669684364059119
 30
0.0
  0
VERTEX
  5
1C1
330
1BF
100
AcDbEntity
  8
Layer 1
 62
     7
420
 16777215
370
    20
100
AcDbVertex
100
AcDb2dVertex
 10
-16.0271012976592
 20
6.009789329411433
 30
0.0
  0
SEQEND
  5
1C2
330
1BF
100
AcDbEntity
  8
Layer 1
 62
     7
420
 16777215
370
    20
  0
INSERT
  5
1C4
330
1BB
100
AcDbEntity
  8
Layer 1
100
AcDbBlockReference
  2
block 13
 10
0.0
 20
0.0
 30
0.0
  0
ENDBLK
  5
1BE
330
1BB
100
AcDbEntity
  8
0
100
AcDbBlockEnd
  0
BLOCK
  5
1C5
330
1C3
100
AcDbEntity
  8
0
100
AcDbBlockBegin
  2
block 13
 70
     0
 10
0.0
 20
0.0
 30
0.0
  3
block 13
  1

  0
POLYLINE
  5
1C7
330
1C3
100
AcDbEntity
  8
Layer 1
370
     0
100
AcDb2dPolyline
 66
     1
 10
0.0
 20
0.0
 30
0.0
  0
VERTEX
  5
1C8
330
1C7
100
AcDbEntity
  8
Layer 1
370
     0
100
AcDbVertex
100
AcDb2dVertex
 10
-15.88075627385045
 20
3.769492855232683
 30
0.0
  0
VERTEX
  5
1C9
330
1C7
100
AcDbEntity
  8
Layer 1
370
     0
100
AcDbVertex
100
AcDb2dVertex
 10
-16.0271012976592
 20
3.223416302054122
 30
0.0
  0
VERTEX
  5
1CA
330
1C7
100
AcDbEntity
  8
Layer 1
370
     0
100
AcDbVertex
100
AcDb2dVertex
 10
-16.17344699934906
 20
3.769492855232683
 30
0.0
  0
VERTEX
  5
1CB
330
1C7
100
AcDbEntity
  8
Layer 1
370
     0
100
AcDbVertex
100
AcDb2dVertex
 10
-15.88075627385045
 20
3.769492855232683
 30
0.0
  0
SEQEND
  5
1CD
330
1C7
100
AcDbEntity
  8
Layer 1
370
     0
  0
HATCH
  5
1CC
330
1C3
100
AcDbEntity
  8
Layer 1
 62
     7
420
 16777215
100
AcDbHatch
 10
0.0
 20
0.0
 30
0.0
210
0.0
220
0.0
230
1.0
  2
SOLID
 70
     1
 71
     0
 91
        1
 92
        1
 93
        3
 72
     1
 10
-15.88075627385045
 20
3.769492855232683
 11
-16.0271012976592
 21
3.223416302054122
 72
     1
 10
-16.0271012976592
 20
3.223416302054122
 11
-16.17344699934906
 21
3.769492855232683
 72
     1
 10
-16.17344699934906
 20
3.769492855232683
 11
-15.88075627385045
 21
3.769492855232683
 97
        0
 75
     2
 76
     1
 98
        0
  0
ENDBLK
  5
1C6
330
1C3
100
AcDbEntity
  8
0
100
AcDbBlockEnd
  0
BLOCK
  5
1D0
330
1CE
100
AcDbEntity
  8
0
100
AcDbBlockBegin
  2
block 14
 70
     0
 10
0.0
 20
0.0
 30
0.0
  3
block 14
  1

  0
POLYLINE
  5
1D2
330
1CE
100
AcDbEntity
  8
Layer 1
 62
     7
420
 16777215
370
    20
100
AcDb2dPolyline
 66
     1
 10
0.0
 20
0.0
 30
0.0
  0
VERTEX
  5
1D3
330
1D2
100
AcDbEntity
  8
Layer 1
 62
     7
420
 16777215
370
    20
100
AcDbVertex
100
AcDb2dVertex
 10
-17.06782673059217
 20
38.61262383748173
 30
0.0
  0
VERTEX
  5
1D4
330
1D2
100
AcDbEntity
  8
Layer 1
 62
     7
420
 16777215
370
    20
100
AcDbVertex
100
AcDb2dVertex
 10
-17.06782673059217
 20
29.64421986357076
 30
0.0
  0
SEQEND
  5
1D5
330
1D2
100
AcDbEntity
  8
Layer 1
 62
     7
420
 16777215
370
    20
  0
INSERT
  5
1D7
330
1CE
100
AcDbEntity
  8
Layer 1
100
AcDbBlockReference
  2
block 15
 10
0.0
 20
0.0
 30
0.0
  0
ENDBLK
  5
1D1
330
1CE
100
AcDbEntity
  8
0
100
AcDbBlockEnd
  0
BLOCK
  5
1D8
330
1D6
100
AcDbEntity
  8
0
100
AcDbBlockBegin
  2
block 15
 70
     0
 10
0.0
 20
0.0
 30
0.0
  3
block 15
  1

  0
POLYLINE
  5
1DA
330
1D6
100
AcDbEntity
  8
Layer 1
370
     0
100
AcDb2dPolyline
 66
     1
 10
0.0
 20
0.0
 30
0.0
  0
VERTEX
  5
1DB
330
1DA
100
AcDbEntity
  8
Layer 1
370
     0
100
AcDbVertex
100
AcDb2dVertex
 10
-17.21417175440106
 20
38.51281263478396
 30
0.0
  0
VERTEX
  5
1DC
330
1DA
100
AcDbEntity
  8
Layer 1
370
     0
100
AcDbVertex
100
AcDb2dVertex
 10
-17.06782673059217
 20
39.0588918994866
 30
0.0
  0
VERTEX
  5
1DD
330
1DA
100
AcDbEntity
  8
Layer 1
370
     0
100
AcDbVertex
100
AcDb2dVertex
 10
-16.92148170678342
 20
38.51281263478396
 30
0.0
  0
VERTEX
  5
1DE
330
1DA
100
AcDbEntity
  8
Layer 1
370
     0
100
AcDbVertex
100
AcDb2dVertex
 10
-17.21417175440106
 20
38.51281263478396
 30
0.0
  0
SEQEND
  5
1E0
330
1DA
100
AcDbEntity
  8
Layer 1
370
     0
  0
HATCH
  5
1DF
330
1D6
100
AcDbEntity
  8
Layer 1
 62
     7
420
 16777215
100
AcDbHatch
 10
0.0
 20
0.0
 30
0.0
210
0.0
220
0.0
230
1.0
  2
SOLID
 70
     1
 71
     0
 91
        1
 92
        1
 93
        3
 72
     1
 10
-17.21417175440106
 20
38.51281263478396
 11
-17.06782673059217
 21
39.0588918994866
 72
     1
 10
-17.06782673059217
 20
39.0588918994866
 11
-16.92148170678342
 21
38.51281263478396
 72
     1
 10
-16.92148170678342
 20
38.51281263478396
 11
-17.21417175440106
 21
38.51281263478396
 97
        0
 75
     2
 76
     1
 98
        0
  0
ENDBLK
  5
1D9
330
1D6
100
AcDbEntity
  8
0
100
AcDbBlockEnd
  0
BLOCK
  5
1E3
330
1E1
100
AcDbEntity
  8
0
100
AcDbBlockBegin
  2
block 16
 70
     0
 10
0.0
 20
0.0
 30
0.0
  3
block 16
  1

  0
POLYLINE
  5
1E5
330
1E1
100
AcDbEntity
  8
Layer 1
 62
     7
420
 16777215
370
    20
100
AcDb2dPolyline
 66
     1
 10
0.0
 20
0.0
 30
0.0
  0
VERTEX
  5
1E6
330
1E5
100
AcDbEntity
  8
Layer 1
 62
     7
420
 16777215
370
    20
100
AcDbVertex
100
AcDb2dVertex
 10
-17.06782808635426
 20
19.63091922559063
 30
0.0
  0
VERTEX
  5
1E7
330
1E5
100
AcDbEntity
  8
Layer 1
 62
     7
420
 16777215
370
    20
100
AcDbVertex
100
AcDb2dVertex
 10
-17.06782808635426
 20
26.82230417810529
 30
0.0
  0
SEQEND
  5
1E8
330
1E5
100
AcDbEntity
  8
Layer 1
 62
     7
420
 16777215
370
    20
  0
INSERT
  5
1EA
330
1E1
100
AcDbEntity
  8
Layer 1
100
AcDbBlockReference
  2
block 17
 10
0.0
 20
0.0
 30
0.0
  0
ENDBLK
  5
1E4
330
1E1
100
AcDbEntity
  8
0
100
AcDbBlockEnd
  0
BLOCK
  5
1EB
330
1E9
100
AcDbEntity
  8
0
100
AcDbBlockBegin
  2
block 17
 70
     0
 10
0.0
 20
0.0
 30
0.0
  3
block 17
  1

  0
POLYLINE
  5
1ED
330
1E9
100
AcDbEntity
  8
Layer 1
370
     0
100
AcDb2dPolyline
 66
     1
 10
0.0
 20
0.0
 30
0.0
  0
VERTEX
  5
1EE
330
1ED
100
AcDbEntity
  8
Layer 1
370
     0
100
AcDbVertex
100
AcDb2dVertex
 10
-16.92148306254537
 20
19.7307277167643
 30
0.0
  0
VERTEX
  5
1EF
330
1ED
100
AcDbEntity
  8
Layer 1
370
     0
100
AcDbVertex
100
AcDb2dVertex
 10
-17.06782808635426
 20
19.18465116358574
 30
0.0
  0
VERTEX
  5
1F0
330
1ED
100
AcDbEntity
  8
Layer 1
370
     0
100
AcDbVertex
100
AcDb2dVertex
 10
-17.21417378804412
 20
19.7307277167643
 30
0.0
  0
VERTEX
  5
1F1
330
1ED
100
AcDbEntity
  8
Layer 1
370
     0
100
AcDbVertex
100
AcDb2dVertex
 10
-16.92148306254537
 20
19.7307277167643
 30
0.0
  0
SEQEND
  5
1F3
330
1ED
100
AcDbEntity
  8
Layer 1
370
     0
  0
HATCH
  5
1F2
330
1E9
100
AcDbEntity
  8
Layer 1
 62
     7
420
 16777215
100
AcDbHatch
 10
0.0
 20
0.0
 30
0.0
210
0.0
220
0.0
230
1.0
  2
SOLID
 70
     1
 71
     0
 91
        1
 92
        1
 93
        3
 72
     1
 10
-16.92148306254537
 20
19.7307277167643
 11
-17.06782808635426
 21
19.18465116358574
 72
     1
 10
-17.06782808635426
 20
19.18465116358574
 11
-17.21417378804412
 21
19.7307277167643
 72
     1
 10
-17.21417378804412
 20
19.7307277167643
 11
-16.92148306254537
 21
19.7307277167643
 97
        0
 75
     2
 76
     1
 98
        0
  0
ENDBLK
  5
1EC
330
1E9
100
AcDbEntity
  8
0
100
AcDbBlockEnd
  0
BLOCK
  5
209
330
207
100
AcDbEntity
  8
0
100
AcDbBlockBegin
  2
block 18
 70
     0
 10
0.0
 20
0.0
 30
0.0
  3
block 18
  1

  0
POLYLINE
  5
20B
330
207
100
AcDbEntity
  8
Layer 1
 62
     7
420
 16777215
370
    20
100
AcDb2dPolyline
 66
     1
 10
0.0
 20
0.0
 30
0.0
  0
VERTEX
  5
20C
330
20B
100
AcDbEntity
  8
Layer 1
 62
     7
420
 16777215
370
    20
100
AcDbVertex
100
AcDb2dVertex
 10
-10.79174544817063
 20
15.57664949033066
 30
0.0
  0
VERTEX
  5
20D
330
20B
100
AcDbEntity
  8
Layer 1
 62
     7
420
 16777215
370
    20
100
AcDbVertex
100
AcDb2dVertex
 10
3.326482741085783
 20
15.57664949033066
 30
0.0
  0
SEQEND
  5
20E
330
20B
100
AcDbEntity
  8
Layer 1
 62
     7
420
 16777215
370
    20
  0
INSERT
  5
210
330
207
100
AcDbEntity
  8
Layer 1
100
AcDbBlockReference
  2
block 19
 10
0.0
 20
0.0
 30
0.0
  0
ENDBLK
  5
20A
330
207
100
AcDbEntity
  8
0
100
AcDbBlockEnd
  0
BLOCK
  5
211
330
20F
100
AcDbEntity
  8
0
100
AcDbBlockBegin
  2
block 19
 70
     0
 10
0.0
 20
0.0
 30
0.0
  3
block 19
  1

  0
POLYLINE
  5
213
330
20F
100
AcDbEntity
  8
Layer 1
370
     0
100
AcDb2dPolyline
 66
     1
 10
0.0
 20
0.0
 30
0.0
  0
VERTEX
  5
214
330
213
100
AcDbEntity
  8
Layer 1
370
     0
100
AcDbVertex
100
AcDb2dVertex
 10
-10.69193560123495
 20
15.43030311075977
 30
0.0
  0
VERTEX
  5
215
330
213
100
AcDbEntity
  8
Layer 1
370
     0
100
AcDbVertex
100
AcDb2dVertex
 10
-11.23801215441351
 20
15.57664949033066
 30
0.0
  0
VERTEX
  5
216
330
213
100
AcDbEntity
  8
Layer 1
370
     0
100
AcDbVertex
100
AcDb2dVertex
 10
-10.69193560123495
 20
15.7229931583774
 30
0.0
  0
VERTEX
  5
217
330
213
100
AcDbEntity
  8
Layer 1
370
     0
100
AcDbVertex
100
AcDb2dVertex
 10
-10.69193560123495
 20
15.43030311075977
 30
0.0
  0
SEQEND
  5
219
330
213
100
AcDbEntity
  8
Layer 1
370
     0
  0
HATCH
  5
218
330
20F
100
AcDbEntity
  8
Layer 1
 62
     7
420
 16777215
100
AcDbHatch
 10
0.0
 20
0.0
 30
0.0
210
0.0
220
0.0
230
1.0
  2
SOLID
 70
     1
 71
     0
 91
        1
 92
        1
 93
        3
 72
     1
 10
-10.69193560123495
 20
15.43030311075977
 11
-11.23801215441351
 21
15.57664949033066
 72
     1
 10
-11.23801215441351
 20
15.57664949033066
 11
-10.69193560123495
 21
15.7229931583774
 72
     1
 10
-10.69193560123495
 20
15.7229931583774
 11
-10.69193560123495
 21
15.43030311075977
 97
        0
 75
     2
 76
     1
 98
        0
  0
ENDBLK
  5
212
330
20F
100
AcDbEntity
  8
0
100
AcDbBlockEnd
  0
BLOCK
  5
21C
330
21A
100
AcDbEntity
  8
0
100
AcDbBlockBegin
  2
block 20
 70
     0
 10
0.0
 20
0.0
 30
0.0
  3
block 20
  1

  0
POLYLINE
  5
21E
330
21A
100
AcDbEntity
  8
Layer 1
 62
     7
420
 16777215
370
    20
100
AcDb2dPolyline
 66
     1
 10
0.0
 20
0.0
 30
0.0
  0
VERTEX
  5
21F
330
21E
100
AcDbEntity
  8
Layer 1
 62
     7
420
 16777215
370
    20
100
AcDbVertex
100
AcDb2dVertex
 10
-9.618909585989766
 20
17.30391746725258
 30
0.0
  0
VERTEX
  5
220
330
21E
100
AcDbEntity
  8
Layer 1
 62
     7
420
 16777215
370
    20
100
AcDbVertex
100
AcDb2dVertex
 10
2.458333333333333
 20
17.30391746725258
 30
0.0
  0
SEQEND
  5
221
330
21E
100
AcDbEntity
  8
Layer 1
 62
     7
420
 16777215
370
    20
  0
INSERT
  5
223
330
21A
100
AcDbEntity
  8
Layer 1
100
AcDbBlockReference
  2
block 21
 10
0.0
 20
0.0
 30
0.0
  0
ENDBLK
  5
21D
330
21A
100
AcDbEntity
  8
0
100
AcDbBlockEnd
  0
BLOCK
  5
224
330
222
100
AcDbEntity
  8
0
100
AcDbBlockBegin
  2
block 21
 70
     0
 10
0.0
 20
0.0
 30
0.0
  3
block 21
  1

  0
POLYLINE
  5
226
330
222
100
AcDbEntity
  8
Layer 1
370
     0
100
AcDb2dPolyline
 66
     1
 10
0.0
 20
0.0
 30
0.0
  0
VERTEX
  5
227
330
226
100
AcDbEntity
  8
Layer 1
370
     0
100
AcDbVertex
100
AcDb2dVertex
 10
-9.519099739054075
 20
17.15757108768169
 30
0.0
  0
VERTEX
  5
228
330
226
100
AcDbEntity
  8
Layer 1
370
     0
100
AcDbVertex
100
AcDb2dVertex
 10
-10.06517629223264
 20
17.30391746725258
 30
0.0
  0
VERTEX
  5
229
330
226
100
AcDbEntity
  8
Layer 1
370
     0
100
AcDbVertex
100
AcDb2dVertex
 10
-9.519099739054075
 20
17.45026113529932
 30
0.0
  0
VERTEX
  5
22A
330
226
100
AcDbEntity
  8
Layer 1
370
     0
100
AcDbVertex
100
AcDb2dVertex
 10
-9.519099739054075
 20
17.15757108768169
 30
0.0
  0
SEQEND
  5
22C
330
226
100
AcDbEntity
  8
Layer 1
370
     0
  0
HATCH
  5
22B
330
222
100
AcDbEntity
  8
Layer 1
 62
     7
420
 16777215
100
AcDbHatch
 10
0.0
 20
0.0
 30
0.0
210
0.0
220
0.0
230
1.0
  2
SOLID
 70
     1
 71
     0
 91
        1
 92
        1
 93
        3
 72
     1
 10
-9.519099739054075
 20
17.15757108768169
 11
-10.06517629223264
 21
17.30391746725258
 72
     1
 10
-10.06517629223264
 20
17.30391746725258
 11
-9.519099739054075
 21
17.45026113529932
 72
     1
 10
-9.519099739054075
 20
17.45026113529932
 11
-9.519099739054075
 21
17.15757108768169
 97
        0
 75
     2
 76
     1
 98
        0
  0
ENDBLK
  5
225
330
222
100
AcDbEntity
  8
0
100
AcDbBlockEnd
  0
BLOCK
  5
22F
330
22D
100
AcDbEntity
  8
0
100
AcDbBlockBegin
  2
block 22
 70
     0
 10
0.0
 20
0.0
 30
0.0
  3
block 22
  1

  0
POLYLINE
  5
231
330
22D
100
AcDbEntity
  8
Layer 1
 62
     7
420
 16777215
370
    20
100
AcDb2dPolyline
 66
     1
 10
0.0
 20
0.0
 30
0.0
  0
VERTEX
  5
232
330
231
100
AcDbEntity
  8
Layer 1
 62
     7
420
 16777215
370
    20
100
AcDbVertex
100
AcDb2dVertex
 10
-9.761685117509336
 20
21.08604528814834
 30
0.0
  0
VERTEX
  5
233
330
231
100
AcDbEntity
  8
Layer 1
 62
     7
420
 16777215
370
    20
100
AcDbVertex
100
AcDb2dVertex
 10
-8.278195360444442
 20
23.06678111635473
 30
0.0
  0
VERTEX
  5
234
330
231
100
AcDbEntity
  8
Layer 1
 62
     7
420
 16777215
370
    20
100
AcDbVertex
100
AcDb2dVertex
 10
-6.817692549070266
 20
23.06678111635473
 30
0.0
  0
SEQEND
  5
235
330
231
100
AcDbEntity
  8
Layer 1
 62
     7
420
 16777215
370
    20
  0
INSERT
  5
237
330
22D
100
AcDbEntity
  8
Layer 1
100
AcDbBlockReference
  2
block 23
 10
0.0
 20
0.0
 30
0.0
  0
ENDBLK
  5
230
330
22D
100
AcDbEntity
  8
0
100
AcDbBlockEnd
  0
BLOCK
  5
238
330
236
100
AcDbEntity
  8
0
100
AcDbBlockBegin
  2
block 23
 70
     0
 10
0.0
 20
0.0
 30
0.0
  3
block 23
  1

  0
POLYLINE
  5
23A
330
236
100
AcDbEntity
  8
Layer 1
370
     0
100
AcDb2dPolyline
 66
     1
 10
0.0
 20
0.0
 30
0.0
  0
VERTEX
  5
23B
330
23A
100
AcDbEntity
  8
Layer 1
370
     0
100
AcDbVertex
100
AcDb2dVertex
 10
-9.584717496100184
 20
21.0782035604058
 30
0.0
  0
VERTEX
  5
23C
330
23A
100
AcDbEntity
  8
Layer 1
370
     0
100
AcDbVertex
100
AcDb2dVertex
 10
-10.02920679828528
 20
20.72885079334305
 30
0.0
  0
VERTEX
  5
23D
330
23A
100
AcDbEntity
  8
Layer 1
370
     0
100
AcDbVertex
100
AcDb2dVertex
 10
-9.81898640088366
 20
21.2536608628825
 30
0.0
  0
VERTEX
  5
23E
330
23A
100
AcDbEntity
  8
Layer 1
370
     0
100
AcDbVertex
100
AcDb2dVertex
 10
-9.584717496100184
 20
21.0782035604058
 30
0.0
  0
SEQEND
  5
240
330
23A
100
AcDbEntity
  8
Layer 1
370
     0
  0
HATCH
  5
23F
330
236
100
AcDbEntity
  8
Layer 1
 62
     7
420
 16777215
100
AcDbHatch
 10
0.0
 20
0.0
 30
0.0
210
0.0
220
0.0
230
1.0
  2
SOLID
 70
     1
 71
     0
 91
        1
 92
        1
 93
        3
 72
     1
 10
-9.584717496100184
 20
21.0782035604058
 11
-10.02920679828528
 21
20.72885079334305
 72
     1
 10
-10.02920679828528
 20
20.72885079334305
 11
-9.81898640088366
 21
21.2536608628825
 72
     1
 10
-9.81898640088366
 20
21.2536608628825
 11
-9.584717496100184
 21
21.0782035604058
 97
        0
 75
     2
 76
     1
 98
        0
  0
ENDBLK
  5
239
330
236
100
AcDbEntity
  8
0
100
AcDbBlockEnd
  0
BLOCK
  5
243
330
241
100
AcDbEntity
  8
0
100
AcDbBlockBegin
  2
block 24
 70
     0
 10
0.0
 20
0.0
 30
0.0
  3
block 24
  1

  0
POLYLINE
  5
245
330
241
100
AcDbEntity
  8
Layer 1
 62
     7
420
 16777215
370
    20
100
AcDb2dPolyline
 66
     1
 10
0.0
 20
0.0
 30
0.0
  0
VERTEX
  5
246
330
245
100
AcDbEntity
  8
Layer 1
 62
     7
420
 16777215
370
    20
100
AcDbVertex
100
AcDb2dVertex
 10
19.82236779317256
 20
15.57664949033066
 30
0.0
  0
VERTEX
  5
247
330
245
100
AcDbEntity
  8
Layer 1
 62
     7
420
 16777215
370
    20
100
AcDbVertex
100
AcDb2dVertex
 10
5.70413960391617
 20
15.57664949033066
 30
0.0
  0
SEQEND
  5
248
330
245
100
AcDbEntity
  8
Layer 1
 62
     7
420
 16777215
370
    20
  0
INSERT
  5
24A
330
241
100
AcDbEntity
  8
Layer 1
100
AcDbBlockReference
  2
block 25
 10
0.0
 20
0.0
 30
0.0
  0
ENDBLK
  5
244
330
241
100
AcDbEntity
  8
0
100
AcDbBlockEnd
  0
BLOCK
  5
24B
330
249
100
AcDbEntity
  8
0
100
AcDbBlockBegin
  2
block 25
 70
     0
 10
0.0
 20
0.0
 30
0.0
  3
block 25
  1

  0
POLYLINE
  5
24D
330
249
100
AcDbEntity
  8
Layer 1
370
     0
100
AcDb2dPolyline
 66
     1
 10
0.0
 20
0.0
 30
0.0
  0
VERTEX
  5
24E
330
24D
100
AcDbEntity
  8
Layer 1
370
     0
100
AcDbVertex
100
AcDb2dVertex
 10
19.7225593019988
 20
15.7229931583774
 30
0.0
  0
VERTEX
  5
24F
330
24D
100
AcDbEntity
  8
Layer 1
370
     0
100
AcDbVertex
100
AcDb2dVertex
 10
20.26863585517756
 20
15.57664949033066
 30
0.0
  0
VERTEX
  5
250
330
24D
100
AcDbEntity
  8
Layer 1
370
     0
100
AcDbVertex
100
AcDb2dVertex
 10
19.7225593019988
 20
15.43030311075977
 30
0.0
  0
VERTEX
  5
251
330
24D
100
AcDbEntity
  8
Layer 1
370
     0
100
AcDbVertex
100
AcDb2dVertex
 10
19.7225593019988
 20
15.7229931583774
 30
0.0
  0
SEQEND
  5
253
330
24D
100
AcDbEntity
  8
Layer 1
370
     0
  0
HATCH
  5
252
330
249
100
AcDbEntity
  8
Layer 1
 62
     7
420
 16777215
100
AcDbHatch
 10
0.0
 20
0.0
 30
0.0
210
0.0
220
0.0
230
1.0
  2
SOLID
 70
     1
 71
     0
 91
        1
 92
        1
 93
        3
 72
     1
 10
19.7225593019988
 20
15.7229931583774
 11
20.26863585517756
 21
15.57664949033066
 72
     1
 10
20.26863585517756
 20
15.57664949033066
 11
19.7225593019988
 21
15.43030311075977
 72
     1
 10
19.7225593019988
 20
15.43030311075977
 11
19.7225593019988
 21
15.7229931583774
 97
        0
 75
     2
 76
     1
 98
        0
  0
ENDBLK
  5
24C
330
249
100
AcDbEntity
  8
0
100
AcDbBlockEnd
  0
BLOCK
  5
256
330
254
100
AcDbEntity
  8
0
100
AcDbBlockBegin
  2
block 26
 70
     0
 10
0.0
 20
0.0
 30
0.0
  3
block 26
  1

  0
POLYLINE
  5
258
330
254
100
AcDbEntity
  8
Layer 1
 62
     7
420
 16777215
370
    20
100
AcDb2dPolyline
 66
     1
 10
0.0
 20
0.0
 30
0.0
  0
VERTEX
  5
259
330
258
100
AcDbEntity
  8
Layer 1
 62
     7
420
 16777215
370
    20
100
AcDbVertex
100
AcDb2dVertex
 10
18.61754543676117
 20
17.30391746725258
 30
0.0
  0
VERTEX
  5
25A
330
258
100
AcDbEntity
  8
Layer 1
 62
     7
420
 16777215
370
    20
100
AcDbVertex
100
AcDb2dVertex
 10
6.541666666666666
 20
17.30391746725258
 30
0.0
  0
SEQEND
  5
25B
330
258
100
AcDbEntity
  8
Layer 1
 62
     7
420
 16777215
370
    20
  0
INSERT
  5
25D
330
254
100
AcDbEntity
  8
Layer 1
100
AcDbBlockReference
  2
block 27
 10
0.0
 20
0.0
 30
0.0
  0
ENDBLK
  5
257
330
254
100
AcDbEntity
  8
0
100
AcDbBlockEnd
  0
BLOCK
  5
25E
330
25C
100
AcDbEntity
  8
0
100
AcDbBlockBegin
  2
block 27
 70
     0
 10
0.0
 20
0.0
 30
0.0
  3
block 27
  1

  0
POLYLINE
  5
260
330
25C
100
AcDbEntity
  8
Layer 1
370
     0
100
AcDb2dPolyline
 66
     1
 10
0.0
 20
0.0
 30
0.0
  0
VERTEX
  5
261
330
260
100
AcDbEntity
  8
Layer 1
370
     0
100
AcDbVertex
100
AcDb2dVertex
 10
18.51773423406325
 20
17.45026113529932
 30
0.0
  0
VERTEX
  5
262
330
260
100
AcDbEntity
  8
Layer 1
370
     0
100
AcDbVertex
100
AcDb2dVertex
 10
19.06381078724199
 20
17.30391746725258
 30
0.0
  0
VERTEX
  5
263
330
260
100
AcDbEntity
  8
Layer 1
370
     0
100
AcDbVertex
100
AcDb2dVertex
 10
18.51773423406325
 20
17.15757108768169
 30
0.0
  0
VERTEX
  5
264
330
260
100
AcDbEntity
  8
Layer 1
370
     0
100
AcDbVertex
100
AcDb2dVertex
 10
18.51773423406325
 20
17.45026113529932
 30
0.0
  0
SEQEND
  5
266
330
260
100
AcDbEntity
  8
Layer 1
370
     0
  0
HATCH
  5
265
330
25C
100
AcDbEntity
  8
Layer 1
 62
     7
420
 16777215
100
AcDbHatch
 10
0.0
 20
0.0
 30
0.0
210
0.0
220
0.0
230
1.0
  2
SOLID
 70
     1
 71
     0
 91
        1
 92
        1
 93
        3
 72
     1
 10
18.51773423406325
 20
17.45026113529932
 11
19.06381078724199
 21
17.30391746725258
 72
     1
 10
19.06381078724199
 20
17.30391746725258
 11
18.51773423406325
 21
17.15757108768169
 72
     1
 10
18.51773423406325
 20
17.15757108768169
 11
18.51773423406325
 21
17.45026113529932
 97
        0
 75
     2
 76
     1
 98
        0
  0
ENDBLK
  5
25F
330
25C
100
AcDbEntity
  8
0
100
AcDbBlockEnd
  0
BLOCK
  5
28C
330
28A
100
AcDbEntity
  8
0
100
AcDbBlockBegin
  2
block 28
 70
     0
 10
0.0
 20
0.0
 30
0.0
  3
block 28
  1

  0
MTEXT
  5
28E
330
28A
100
AcDbEntity
  8
Layer 1
 62
     7
420
 16777215
100
AcDbMText
 10
19.4156019422743
 20
-0.7212102678087022
 30
0.0
 40
0.3777777805328368
 41
0.0
 46
0.0
 71
     7
 72
     1
  1
\fFrutiger LT Std 55 Roman|b0|i0|c0|p34;\W1;CAD Drawing: AP1491
 73
     1
 44
1.0
  0
ENDBLK
  5
28D
330
28A
100
AcDbEntity
  8
0
100
AcDbBlockEnd
  0
BLOCK
  5
291
330
28F
100
AcDbEntity
  8
0
100
AcDbBlockBegin
  2
block 29
 70
     0
 10
0.0
 20
0.0
 30
0.0
  3
block 29
  1

  0
SPLINE
  5
293
330
28F
100
AcDbEntity
  8
Layer 1
370
     0
100
AcDbSpline
210
0.0
220
0.0
230
1.0
 70
    11
 71
     3
 72
    38
 73
    34
 74
     0
 42
0.0000000001
 43
0.0000000001
 12
1.0
 22
0.0
 32
0.0
 13
1.0
 23
0.0
 33
0.0
 40
0.0
 40
0.0
 40
0.0
 40
0.0
 40
1.0
 40
1.0
 40
1.0
 40
2.0
 40
2.0
 40
2.0
 40
3.0
 40
3.0
 40
3.0
 40
4.0
 40
4.0
 40
4.0
 40
5.0
 40
5.0
 40
5.0
 40
6.0
 40
6.0
 40
6.0
 40
7.0
 40
7.0
 40
7.0
 40
8.0
 40
8.0
 40
8.0
 40
9.0
 40
9.0
 40
9.0
 40
10.0
 40
10.0
 40
10.0
 40
11.0
 40
11.0
 40
11.0
 40
11.0
 10
23.08504681843295
 20
0.434380586583504
 30
0.0
 10
23.08504681843295
 20
0.434380586583504
 30
0.0
 10
23.08382611530795
 20
0.4396838634932262
 30
0.0
 10
23.08382611530795
 20
0.4396838634932262
 30
0.0
 10
23.0993154816274
 20
0.4687772879723929
 30
0.0
 10
23.12435345905795
 20
0.4821643322432262
 30
0.0
 10
23.15609174030795
 20
0.4639622923126707
 30
0.0
 10
23.18392377155795
 20
0.4498156994307262
 30
0.0
 10
23.23020198336351
 20
0.4808351221737818
 30
0.0
 10
23.25933609794684
 20
0.4878066933543374
 30
0.0
 10
23.36510324204406
 20
0.5276016152293374
 30
0.0
 10
23.47640424030795
 20
0.5550403088057262
 30
0.0
 10
23.5834463410024
 20
0.5930584294654484
 30
0.0
 10
23.5834463410024
 20
0.5930584294654484
 30
0.0
 10
23.58992963093295
 20
0.5948894841529484
 30
0.0
 10
23.5976064972524
 20
0.5949166108890596
 30
0.0
 10
23.6269033722524
 20
0.5951336247779484
 30
0.0
 10
23.64781808579406
 20
0.5684816065487818
 30
0.0
 10
23.6222647003774
 20
0.5437691499515596
 30
0.0
 10
23.59505658405795
 20
0.5174833426598929
 30
0.0
 10
23.5189932160024
 20
0.4911704086321151
 30
0.0
 10
23.48386409273851
 20
0.4742433252987818
 30
0.0
 10
23.48386409273851
 20
0.4742433252987818
 30
0.0
 10
23.23337581148851
 20
0.3780383556807262
 30
0.0
 10
23.21175580280795
 20
0.3683134207848929
 30
0.0
 10
23.20755115871073
 20
0.3664552393612818
 30
0.0
 10
23.20402468301629
 20
0.3642308470001707
 30
0.0
 10
23.2006338410024
 20
0.3617351872779485
 30
0.0
 10
23.2006338410024
 20
0.3617351872779485
 30
0.0
 10
23.19005441391906
 20
0.3537192367571151
 30
0.0
 10
23.19005441391906
 20
0.3537192367571151
 30
0.0
 10
23.14049386704406
 20
0.3180611421390596
 30
0.0
 10
23.09359174030795
 20
0.3958470579376707
 30
0.0
 10
23.08504681843295
 20
0.434380586583504
 30
0.0
  0
ENDBLK
  5
292
330
28F
100
AcDbEntity
  8
0
100
AcDbBlockEnd
  0
BLOCK
  5
296
330
294
100
AcDbEntity
  8
0
100
AcDbBlockBegin
  2
block 30
 70
     0
 10
0.0
 20
0.0
 30
0.0
  3
block 30
  1

  0
SPLINE
  5
298
330
294
100
AcDbEntity
  8
Layer 1
370
     0
100
AcDbSpline
210
0.0
220
0.0
230
1.0
 70
    11
 71
     3
 72
    41
 73
    37
 74
     0
 42
0.0000000001
 43
0.0000000001
 12
1.0
 22
0.0
 32
0.0
 13
1.0
 23
0.0
 33
0.0
 40
0.0
 40
0.0
 40
0.0
 40
0.0
 40
1.0
 40
1.0
 40
1.0
 40
2.0
 40
2.0
 40
2.0
 40
3.0
 40
3.0
 40
3.0
 40
4.0
 40
4.0
 40
4.0
 40
5.0
 40
5.0
 40
5.0
 40
6.0
 40
6.0
 40
6.0
 40
7.0
 40
7.0
 40
7.0
 40
8.0
 40
8.0
 40
8.0
 40
9.0
 40
9.0
 40
9.0
 40
10.0
 40
10.0
 40
10.0
 40
11.0
 40
11.0
 40
11.0
 40
12.0
 40
12.0
 40
12.0
 40
12.0
 10
23.08504681843295
 20
0.434380586583504
 30
0.0
 10
23.08504681843295
 20
0.434380586583504
 30
0.0
 10
23.08382611530795
 20
0.4396838634932262
 30
0.0
 10
23.08382611530795
 20
0.4396838634932262
 30
0.0
 10
23.0993154816274
 20
0.4687772879723929
 30
0.0
 10
23.12435345905795
 20
0.4821643322432262
 30
0.0
 10
23.15609174030795
 20
0.4639622923126707
 30
0.0
 10
23.18392377155795
 20
0.4498156994307262
 30
0.0
 10
23.23020198336351
 20
0.4808351221737818
 30
0.0
 10
23.25933609794684
 20
0.4878066933543374
 30
0.0
 10
23.36510324204406
 20
0.5276016152293374
 30
0.0
 10
23.47640424030795
 20
0.5550403088057262
 30
0.0
 10
23.58344634100252
 20
0.5930584294654484
 30
0.0
 10
23.58344634100252
 20
0.5930584294654484
 30
0.0
 10
23.58992963093295
 20
0.5948894841529484
 30
0.0
 10
23.5976064972524
 20
0.5949166108890596
 30
0.0
 10
23.62690337225252
 20
0.5951336247779484
 30
0.0
 10
23.64781808579406
 20
0.5684816065487818
 30
0.0
 10
23.6222647003774
 20
0.5437691499515596
 30
0.0
 10
23.59505658405808
 20
0.5174833426598929
 30
0.0
 10
23.5189932160024
 20
0.4911704086321151
 30
0.0
 10
23.48386409273851
 20
0.4742433252987818
 30
0.0
 10
23.48386409273851
 20
0.4742433252987818
 30
0.0
 10
23.23337581148851
 20
0.3780383556807262
 30
0.0
 10
23.21175580280808
 20
0.3683134207848929
 30
0.0
 10
23.20755115871086
 20
0.3664552393612818
 30
0.0
 10
23.20402468301629
 20
0.3642308470001707
 30
0.0
 10
23.20063384100252
 20
0.3617351872779485
 30
0.0
 10
23.20063384100252
 20
0.3617351872779485
 30
0.0
 10
23.19005441391906
 20
0.3537192367571151
 30
0.0
 10
23.19005441391906
 20
0.3537192367571151
 30
0.0
 10
23.14049386704406
 20
0.3180611421390596
 30
0.0
 10
23.08504681843295
 20
0.434380586583504
 30
0.0
 10
23.08504681843295
 20
0.434380586583504
 30
0.0
 10
23.08504681843295
 20
0.434380586583504
 30
0.0
 10
23.09359174030795
 20
0.3958470579376707
 30
0.0
 10
23.08504681843295
 20
0.434380586583504
 30
0.0
  0
HATCH
  5
299
330
294
100
AcDbEntity
  8
Layer 1
 62
   254
420
 14079702
100
AcDbHatch
 10
0.0
 20
0.0
 30
0.0
210
0.0
220
0.0
230
1.0
  2
SOLID
 70
     1
 71
     0
 91
        1
 92
        1
 93
        1
 72
     4
 94
        3
 73
     0
 74
     1
 95
       41
 96
       37
 40
0.0
 40
0.0
 40
0.0
 40
0.0
 40
1.0
 40
1.0
 40
1.0
 40
2.0
 40
2.0
 40
2.0
 40
3.0
 40
3.0
 40
3.0
 40
4.0
 40
4.0
 40
4.0
 40
5.0
 40
5.0
 40
5.0
 40
6.0
 40
6.0
 40
6.0
 40
7.0
 40
7.0
 40
7.0
 40
8.0
 40
8.0
 40
8.0
 40
9.0
 40
9.0
 40
9.0
 40
10.0
 40
10.0
 40
10.0
 40
11.0
 40
11.0
 40
11.0
 40
12.0
 40
12.0
 40
12.0
 40
12.0
 10
23.08504681843295
 20
0.434380586583504
 10
23.08504681843295
 20
0.434380586583504
 10
23.08382611530795
 20
0.4396838634932262
 10
23.08382611530795
 20
0.4396838634932262
 10
23.0993154816274
 20
0.4687772879723929
 10
23.12435345905795
 20
0.4821643322432262
 10
23.15609174030795
 20
0.4639622923126707
 10
23.18392377155795
 20
0.4498156994307262
 10
23.23020198336351
 20
0.4808351221737818
 10
23.25933609794684
 20
0.4878066933543374
 10
23.36510324204406
 20
0.5276016152293374
 10
23.47640424030795
 20
0.5550403088057262
 10
23.58344634100252
 20
0.5930584294654484
 10
23.58344634100252
 20
0.5930584294654484
 10
23.58992963093295
 20
0.5948894841529484
 10
23.5976064972524
 20
0.5949166108890596
 10
23.62690337225252
 20
0.5951336247779484
 10
23.64781808579406
 20
0.5684816065487818
 10
23.6222647003774
 20
0.5437691499515596
 10
23.59505658405808
 20
0.5174833426598929
 10
23.5189932160024
 20
0.4911704086321151
 10
23.48386409273851
 20
0.4742433252987818
 10
23.48386409273851
 20
0.4742433252987818
 10
23.23337581148851
 20
0.3780383556807262
 10
23.21175580280808
 20
0.3683134207848929
 10
23.20755115871086
 20
0.3664552393612818
 10
23.20402468301629
 20
0.3642308470001707
 10
23.20063384100252
 20
0.3617351872779485
 10
23.20063384100252
 20
0.3617351872779485
 10
23.19005441391906
 20
0.3537192367571151
 10
23.19005441391906
 20
0.3537192367571151
 10
23.14049386704406
 20
0.3180611421390596
 10
23.08504681843295
 20
0.434380586583504
 10
23.08504681843295
 20
0.434380586583504
 10
23.08504681843295
 20
0.434380586583504
 10
23.09359174030795
 20
0.3958470579376707
 10
23.08504681843295
 20
0.434380586583504
 97
        0
 97
        0
 75
     2
 76
     1
 98
        0
  0
ENDBLK
  5
297
330
294
100
AcDbEntity
  8
0
100
AcDbBlockEnd
  0
BLOCK
  5
29C
330
29A
100
AcDbEntity
  8
0
100
AcDbBlockBegin
  2
block 31
 70
     0
 10
0.0
 20
0.0
 30
0.0
  3
block 31
  1

  0
SPLINE
  5
29E
330
29A
100
AcDbEntity
  8
Layer 1
370
     0
100
AcDbSpline
210
0.0
220
0.0
230
1.0
 70
    11
 71
     3
 72
    14
 73
    10
 74
     0
 42
0.0000000001
 43
0.0000000001
 12
1.0
 22
0.0
 32
0.0
 13
1.0
 23
0.0
 33
0.0
 40
0.0
 40
0.0
 40
0.0
 40
0.0
 40
1.0
 40
1.0
 40
1.0
 40
2.0
 40
2.0
 40
2.0
 40
3.0
 40
3.0
 40
3.0
 40
3.0
 10
22.04112863266906
 20
0.6517064329376706
 30
0.0
 10
22.03263796426629
 20
0.5362550440487818
 30
0.0
 10
21.98524755628018
 20
0.4598525917918374
 30
0.0
 10
21.92874256496073
 20
0.3645021143612818
 30
0.0
 10
21.92944786009962
 20
0.4842530909237818
 30
0.0
 10
21.94572390176629
 20
0.5914036985626706
 30
0.0
 10
22.01929161009962
 20
0.6690811074168374
 30
0.0
 10
22.02873171426629
 20
0.6819527437015596
 30
0.0
 10
22.04351578544684
 20
0.6797147879723929
 30
0.0
 10
22.04112863266906
 20
0.6517064329376706
 30
0.0
  0
ENDBLK
  5
29D
330
29A
100
AcDbEntity
  8
0
100
AcDbBlockEnd
  0
BLOCK
  5
2A1
330
29F
100
AcDbEntity
  8
0
100
AcDbBlockBegin
  2
block 32
 70
     0
 10
0.0
 20
0.0
 30
0.0
  3
block 32
  1

  0
SPLINE
  5
2A3
330
29F
100
AcDbEntity
  8
Layer 1
370
     0
100
AcDbSpline
210
0.0
220
0.0
230
1.0
 70
    11
 71
     3
 72
    14
 73
    10
 74
     0
 42
0.0000000001
 43
0.0000000001
 12
1.0
 22
0.0
 32
0.0
 13
1.0
 23
0.0
 33
0.0
 40
0.0
 40
0.0
 40
0.0
 40
0.0
 40
1.0
 40
1.0
 40
1.0
 40
2.0
 40
2.0
 40
2.0
 40
3.0
 40
3.0
 40
3.0
 40
3.0
 10
23.19200753891906
 20
0.1692845579376707
 30
0.0
 10
23.19162776461351
 20
0.1595867497779485
 30
0.0
 10
23.16851578544684
 20
0.1340469277293374
 30
0.0
 10
23.12693049898851
 20
0.1268447792918374
 30
0.0
 10
23.1193350128774
 20
0.1757271577640596
 30
0.0
 10
23.14293527329406
 20
0.204278047521004
 30
0.0
 10
23.16604725246073
 20
0.204278047521004
 30
0.0
 10
23.18517160141906
 20
0.204278047521004
 30
0.0
 10
23.1930654816274
 20
0.1971030258196151
 30
0.0
 10
23.19200753891906
 20
0.1692845579376707
 30
0.0
  0
ENDBLK
  5
2A2
330
29F
100
AcDbEntity
  8
0
100
AcDbBlockEnd
  0
BLOCK
  5
2A6
330
2A4
100
AcDbEntity
  8
0
100
AcDbBlockBegin
  2
block 33
 70
     0
 10
0.0
 20
0.0
 30
0.0
  3
block 33
  1

  0
SPLINE
  5
2A8
330
2A4
100
AcDbEntity
  8
Layer 1
370
     0
100
AcDbSpline
210
0.0
220
0.0
230
1.0
 70
    11
 71
     3
 72
   200
 73
   196
 74
     0
 42
0.0000000001
 43
0.0000000001
 12
1.0
 22
0.0
 32
0.0
 13
1.0
 23
0.0
 33
0.0
 40
0.0
 40
0.0
 40
0.0
 40
0.0
 40
1.0
 40
1.0
 40
1.0
 40
2.0
 40
2.0
 40
2.0
 40
3.0
 40
3.0
 40
3.0
 40
4.0
 40
4.0
 40
4.0
 40
5.0
 40
5.0
 40
5.0
 40
6.0
 40
6.0
 40
6.0
 40
7.0
 40
7.0
 40
7.0
 40
8.0
 40
8.0
 40
8.0
 40
9.0
 40
9.0
 40
9.0
 40
10.0
 40
10.0
 40
10.0
 40
11.0
 40
11.0
 40
11.0
 40
12.0
 40
12.0
 40
12.0
 40
13.0
 40
13.0
 40
13.0
 40
14.0
 40
14.0
 40
14.0
 40
15.0
 40
15.0
 40
15.0
 40
16.0
 40
16.0
 40
16.0
 40
17.0
 40
17.0
 40
17.0
 40
18.0
 40
18.0
 40
18.0
 40
19.0
 40
19.0
 40
19.0
 40
20.0
 40
20.0
 40
20.0
 40
21.0
 40
21.0
 40
21.0
 40
22.0
 40
22.0
 40
22.0
 40
23.0
 40
23.0
 40
23.0
 40
24.0
 40
24.0
 40
24.0
 40
25.0
 40
25.0
 40
25.0
 40
26.0
 40
26.0
 40
26.0
 40
27.0
 40
27.0
 40
27.0
 40
28.0
 40
28.0
 40
28.0
 40
29.0
 40
29.0
 40
29.0
 40
30.0
 40
30.0
 40
30.0
 40
31.0
 40
31.0
 40
31.0
 40
32.0
 40
32.0
 40
32.0
 40
33.0
 40
33.0
 40
33.0
 40
34.0
 40
34.0
 40
34.0
 40
35.0
 40
35.0
 40
35.0
 40
36.0
 40
36.0
 40
36.0
 40
37.0
 40
37.0
 40
37.0
 40
38.0
 40
38.0
 40
38.0
 40
39.0
 40
39.0
 40
39.0
 40
40.0
 40
40.0
 40
40.0
 40
41.0
 40
41.0
 40
41.0
 40
42.0
 40
42.0
 40
42.0
 40
43.0
 40
43.0
 40
43.0
 40
44.0
 40
44.0
 40
44.0
 40
45.0
 40
45.0
 40
45.0
 40
46.0
 40
46.0
 40
46.0
 40
47.0
 40
47.0
 40
47.0
 40
48.0
 40
48.0
 40
48.0
 40
49.0
 40
49.0
 40
49.0
 40
50.0
 40
50.0
 40
50.0
 40
51.0
 40
51.0
 40
51.0
 40
52.0
 40
52.0
 40
52.0
 40
53.0
 40
53.0
 40
53.0
 40
54.0
 40
54.0
 40
54.0
 40
55.0
 40
55.0
 40
55.0
 40
56.0
 40
56.0
 40
56.0
 40
57.0
 40
57.0
 40
57.0
 40
58.0
 40
58.0
 40
58.0
 40
59.0
 40
59.0
 40
59.0
 40
60.0
 40
60.0
 40
60.0
 40
61.0
 40
61.0
 40
61.0
 40
62.0
 40
62.0
 40
62.0
 40
63.0
 40
63.0
 40
63.0
 40
64.0
 40
64.0
 40
64.0
 40
65.0
 40
65.0
 40
65.0
 40
65.0
 10
23.4989736847524
 20
0.0675186074168374
 30
0.0
 10
23.4989736847524
 20
0.0675186074168374
 30
0.0
 10
23.50797976114129
 20
0.0299209511668374
 30
0.0
 10
23.50797976114129
 20
0.0299209511668374
 30
0.0
 10
23.51294395384962
 20
0.0104168279029485
 30
0.0
 10
23.51866769516906
 20
-0.0077038318192737
 30
0.0
 10
23.52824343301629
 20
-0.0255396608123293
 30
0.0
 10
23.58900732190518
 20
-0.1068520523053849
 30
0.0
 10
23.74411799898851
 20
-0.0975340184512182
 30
0.0
 10
23.82359933579406
 20
-0.0728893786942737
 30
0.0
 10
23.8676260285024
 20
-0.0592039403262182
 30
0.0
 10
23.90991661009962
 20
-0.0365938057776071
 30
0.0
 10
23.94957589829406
 20
-0.0130206720970515
 30
0.0
 10
24.05067724378018
 20
-0.0794811755692737
 30
0.0
 10
24.17836279065518
 20
-0.100043241541496
 30
0.0
 10
24.30629247815518
 20
-0.1005450861595515
 30
0.0
 10
24.43704334621073
 20
-0.1010333674095515
 30
0.0
 10
24.57053401461351
 20
-0.0804577380692737
 30
0.0
 10
24.68026166218295
 20
-0.0644800904998293
 30
0.0
 10
24.79696088093295
 20
-0.0569931113331626
 30
0.0
 10
24.89000558579406
 20
-0.0019665271317737
 30
0.0
 10
25.01278119343295
 20
-0.0283744047359404
 30
0.0
 10
25.0392568878774
 20
-0.0195310887637182
 30
0.0
 10
25.06011734794684
 20
-0.0060219741803849
 30
0.0
 10
25.05816422294684
 20
0.0268963200904485
 30
0.0
 10
25.04628271253018
 20
0.0560304346737818
 30
0.0
 10
25.02981678371073
 20
0.0763890501251707
 30
0.0
 10
24.99550146253018
 20
0.0791152871043374
 30
0.0
 10
24.93761300766906
 20
0.0542129433543374
 30
0.0
 10
24.8722647003774
 20
0.0615914155765596
 30
0.0
 10
24.81182633232184
 20
0.0467530909237818
 30
0.0
 10
24.65820762572462
 20
0.0109457992571151
 30
0.0
 10
24.49466053371073
 20
-0.0031058500484404
 30
0.0
 10
24.32083240871073
 20
-0.012518827478996
 30
0.0
 10
24.21305788614129
 20
-0.0116100818192737
 30
0.0
 10
24.07682741739129
 20
-0.0099417875484404
 30
0.0
 10
24.00168635836351
 20
0.0808920883196151
 30
0.0
 10
23.99338557711351
 20
0.1082629650557262
 30
0.0
 10
24.01584651461351
 20
0.1445992280765596
 30
0.0
 10
24.00689469169684
 20
0.1835125310279485
 30
0.0
 10
23.9928701691274
 20
0.2106663938751707
 30
0.0
 10
23.96989382364129
 20
0.2286378565487818
 30
0.0
 10
23.93650081148851
 20
0.2198216673126707
 30
0.0
 10
23.89071088093295
 20
0.1867406126251707
 30
0.0
 10
23.89133479586351
 20
0.1321480562015596
 30
0.0
 10
23.89543093301629
 20
0.0825196924862818
 30
0.0
 10
23.82951296426629
 20
-0.0026718222706626
 30
0.0
 10
23.67779312919684
 20
-0.0382349733123293
 30
0.0
 10
23.61282459621073
 20
0.0278186291182262
 30
0.0
 10
23.60943375419684
 20
0.0394966890140596
 30
0.0
 10
23.60292333753018
 20
0.0624187810279485
 30
0.0
 10
23.60954226114129
 20
0.079278047521004
 30
0.0
 10
23.61013904933573
 20
0.0813125527293374
 30
0.0
 10
23.61076296426629
 20
0.0835233817223929
 30
0.0
 10
23.61106135836351
 20
0.0860326048126707
 30
0.0
 10
23.6144522003774
 20
0.111626680333504
 30
0.0
 10
23.60604291218295
 20
0.1308052827640596
 30
0.0
 10
23.58263253891906
 20
0.1391196273821151
 30
0.0
 10
23.53811756496073
 20
0.1554634858890596
 30
0.0
 10
23.54074885836351
 20
0.1754423270348929
 30
0.0
 10
23.5092275910024
 20
0.2032607949168374
 30
0.0
 10
23.47681114134962
 20
0.2331137680071151
 30
0.0
 10
23.43905072468295
 20
0.2187365978682262
 30
0.0
 10
23.41653553371073
 20
0.1888293713057262
 30
0.0
 10
23.41100167954406
 20
0.1087512463057262
 30
0.0
 10
23.3544424347524
 20
0.0431181082848929
 30
0.0
 10
23.29224082884962
 20
0.0000001612362818
 30
0.0
 10
23.25250016044684
 20
-0.013739530603996
 30
0.0
 10
23.20269547294684
 20
-0.0091958023053849
 30
0.0
 10
23.17017051634962
 20
0.012871797521004
 30
0.0
 10
23.1593740753774
 20
0.0203316499515596
 30
0.0
 10
23.15557633232184
 20
0.0285781777293374
 30
0.0
 10
23.15535931843295
 20
0.0343968626251707
 30
0.0
 10
23.2072256378774
 20
0.0489910466529485
 30
0.0
 10
23.25372086357184
 20
0.0842558035973929
 30
0.0
 10
23.28027793822462
 20
0.1327041542918374
 30
0.0
 10
23.3117178253774
 20
0.2170683035973929
 30
0.0
 10
23.25073692259962
 20
0.3071155041182262
 30
0.0
 10
23.15701404933573
 20
0.2940404173126707
 30
0.0
 10
23.07058826808573
 20
0.2819418930071151
 30
0.0
 10
23.02797216565518
 20
0.2209338634932262
 30
0.0
 10
23.03206830280795
 20
0.1158041976946151
 30
0.0
 10
22.98454226114129
 20
0.1177844494307262
 30
0.0
 10
22.94195328544684
 20
0.133599336583504
 30
0.0
 10
22.89779095905795
 20
0.1513673487362818
 30
0.0
 10
22.85992203544684
 20
0.1666668279029485
 30
0.0
 10
22.85314035141906
 20
0.2022164155765596
 30
0.0
 10
22.79799169690518
 20
0.1919218192223929
 30
0.0
 10
22.75461604586351
 20
0.146050508458504
 30
0.0
 10
22.78502511704406
 20
0.1159127046390596
 30
0.0
 10
22.81345393648851
 20
0.0796849485626707
 30
0.0
 10
22.84193700940518
 20
0.0435521360626707
 30
0.0
 10
22.84063492607184
 20
-0.0106470826873293
 30
0.0
 10
22.79552316391906
 20
-0.0362547215762182
 30
0.0
 10
22.73085302503018
 20
-0.051581327478996
 30
0.0
 10
22.67676231322462
 20
0.0050321707848929
 30
0.0
 10
22.63742854586351
 20
0.0469972315487818
 30
0.0
 10
22.63794395384962
 20
0.0720216456112818
 30
0.0
 10
22.63867637572462
 20
0.1205920666182262
 30
0.0
 10
22.63224733926629
 20
0.1419950614098929
 30
0.0
 10
22.61944351982184
 20
0.1849502480418374
 30
0.0
 10
22.59169286878018
 20
0.2218290457848929
 30
0.0
 10
22.54074885836351
 20
0.2048070188751707
 30
0.0
 10
22.50892919690518
 20
0.1624893105418374
 30
0.0
 10
22.52110910141906
 20
0.1118030041182262
 30
0.0
 10
22.53855159273851
 20
0.0686308035973929
 30
0.0
 10
22.52431005628018
 20
0.0244142237362818
 30
0.0
 10
22.50325970905795
 20
-0.0187037233123293
 30
0.0
 10
22.46197281669684
 20
-0.0406221260901071
 30
0.0
 10
22.41398562051629
 20
-0.0520560453609404
 30
0.0
 10
22.33043527329406
 20
-0.0405814359859404
 30
0.0
 10
22.29587581148851
 20
0.0450847966529485
 30
0.0
 10
22.29785606322462
 20
0.0564644624515596
 30
0.0
 10
22.30311865003018
 20
0.0888402220001707
 30
0.0
 10
22.3031729035024
 20
0.1218398964793374
 30
0.0
 10
22.30322715697462
 20
0.1422120752987818
 30
0.0
 10
22.30132828544684
 20
0.1642525483890596
 30
0.0
 10
22.29476361530795
 20
0.1822240110626707
 30
0.0
 10
22.27327924030795
 20
0.2406143105418374
 30
0.0
 10
22.18571413614129
 20
0.2400039589793374
 30
0.0
 10
22.18576838961351
 20
0.139580781896004
 30
0.0
 10
22.18576838961351
 20
0.1155600570696151
 30
0.0
 10
22.18934911878018
 20
0.0914715154029485
 30
0.0
 10
22.19496435315518
 20
0.0681967758196151
 30
0.0
 10
22.16013362398851
 20
-0.0033499906734404
 30
0.0
 10
22.08843766044684
 20
-0.0177135974442737
 30
0.0
 10
22.03809043822462
 20
-0.0080836061248293
 30
0.0
 10
21.96417008232184
 20
0.0296361204376707
 30
0.0
 10
21.94029855454406
 20
0.1100533296390596
 30
0.0
 10
21.92985476114129
 20
0.1928441282501707
 30
0.0
 10
21.98275189655795
 20
0.2657607949168374
 30
0.0
 10
22.02734825072462
 20
0.329644258458504
 30
0.0
 10
22.07349082884962
 20
0.418389375646004
 30
0.0
 10
22.12644221773851
 20
0.5167644841529484
 30
0.0
 10
22.14695003023851
 20
0.5569934338057262
 30
0.0
 10
22.1510732941274
 20
0.6782635075904484
 30
0.0
 10
22.13843223509962
 20
0.8276775700904484
 30
0.0
 10
21.95464859794684
 20
0.7850072141876706
 30
0.0
 10
21.91545046426629
 20
0.7058242714793374
 30
0.0
 10
21.82183609794684
 20
0.5591635726946151
 30
0.0
 10
21.80569568996073
 20
0.3620607081112818
 30
0.0
 10
21.82218874551629
 20
0.195244844396004
 30
0.0
 10
21.80382394516906
 20
0.1607396360626707
 30
0.0
 10
21.77612754759962
 20
0.1342368148821151
 30
0.0
 10
21.74883805107184
 20
0.1069473183543374
 30
0.0
 10
21.72366443996073
 20
0.0852730562015596
 30
0.0
 10
21.70304812051629
 20
0.0794136812015596
 30
0.0
 10
21.68834542954406
 20
0.0457765284237818
 30
0.0
 10
21.69566964829406
 20
0.0321995970001707
 30
0.0
 10
21.69781266044684
 20
0.0300430214793374
 30
0.0
 10
21.71520089829406
 20
0.0195585379723929
 30
0.0
 10
21.7687490753774
 20
0.0031332992571151
 30
0.0
 10
21.80059586357184
 20
0.0357667627987818
 30
0.0
 10
21.83472129759962
 20
0.0684816065487818
 30
0.0
 10
21.83472129759962
 20
0.0684816065487818
 30
0.0
 10
21.84958674898851
 20
0.0823162419654485
 30
0.0
 10
21.84958674898851
 20
0.0823162419654485
 30
0.0
 10
21.88487863266906
 20
0.0084365761668374
 30
0.0
 10
21.93877945732184
 20
-0.0763480375484404
 30
0.0
 10
22.02563926634962
 20
-0.1005043960553849
 30
0.0
 10
22.07598648857184
 20
-0.108954374353996
 30
0.0
 10
22.13696739134962
 20
-0.1086288535206626
 30
0.0
 10
22.1825674347524
 20
-0.080145780603996
 30
0.0
 10
22.1825674347524
 20
-0.080145780603996
 30
0.0
 10
22.24973323336351
 20
-0.0370142701873293
 30
0.0
 10
22.24973323336351
 20
-0.0370142701873293
 30
0.0
 10
22.29858848509962
 20
-0.0946314576873293
 30
0.0
 10
22.3620107941274
 20
-0.140936796228996
 30
0.0
 10
22.44572390176629
 20
-0.1330564793887182
 30
0.0
 10
22.5009268097524
 20
-0.1306693266109404
 30
0.0
 10
22.54460085489129
 20
-0.0913491226178849
 30
0.0
 10
22.57986561183573
 20
-0.0531546781734404
 30
0.0
 10
22.57986561183573
 20
-0.0531546781734404
 30
0.0
 10
22.60012928371073
 20
-0.0305174168887182
 30
0.0
 10
22.60012928371073
 20
-0.0305174168887182
 30
0.0
 10
22.65446413614129
 20
-0.0876598865067737
 30
0.0
 10
22.71775081148851
 20
-0.1409232328609404
 30
0.0
 10
22.8124502472524
 20
-0.1233857979651071
 30
0.0
 10
22.87050146253018
 20
-0.1158852554303849
 30
0.0
 10
22.90139881496073
 20
-0.0838350167151071
 30
0.0
 10
22.92407676634962
 20
-0.0330402033470515
 30
0.0
 10
22.9347647003774
 20
-0.0081785497012182
 30
0.0
 10
22.93167225246073
 20
0.0189346230418374
 30
0.0
 10
22.92898670558573
 20
0.0448813461321151
 30
0.0
 10
22.9684561066274
 20
0.0347088200904485
 30
0.0
 10
23.00939035141906
 20
0.0262859685279485
 30
0.0
 10
23.05016183579406
 20
0.0247397445696151
 30
0.0
 10
23.06410497815518
 20
-0.0113116877220515
 30
0.0
 10
23.08876318128018
 20
-0.0531818049095515
 30
0.0
 10
23.12511300766906
 20
-0.0699325644581626
 30
0.0
 10
23.2038076691274
 20
-0.1061874472706626
 30
0.0
 10
23.20825645384962
 20
-0.1002195653262182
 30
0.0
 10
23.28225818996073
 20
-0.0962997519581626
 30
0.0
 10
23.37671348509962
 20
-0.0787623170623293
 30
0.0
 10
23.44610367607184
 20
-0.0049911582081626
 30
0.0
 10
23.4989736847524
 20
0.0675186074168374
 30
0.0
  0
ENDBLK
  5
2A7
330
2A4
100
AcDbEntity
  8
0
100
AcDbBlockEnd
  0
BLOCK
  5
2AB
330
2A9
100
AcDbEntity
  8
0
100
AcDbBlockBegin
  2
block 34
 70
     0
 10
0.0
 20
0.0
 30
0.0
  3
block 34
  1

  0
SPLINE
  5
2AD
330
2A9
100
AcDbEntity
  8
Layer 1
370
     0
100
AcDbSpline
210
0.0
220
0.0
230
1.0
 70
    11
 71
     3
 72
    53
 73
    49
 74
     0
 42
0.0000000001
 43
0.0000000001
 12
1.0
 22
0.0
 32
0.0
 13
1.0
 23
0.0
 33
0.0
 40
0.0
 40
0.0
 40
0.0
 40
0.0
 40
1.0
 40
1.0
 40
1.0
 40
2.0
 40
2.0
 40
2.0
 40
3.0
 40
3.0
 40
3.0
 40
4.0
 40
4.0
 40
4.0
 40
5.0
 40
5.0
 40
5.0
 40
6.0
 40
6.0
 40
6.0
 40
7.0
 40
7.0
 40
7.0
 40
8.0
 40
8.0
 40
8.0
 40
9.0
 40
9.0
 40
9.0
 40
10.0
 40
10.0
 40
10.0
 40
11.0
 40
11.0
 40
11.0
 40
12.0
 40
12.0
 40
12.0
 40
13.0
 40
13.0
 40
13.0
 40
14.0
 40
14.0
 40
14.0
 40
15.0
 40
15.0
 40
15.0
 40
16.0
 40
16.0
 40
16.0
 40
16.0
 10
21.19298410141906
 20
0.5937230345001706
 30
0.0
 10
21.19298410141906
 20
0.5937230345001706
 30
0.0
 10
21.17293744343295
 20
0.6122641586321151
 30
0.0
 10
21.17293744343295
 20
0.6122641586321151
 30
0.0
 10
21.17293744343295
 20
0.6122641586321151
 30
0.0
 10
21.19225167954406
 20
0.6215957558543374
 30
0.0
 10
21.19225167954406
 20
0.6215957558543374
 30
0.0
 10
21.2226064972524
 20
0.6313342541182262
 30
0.0
 10
21.25553835489129
 20
0.6337620970001706
 30
0.0
 10
21.27097346773851
 20
0.5985244667918374
 30
0.0
 10
21.27474408405795
 20
0.5676135509932262
 30
0.0
 10
21.26185888440518
 20
0.5489503565487818
 30
0.0
 10
21.23996760836351
 20
0.5296903739098929
 30
0.0
 10
21.19284846773851
 20
0.5254043496043374
 30
0.0
 10
21.16127294690518
 20
0.481988008458504
 30
0.0
 10
21.13213883232184
 20
0.4494494884932262
 30
0.0
 10
21.09852880628018
 20
0.3702258556807262
 30
0.0
 10
21.12619807711351
 20
0.2750381386668374
 30
0.0
 10
21.14266400593295
 20
0.195244844396004
 30
0.0
 10
21.14266400593295
 20
0.195244844396004
 30
0.0
 10
21.15272802503018
 20
0.1854520926598929
 30
0.0
 10
21.15272802503018
 20
0.1854520926598929
 30
0.0
 10
21.17087581148851
 20
0.1674806299862818
 30
0.0
 10
21.18563275593295
 20
0.1483562810279485
 30
0.0
 10
21.18433067259962
 20
0.1209175874515596
 30
0.0
 10
21.16705094169684
 20
0.0744630518612818
 30
0.0
 10
21.07484716565518
 20
0.0518664806807262
 30
0.0
 10
21.06502728718295
 20
0.126030977208504
 30
0.0
 10
21.04834434447462
 20
0.1554634858890596
 30
0.0
 10
21.04164404065518
 20
0.1768257905765596
 30
0.0
 10
21.03735801634962
 20
0.1986221230418374
 30
0.0
 10
21.03735801634962
 20
0.1986221230418374
 30
0.0
 10
21.03434694864129
 20
0.2158204737362818
 30
0.0
 10
21.03434694864129
 20
0.2158204737362818
 30
0.0
 10
21.02867746079406
 20
0.1728517237362818
 30
0.0
 10
21.03556765176629
 20
0.1228164589793374
 30
0.0
 10
21.04275623683573
 20
0.0805936942223929
 30
0.0
 10
21.0575674347524
 20
0.0246854910973929
 30
0.0
 10
21.0961416535024
 20
-0.018011991541496
 30
0.0
 10
21.15142594169684
 20
-0.0404593656734404
 30
0.0
 10
21.27813492607184
 20
-0.070502225916496
 30
0.0
 10
21.38265424030795
 20
0.0160591890140596
 30
0.0
 10
21.45494699204406
 20
0.1097142454376707
 30
0.0
 10
21.5687979035024
 20
0.2722983383196151
 30
0.0
 10
21.66989924898851
 20
0.4761421968265596
 30
0.0
 10
21.57791248683573
 20
0.6730958643612818
 30
0.0
 10
21.46813058579406
 20
0.8104656560279484
 30
0.0
 10
21.25277142780795
 20
0.7466635726946151
 30
0.0
 10
21.19298410141906
 20
0.5937230345001706
 30
0.0
  0
ENDBLK
  5
2AC
330
2A9
100
AcDbEntity
  8
0
100
AcDbBlockEnd
  0
BLOCK
  5
2B0
330
2AE
100
AcDbEntity
  8
0
100
AcDbBlockBegin
  2
block 35
 70
     0
 10
0.0
 20
0.0
 30
0.0
  3
block 35
  1

  0
SPLINE
  5
2B2
330
2AE
100
AcDbEntity
  8
Layer 1
370
     0
100
AcDbSpline
210
0.0
220
0.0
230
1.0
 70
    11
 71
     3
 72
    23
 73
    19
 74
     0
 42
0.0000000001
 43
0.0000000001
 12
1.0
 22
0.0
 32
0.0
 13
1.0
 23
0.0
 33
0.0
 40
0.0
 40
0.0
 40
0.0
 40
0.0
 40
1.0
 40
1.0
 40
1.0
 40
2.0
 40
2.0
 40
2.0
 40
3.0
 40
3.0
 40
3.0
 40
4.0
 40
4.0
 40
4.0
 40
5.0
 40
5.0
 40
5.0
 40
6.0
 40
6.0
 40
6.0
 40
6.0
 10
21.53391292086351
 20
0.0425213200904485
 30
0.0
 10
21.44474733926629
 20
-0.078558866541496
 30
0.0
 10
21.29948366739129
 20
-0.159247343103996
 30
0.0
 10
21.14402034273851
 20
-0.1373560670623293
 30
0.0
 10
21.03442832884962
 20
-0.1081676990067737
 30
0.0
 10
20.96349191391906
 20
-0.0016952597706626
 30
0.0
 10
20.94537125419684
 20
0.1030139416182262
 30
0.0
 10
20.9232900910024
 20
0.2398954520348929
 30
0.0
 10
20.9603994660024
 20
0.364556367833504
 30
0.0
 10
21.03269221773851
 20
0.4675972749515596
 30
0.0
 10
21.05436647989129
 20
0.6172690414446151
 30
0.0
 10
21.13949017780795
 20
0.7610000527293374
 30
0.0
 10
21.2880361847524
 20
0.8270672185279484
 30
0.0
 10
21.38064686183573
 20
0.8608535683543374
 30
0.0
 10
21.58800363266906
 20
0.8757325831112818
 30
0.0
 10
21.65826187919684
 20
0.7238635509932262
 30
0.0
 10
21.78581179239129
 20
0.4886340588057262
 30
0.0
 10
21.6579092316274
 20
0.2303604042918374
 30
0.0
 10
21.53391292086351
 20
0.0425213200904485
 30
0.0
  0
ENDBLK
  5
2B1
330
2AE
100
AcDbEntity
  8
0
100
AcDbBlockEnd
  0
BLOCK
  5
2B5
330
2B3
100
AcDbEntity
  8
0
100
AcDbBlockBegin
  2
block 36
 70
     0
 10
0.0
 20
0.0
 30
0.0
  3
block 36
  1

  0
SPLINE
  5
2B7
330
2B3
100
AcDbEntity
  8
Layer 1
370
     0
100
AcDbSpline
210
0.0
220
0.0
230
1.0
 70
    11
 71
     3
 72
    17
 73
    13
 74
     0
 42
0.0000000001
 43
0.0000000001
 12
1.0
 22
0.0
 32
0.0
 13
1.0
 23
0.0
 33
0.0
 40
0.0
 40
0.0
 40
0.0
 40
0.0
 40
1.0
 40
1.0
 40
1.0
 40
2.0
 40
2.0
 40
2.0
 40
3.0
 40
3.0
 40
3.0
 40
4.0
 40
4.0
 40
4.0
 40
4.0
 10
23.99780723509962
 20
0.3196887463057262
 30
0.0
 10
24.00382937051629
 20
0.3379992931807262
 30
0.0
 10
24.00187624551629
 20
0.3623726655765596
 30
0.0
 10
23.9909170441274
 20
0.3792319320696151
 30
0.0
 10
23.96720827676629
 20
0.4090713417918374
 30
0.0
 10
23.92152685315518
 20
0.4302708860626707
 30
0.0
 10
23.89317941391906
 20
0.391167695958504
 30
0.0
 10
23.87891075072462
 20
0.3562691499515596
 30
0.0
 10
23.8895986847524
 20
0.3215333643612818
 30
0.0
 10
23.91762060315518
 20
0.2975804563751707
 30
0.0
 10
23.94740575940518
 20
0.2904461247779485
 30
0.0
 10
23.98134130628018
 20
0.2833117931807262
 30
0.0
 10
23.99780723509962
 20
0.3196887463057262
 30
0.0
  0
ENDBLK
  5
2B6
330
2B3
100
AcDbEntity
  8
0
100
AcDbBlockEnd
  0
BLOCK
  5
2BA
330
2B8
100
AcDbEntity
  8
0
100
AcDbBlockBegin
  2
block 37
 70
     0
 10
0.0
 20
0.0
 30
0.0
  3
block 37
  1

  0
SPLINE
  5
2BC
330
2B8
100
AcDbEntity
  8
Layer 1
370
     0
100
AcDbSpline
210
0.0
220
0.0
230
1.0
 70
    11
 71
     3
 72
    17
 73
    13
 74
     0
 42
0.0000000001
 43
0.0000000001
 12
1.0
 22
0.0
 32
0.0
 13
1.0
 23
0.0
 33
0.0
 40
0.0
 40
0.0
 40
0.0
 40
0.0
 40
1.0
 40
1.0
 40
1.0
 40
2.0
 40
2.0
 40
2.0
 40
3.0
 40
3.0
 40
3.0
 40
4.0
 40
4.0
 40
4.0
 40
4.0
 10
22.28762928371073
 20
0.3755833860626707
 30
0.0
 10
22.27230267780795
 20
0.3536107298126707
 30
0.0
 10
22.23446088093295
 20
0.3535564763404485
 30
0.0
 10
22.21490250419684
 20
0.3615453001251707
 30
0.0
 10
22.18660931843295
 20
0.3730877263404485
 30
0.0
 10
22.15972672294684
 20
0.4104141152293374
 30
0.0
 10
22.18045154933573
 20
0.4465062376251707
 30
0.0
 10
22.20359065523851
 20
0.4867894407501707
 30
0.0
 10
22.25160497815518
 20
0.4757217324168374
 30
0.0
 10
22.27639881496073
 20
0.4555258773821151
 30
0.0
 10
22.2919424347524
 20
0.4428848183543374
 30
0.0
 10
22.30832698336351
 20
0.4051786551598929
 30
0.0
 10
22.28762928371073
 20
0.3755833860626707
 30
0.0
  0
ENDBLK
  5
2BB
330
2B8
100
AcDbEntity
  8
0
100
AcDbBlockEnd
  0
BLOCK
  5
2BF
330
2BD
100
AcDbEntity
  8
0
100
AcDbBlockBegin
  2
block 38
 70
     0
 10
0.0
 20
0.0
 30
0.0
  3
block 38
  1

  0
SPLINE
  5
2C1
330
2BD
100
AcDbEntity
  8
Layer 1
370
     0
100
AcDbSpline
210
0.0
220
0.0
230
1.0
 70
    11
 71
     3
 72
    17
 73
    13
 74
     0
 42
0.0000000001
 43
0.0000000001
 12
1.0
 22
0.0
 32
0.0
 13
1.0
 23
0.0
 33
0.0
 40
0.0
 40
0.0
 40
0.0
 40
0.0
 40
1.0
 40
1.0
 40
1.0
 40
2.0
 40
2.0
 40
2.0
 40
3.0
 40
3.0
 40
3.0
 40
4.0
 40
4.0
 40
4.0
 40
4.0
 10
22.04112863266919
 20
0.6517064329376706
 30
0.0
 10
22.03263796426641
 20
0.5362550440487818
 30
0.0
 10
21.9852475562803
 20
0.4598525917918374
 30
0.0
 10
21.92874256496073
 20
0.3645021143612818
 30
0.0
 10
21.92944786009962
 20
0.4842530909237818
 30
0.0
 10
21.94572390176641
 20
0.5914036985626706
 30
0.0
 10
22.01929161009962
 20
0.6690811074168374
 30
0.0
 10
22.02873171426629
 20
0.6819527437015596
 30
0.0
 10
22.04112863266919
 20
0.6517064329376706
 30
0.0
 10
22.04112863266919
 20
0.6517064329376706
 30
0.0
 10
22.04112863266919
 20
0.6517064329376706
 30
0.0
 10
22.04351578544684
 20
0.6797147879723929
 30
0.0
 10
22.04112863266919
 20
0.6517064329376706
 30
0.0
  0
SPLINE
  5
2C2
330
2BD
100
AcDbEntity
  8
Layer 1
370
     0
100
AcDbSpline
210
0.0
220
0.0
230
1.0
 70
    11
 71
     3
 72
    17
 73
    13
 74
     0
 42
0.0000000001
 43
0.0000000001
 12
1.0
 22
0.0
 32
0.0
 13
1.0
 23
0.0
 33
0.0
 40
0.0
 40
0.0
 40
0.0
 40
0.0
 40
1.0
 40
1.0
 40
1.0
 40
2.0
 40
2.0
 40
2.0
 40
3.0
 40
3.0
 40
3.0
 40
4.0
 40
4.0
 40
4.0
 40
4.0
 10
23.19200753891906
 20
0.1692845579376707
 30
0.0
 10
23.19162776461351
 20
0.1595867497779485
 30
0.0
 10
23.16851578544697
 20
0.1340469277293374
 30
0.0
 10
23.12693049898851
 20
0.1268447792918374
 30
0.0
 10
23.11933501287752
 20
0.1757271577640596
 30
0.0
 10
23.14293527329406
 20
0.204278047521004
 30
0.0
 10
23.16604725246086
 20
0.204278047521004
 30
0.0
 10
23.18517160141906
 20
0.204278047521004
 30
0.0
 10
23.19200753891906
 20
0.1692845579376707
 30
0.0
 10
23.19200753891906
 20
0.1692845579376707
 30
0.0
 10
23.19200753891906
 20
0.1692845579376707
 30
0.0
 10
23.19306548162752
 20
0.1971030258196151
 30
0.0
 10
23.19200753891906
 20
0.1692845579376707
 30
0.0
  0
SPLINE
  5
2C3
330
2BD
100
AcDbEntity
  8
Layer 1
370
     0
100
AcDbSpline
210
0.0
220
0.0
230
1.0
 70
    11
 71
     3
 72
   203
 73
   199
 74
     0
 42
0.0000000001
 43
0.0000000001
 12
1.0
 22
0.0
 32
0.0
 13
1.0
 23
0.0
 33
0.0
 40
0.0
 40
0.0
 40
0.0
 40
0.0
 40
1.0
 40
1.0
 40
1.0
 40
2.0
 40
2.0
 40
2.0
 40
3.0
 40
3.0
 40
3.0
 40
4.0
 40
4.0
 40
4.0
 40
5.0
 40
5.0
 40
5.0
 40
6.0
 40
6.0
 40
6.0
 40
7.0
 40
7.0
 40
7.0
 40
8.0
 40
8.0
 40
8.0
 40
9.0
 40
9.0
 40
9.0
 40
10.0
 40
10.0
 40
10.0
 40
11.0
 40
11.0
 40
11.0
 40
12.0
 40
12.0
 40
12.0
 40
13.0
 40
13.0
 40
13.0
 40
14.0
 40
14.0
 40
14.0
 40
15.0
 40
15.0
 40
15.0
 40
16.0
 40
16.0
 40
16.0
 40
17.0
 40
17.0
 40
17.0
 40
18.0
 40
18.0
 40
18.0
 40
19.0
 40
19.0
 40
19.0
 40
20.0
 40
20.0
 40
20.0
 40
21.0
 40
21.0
 40
21.0
 40
22.0
 40
22.0
 40
22.0
 40
23.0
 40
23.0
 40
23.0
 40
24.0
 40
24.0
 40
24.0
 40
25.0
 40
25.0
 40
25.0
 40
26.0
 40
26.0
 40
26.0
 40
27.0
 40
27.0
 40
27.0
 40
28.0
 40
28.0
 40
28.0
 40
29.0
 40
29.0
 40
29.0
 40
30.0
 40
30.0
 40
30.0
 40
31.0
 40
31.0
 40
31.0
 40
32.0
 40
32.0
 40
32.0
 40
33.0
 40
33.0
 40
33.0
 40
34.0
 40
34.0
 40
34.0
 40
35.0
 40
35.0
 40
35.0
 40
36.0
 40
36.0
 40
36.0
 40
37.0
 40
37.0
 40
37.0
 40
38.0
 40
38.0
 40
38.0
 40
39.0
 40
39.0
 40
39.0
 40
40.0
 40
40.0
 40
40.0
 40
41.0
 40
41.0
 40
41.0
 40
42.0
 40
42.0
 40
42.0
 40
43.0
 40
43.0
 40
43.0
 40
44.0
 40
44.0
 40
44.0
 40
45.0
 40
45.0
 40
45.0
 40
46.0
 40
46.0
 40
46.0
 40
47.0
 40
47.0
 40
47.0
 40
48.0
 40
48.0
 40
48.0
 40
49.0
 40
49.0
 40
49.0
 40
50.0
 40
50.0
 40
50.0
 40
51.0
 40
51.0
 40
51.0
 40
52.0
 40
52.0
 40
52.0
 40
53.0
 40
53.0
 40
53.0
 40
54.0
 40
54.0
 40
54.0
 40
55.0
 40
55.0
 40
55.0
 40
56.0
 40
56.0
 40
56.0
 40
57.0
 40
57.0
 40
57.0
 40
58.0
 40
58.0
 40
58.0
 40
59.0
 40
59.0
 40
59.0
 40
60.0
 40
60.0
 40
60.0
 40
61.0
 40
61.0
 40
61.0
 40
62.0
 40
62.0
 40
62.0
 40
63.0
 40
63.0
 40
63.0
 40
64.0
 40
64.0
 40
64.0
 40
65.0
 40
65.0
 40
65.0
 40
66.0
 40
66.0
 40
66.0
 40
66.0
 10
23.4989736847524
 20
0.0675186074168374
 30
0.0
 10
23.4989736847524
 20
0.0675186074168374
 30
0.0
 10
23.50797976114141
 20
0.0299209511668374
 30
0.0
 10
23.50797976114141
 20
0.0299209511668374
 30
0.0
 10
23.51294395384962
 20
0.0104168279029485
 30
0.0
 10
23.51866769516906
 20
-0.0077038318192737
 30
0.0
 10
23.52824343301641
 20
-0.0255396608123293
 30
0.0
 10
23.5890073219053
 20
-0.1068520523053849
 30
0.0
 10
23.74411799898851
 20
-0.0975340184512182
 30
0.0
 10
23.82359933579406
 20
-0.0728893786942737
 30
0.0
 10
23.8676260285024
 20
-0.0592039403262182
 30
0.0
 10
23.90991661009962
 20
-0.0365938057776071
 30
0.0
 10
23.94957589829406
 20
-0.0130206720970515
 30
0.0
 10
24.05067724378018
 20
-0.0794811755692737
 30
0.0
 10
24.17836279065518
 20
-0.100043241541496
 30
0.0
 10
24.30629247815518
 20
-0.1005450861595515
 30
0.0
 10
24.43704334621086
 20
-0.1010333674095515
 30
0.0
 10
24.57053401461351
 20
-0.0804577380692737
 30
0.0
 10
24.68026166218295
 20
-0.0644800904998293
 30
0.0
 10
24.79696088093295
 20
-0.0569931113331626
 30
0.0
 10
24.89000558579406
 20
-0.0019665271317737
 30
0.0
 10
25.01278119343308
 20
-0.0283744047359404
 30
0.0
 10
25.0392568878774
 20
-0.0195310887637182
 30
0.0
 10
25.06011734794697
 20
-0.0060219741803849
 30
0.0
 10
25.05816422294684
 20
0.0268963200904485
 30
0.0
 10
25.04628271253018
 20
0.0560304346737818
 30
0.0
 10
25.02981678371073
 20
0.0763890501251707
 30
0.0
 10
24.99550146253018
 20
0.0791152871043374
 30
0.0
 10
24.93761300766906
 20
0.0542129433543374
 30
0.0
 10
24.8722647003774
 20
0.0615914155765596
 30
0.0
 10
24.81182633232184
 20
0.0467530909237818
 30
0.0
 10
24.65820762572462
 20
0.0109457992571151
 30
0.0
 10
24.49466053371073
 20
-0.0031058500484404
 30
0.0
 10
24.32083240871073
 20
-0.012518827478996
 30
0.0
 10
24.21305788614129
 20
-0.0116100818192737
 30
0.0
 10
24.07682741739129
 20
-0.0099417875484404
 30
0.0
 10
24.00168635836364
 20
0.0808920883196151
 30
0.0
 10
23.99338557711351
 20
0.1082629650557262
 30
0.0
 10
24.01584651461351
 20
0.1445992280765596
 30
0.0
 10
24.00689469169697
 20
0.1835125310279485
 30
0.0
 10
23.99287016912752
 20
0.2106663938751707
 30
0.0
 10
23.96989382364141
 20
0.2286378565487818
 30
0.0
 10
23.93650081148851
 20
0.2198216673126707
 30
0.0
 10
23.89071088093295
 20
0.1867406126251707
 30
0.0
 10
23.89133479586364
 20
0.1321480562015596
 30
0.0
 10
23.89543093301641
 20
0.0825196924862818
 30
0.0
 10
23.82951296426641
 20
-0.0026718222706626
 30
0.0
 10
23.67779312919684
 20
-0.0382349733123293
 30
0.0
 10
23.61282459621073
 20
0.0278186291182262
 30
0.0
 10
23.60943375419697
 20
0.0394966890140596
 30
0.0
 10
23.6029233375303
 20
0.0624187810279485
 30
0.0
 10
23.60954226114129
 20
0.079278047521004
 30
0.0
 10
23.61013904933573
 20
0.0813125527293374
 30
0.0
 10
23.61076296426629
 20
0.0835233817223929
 30
0.0
 10
23.61106135836351
 20
0.0860326048126707
 30
0.0
 10
23.6144522003774
 20
0.111626680333504
 30
0.0
 10
23.60604291218295
 20
0.1308052827640596
 30
0.0
 10
23.58263253891906
 20
0.1391196273821151
 30
0.0
 10
23.53811756496086
 20
0.1554634858890596
 30
0.0
 10
23.54074885836351
 20
0.1754423270348929
 30
0.0
 10
23.5092275910024
 20
0.2032607949168374
 30
0.0
 10
23.47681114134975
 20
0.2331137680071151
 30
0.0
 10
23.43905072468295
 20
0.2187365978682262
 30
0.0
 10
23.41653553371073
 20
0.1888293713057262
 30
0.0
 10
23.41100167954419
 20
0.1087512463057262
 30
0.0
 10
23.3544424347524
 20
0.0431181082848929
 30
0.0
 10
23.29224082884962
 20
0.0000001612362818
 30
0.0
 10
23.25250016044684
 20
-0.013739530603996
 30
0.0
 10
23.20269547294684
 20
-0.0091958023053849
 30
0.0
 10
23.17017051634962
 20
0.012871797521004
 30
0.0
 10
23.15937407537752
 20
0.0203316499515596
 30
0.0
 10
23.15557633232184
 20
0.0285781777293374
 30
0.0
 10
23.15535931843295
 20
0.0343968626251707
 30
0.0
 10
23.2072256378774
 20
0.0489910466529485
 30
0.0
 10
23.25372086357184
 20
0.0842558035973929
 30
0.0
 10
23.28027793822475
 20
0.1327041542918374
 30
0.0
 10
23.31171782537752
 20
0.2170683035973929
 30
0.0
 10
23.25073692259975
 20
0.3071155041182262
 30
0.0
 10
23.15701404933586
 20
0.2940404173126707
 30
0.0
 10
23.07058826808586
 20
0.2819418930071151
 30
0.0
 10
23.0279721656553
 20
0.2209338634932262
 30
0.0
 10
23.03206830280808
 20
0.1158041976946151
 30
0.0
 10
22.98454226114129
 20
0.1177844494307262
 30
0.0
 10
22.94195328544684
 20
0.133599336583504
 30
0.0
 10
22.89779095905795
 20
0.1513673487362818
 30
0.0
 10
22.85992203544684
 20
0.1666668279029485
 30
0.0
 10
22.85314035141906
 20
0.2022164155765596
 30
0.0
 10
22.79799169690518
 20
0.1919218192223929
 30
0.0
 10
22.75461604586364
 20
0.146050508458504
 30
0.0
 10
22.78502511704406
 20
0.1159127046390596
 30
0.0
 10
22.81345393648851
 20
0.0796849485626707
 30
0.0
 10
22.8419370094053
 20
0.0435521360626707
 30
0.0
 10
22.84063492607184
 20
-0.0106470826873293
 30
0.0
 10
22.79552316391906
 20
-0.0362547215762182
 30
0.0
 10
22.7308530250303
 20
-0.051581327478996
 30
0.0
 10
22.67676231322462
 20
0.0050321707848929
 30
0.0
 10
22.63742854586364
 20
0.0469972315487818
 30
0.0
 10
22.63794395384962
 20
0.0720216456112818
 30
0.0
 10
22.63867637572462
 20
0.1205920666182262
 30
0.0
 10
22.63224733926641
 20
0.1419950614098929
 30
0.0
 10
22.61944351982197
 20
0.1849502480418374
 30
0.0
 10
22.59169286878018
 20
0.2218290457848929
 30
0.0
 10
22.54074885836351
 20
0.2048070188751707
 30
0.0
 10
22.50892919690518
 20
0.1624893105418374
 30
0.0
 10
22.52110910141906
 20
0.1118030041182262
 30
0.0
 10
22.53855159273851
 20
0.0686308035973929
 30
0.0
 10
22.52431005628018
 20
0.0244142237362818
 30
0.0
 10
22.50325970905795
 20
-0.0187037233123293
 30
0.0
 10
22.46197281669684
 20
-0.0406221260901071
 30
0.0
 10
22.41398562051641
 20
-0.0520560453609404
 30
0.0
 10
22.33043527329419
 20
-0.0405814359859404
 30
0.0
 10
22.29587581148851
 20
0.0450847966529485
 30
0.0
 10
22.29785606322475
 20
0.0564644624515596
 30
0.0
 10
22.30311865003018
 20
0.0888402220001707
 30
0.0
 10
22.3031729035024
 20
0.1218398964793374
 30
0.0
 10
22.30322715697462
 20
0.1422120752987818
 30
0.0
 10
22.30132828544684
 20
0.1642525483890596
 30
0.0
 10
22.29476361530808
 20
0.1822240110626707
 30
0.0
 10
22.27327924030795
 20
0.2406143105418374
 30
0.0
 10
22.18571413614141
 20
0.2400039589793374
 30
0.0
 10
22.18576838961351
 20
0.139580781896004
 30
0.0
 10
22.18576838961351
 20
0.1155600570696151
 30
0.0
 10
22.18934911878018
 20
0.0914715154029485
 30
0.0
 10
22.19496435315518
 20
0.0681967758196151
 30
0.0
 10
22.16013362398851
 20
-0.0033499906734404
 30
0.0
 10
22.08843766044684
 20
-0.0177135974442737
 30
0.0
 10
22.03809043822475
 20
-0.0080836061248293
 30
0.0
 10
21.96417008232184
 20
0.0296361204376707
 30
0.0
 10
21.94029855454406
 20
0.1100533296390596
 30
0.0
 10
21.92985476114129
 20
0.1928441282501707
 30
0.0
 10
21.98275189655795
 20
0.2657607949168374
 30
0.0
 10
22.02734825072462
 20
0.329644258458504
 30
0.0
 10
22.07349082884962
 20
0.418389375646004
 30
0.0
 10
22.12644221773851
 20
0.5167644841529484
 30
0.0
 10
22.14695003023851
 20
0.5569934338057262
 30
0.0
 10
22.15107329412752
 20
0.6782635075904484
 30
0.0
 10
22.13843223509975
 20
0.8276775700904484
 30
0.0
 10
21.95464859794697
 20
0.7850072141876706
 30
0.0
 10
21.91545046426641
 20
0.7058242714793374
 30
0.0
 10
21.82183609794697
 20
0.5591635726946151
 30
0.0
 10
21.80569568996073
 20
0.3620607081112818
 30
0.0
 10
21.82218874551641
 20
0.195244844396004
 30
0.0
 10
21.80382394516919
 20
0.1607396360626707
 30
0.0
 10
21.77612754759975
 20
0.1342368148821151
 30
0.0
 10
21.74883805107197
 20
0.1069473183543374
 30
0.0
 10
21.72366443996073
 20
0.0852730562015596
 30
0.0
 10
21.70304812051629
 20
0.0794136812015596
 30
0.0
 10
21.68834542954406
 20
0.0457765284237818
 30
0.0
 10
21.69566964829419
 20
0.0321995970001707
 30
0.0
 10
21.69781266044684
 20
0.0300430214793374
 30
0.0
 10
21.71520089829406
 20
0.0195585379723929
 30
0.0
 10
21.7687490753774
 20
0.0031332992571151
 30
0.0
 10
21.80059586357184
 20
0.0357667627987818
 30
0.0
 10
21.83472129759962
 20
0.0684816065487818
 30
0.0
 10
21.83472129759962
 20
0.0684816065487818
 30
0.0
 10
21.84958674898864
 20
0.0823162419654485
 30
0.0
 10
21.84958674898864
 20
0.0823162419654485
 30
0.0
 10
21.88487863266906
 20
0.0084365761668374
 30
0.0
 10
21.93877945732184
 20
-0.0763480375484404
 30
0.0
 10
22.02563926634962
 20
-0.1005043960553849
 30
0.0
 10
22.07598648857197
 20
-0.108954374353996
 30
0.0
 10
22.13696739134962
 20
-0.1086288535206626
 30
0.0
 10
22.18256743475252
 20
-0.080145780603996
 30
0.0
 10
22.18256743475252
 20
-0.080145780603996
 30
0.0
 10
22.24973323336364
 20
-0.0370142701873293
 30
0.0
 10
22.24973323336364
 20
-0.0370142701873293
 30
0.0
 10
22.29858848509975
 20
-0.0946314576873293
 30
0.0
 10
22.3620107941274
 20
-0.140936796228996
 30
0.0
 10
22.44572390176629
 20
-0.1330564793887182
 30
0.0
 10
22.5009268097524
 20
-0.1306693266109404
 30
0.0
 10
22.54460085489141
 20
-0.0913491226178849
 30
0.0
 10
22.57986561183586
 20
-0.0531546781734404
 30
0.0
 10
22.57986561183586
 20
-0.0531546781734404
 30
0.0
 10
22.60012928371086
 20
-0.0305174168887182
 30
0.0
 10
22.60012928371086
 20
-0.0305174168887182
 30
0.0
 10
22.65446413614129
 20
-0.0876598865067737
 30
0.0
 10
22.71775081148851
 20
-0.1409232328609404
 30
0.0
 10
22.81245024725252
 20
-0.1233857979651071
 30
0.0
 10
22.87050146253018
 20
-0.1158852554303849
 30
0.0
 10
22.90139881496086
 20
-0.0838350167151071
 30
0.0
 10
22.92407676634962
 20
-0.0330402033470515
 30
0.0
 10
22.93476470037752
 20
-0.0081785497012182
 30
0.0
 10
22.93167225246086
 20
0.0189346230418374
 30
0.0
 10
22.92898670558573
 20
0.0448813461321151
 30
0.0
 10
22.96845610662752
 20
0.0347088200904485
 30
0.0
 10
23.00939035141919
 20
0.0262859685279485
 30
0.0
 10
23.05016183579406
 20
0.0247397445696151
 30
0.0
 10
23.06410497815518
 20
-0.0113116877220515
 30
0.0
 10
23.08876318128018
 20
-0.0531818049095515
 30
0.0
 10
23.12511300766919
 20
-0.0699325644581626
 30
0.0
 10
23.2038076691274
 20
-0.1061874472706626
 30
0.0
 10
23.20825645384962
 20
-0.1002195653262182
 30
0.0
 10
23.28225818996073
 20
-0.0962997519581626
 30
0.0
 10
23.37671348509962
 20
-0.0787623170623293
 30
0.0
 10
23.4989736847524
 20
0.0675186074168374
 30
0.0
 10
23.4989736847524
 20
0.0675186074168374
 30
0.0
 10
23.4989736847524
 20
0.0675186074168374
 30
0.0
 10
23.44610367607184
 20
-0.0049911582081626
 30
0.0
 10
23.4989736847524
 20
0.0675186074168374
 30
0.0
  0
SPLINE
  5
2C4
330
2BD
100
AcDbEntity
  8
Layer 1
370
     0
100
AcDbSpline
210
0.0
220
0.0
230
1.0
 70
    11
 71
     3
 72
    56
 73
    52
 74
     0
 42
0.0000000001
 43
0.0000000001
 12
1.0
 22
0.0
 32
0.0
 13
1.0
 23
0.0
 33
0.0
 40
0.0
 40
0.0
 40
0.0
 40
0.0
 40
1.0
 40
1.0
 40
1.0
 40
2.0
 40
2.0
 40
2.0
 40
3.0
 40
3.0
 40
3.0
 40
4.0
 40
4.0
 40
4.0
 40
5.0
 40
5.0
 40
5.0
 40
6.0
 40
6.0
 40
6.0
 40
7.0
 40
7.0
 40
7.0
 40
8.0
 40
8.0
 40
8.0
 40
9.0
 40
9.0
 40
9.0
 40
10.0
 40
10.0
 40
10.0
 40
11.0
 40
11.0
 40
11.0
 40
12.0
 40
12.0
 40
12.0
 40
13.0
 40
13.0
 40
13.0
 40
14.0
 40
14.0
 40
14.0
 40
15.0
 40
15.0
 40
15.0
 40
16.0
 40
16.0
 40
16.0
 40
17.0
 40
17.0
 40
17.0
 40
17.0
 10
21.19298410141919
 20
0.5937230345001706
 30
0.0
 10
21.19298410141919
 20
0.5937230345001706
 30
0.0
 10
21.17293744343308
 20
0.6122641586321151
 30
0.0
 10
21.17293744343308
 20
0.6122641586321151
 30
0.0
 10
21.17293744343308
 20
0.6122641586321151
 30
0.0
 10
21.19225167954419
 20
0.6215957558543374
 30
0.0
 10
21.19225167954419
 20
0.6215957558543374
 30
0.0
 10
21.2226064972524
 20
0.6313342541182262
 30
0.0
 10
21.25553835489141
 20
0.6337620970001706
 30
0.0
 10
21.27097346773864
 20
0.5985244667918374
 30
0.0
 10
21.27474408405808
 20
0.5676135509932262
 30
0.0
 10
21.26185888440518
 20
0.5489503565487818
 30
0.0
 10
21.23996760836351
 20
0.5296903739098929
 30
0.0
 10
21.19284846773851
 20
0.5254043496043374
 30
0.0
 10
21.16127294690518
 20
0.481988008458504
 30
0.0
 10
21.13213883232184
 20
0.4494494884932262
 30
0.0
 10
21.0985288062803
 20
0.3702258556807262
 30
0.0
 10
21.12619807711351
 20
0.2750381386668374
 30
0.0
 10
21.14266400593308
 20
0.195244844396004
 30
0.0
 10
21.14266400593308
 20
0.195244844396004
 30
0.0
 10
21.15272802503018
 20
0.1854520926598929
 30
0.0
 10
21.15272802503018
 20
0.1854520926598929
 30
0.0
 10
21.17087581148851
 20
0.1674806299862818
 30
0.0
 10
21.18563275593295
 20
0.1483562810279485
 30
0.0
 10
21.18433067259975
 20
0.1209175874515596
 30
0.0
 10
21.16705094169684
 20
0.0744630518612818
 30
0.0
 10
21.07484716565518
 20
0.0518664806807262
 30
0.0
 10
21.06502728718295
 20
0.126030977208504
 30
0.0
 10
21.04834434447462
 20
0.1554634858890596
 30
0.0
 10
21.0416440406553
 20
0.1768257905765596
 30
0.0
 10
21.03735801634962
 20
0.1986221230418374
 30
0.0
 10
21.03735801634962
 20
0.1986221230418374
 30
0.0
 10
21.03434694864141
 20
0.2158204737362818
 30
0.0
 10
21.03434694864141
 20
0.2158204737362818
 30
0.0
 10
21.02867746079419
 20
0.1728517237362818
 30
0.0
 10
21.03556765176629
 20
0.1228164589793374
 30
0.0
 10
21.04275623683586
 20
0.0805936942223929
 30
0.0
 10
21.0575674347524
 20
0.0246854910973929
 30
0.0
 10
21.0961416535024
 20
-0.018011991541496
 30
0.0
 10
21.15142594169697
 20
-0.0404593656734404
 30
0.0
 10
21.27813492607184
 20
-0.070502225916496
 30
0.0
 10
21.38265424030795
 20
0.0160591890140596
 30
0.0
 10
21.45494699204406
 20
0.1097142454376707
 30
0.0
 10
21.5687979035024
 20
0.2722983383196151
 30
0.0
 10
21.66989924898864
 20
0.4761421968265596
 30
0.0
 10
21.57791248683586
 20
0.6730958643612818
 30
0.0
 10
21.46813058579419
 20
0.8104656560279484
 30
0.0
 10
21.19298410141919
 20
0.5937230345001706
 30
0.0
 10
21.19298410141919
 20
0.5937230345001706
 30
0.0
 10
21.19298410141919
 20
0.5937230345001706
 30
0.0
 10
21.25277142780808
 20
0.7466635726946151
 30
0.0
 10
21.19298410141919
 20
0.5937230345001706
 30
0.0
  0
SPLINE
  5
2C5
330
2BD
100
AcDbEntity
  8
Layer 1
370
     0
100
AcDbSpline
210
0.0
220
0.0
230
1.0
 70
    11
 71
     3
 72
    26
 73
    22
 74
     0
 42
0.0000000001
 43
0.0000000001
 12
1.0
 22
0.0
 32
0.0
 13
1.0
 23
0.0
 33
0.0
 40
0.0
 40
0.0
 40
0.0
 40
0.0
 40
1.0
 40
1.0
 40
1.0
 40
2.0
 40
2.0
 40
2.0
 40
3.0
 40
3.0
 40
3.0
 40
4.0
 40
4.0
 40
4.0
 40
5.0
 40
5.0
 40
5.0
 40
6.0
 40
6.0
 40
6.0
 40
7.0
 40
7.0
 40
7.0
 40
7.0
 10
21.53391292086351
 20
0.0425213200904485
 30
0.0
 10
21.44474733926629
 20
-0.078558866541496
 30
0.0
 10
21.29948366739129
 20
-0.159247343103996
 30
0.0
 10
21.14402034273864
 20
-0.1373560670623293
 30
0.0
 10
21.03442832884962
 20
-0.1081676990067737
 30
0.0
 10
20.96349191391906
 20
-0.0016952597706626
 30
0.0
 10
20.94537125419684
 20
0.1030139416182262
 30
0.0
 10
20.9232900910024
 20
0.2398954520348929
 30
0.0
 10
20.9603994660024
 20
0.364556367833504
 30
0.0
 10
21.03269221773851
 20
0.4675972749515596
 30
0.0
 10
21.05436647989129
 20
0.6172690414446151
 30
0.0
 10
21.13949017780795
 20
0.7610000527293374
 30
0.0
 10
21.28803618475252
 20
0.8270672185279484
 30
0.0
 10
21.38064686183586
 20
0.8608535683543374
 30
0.0
 10
21.58800363266906
 20
0.8757325831112818
 30
0.0
 10
21.65826187919684
 20
0.7238635509932262
 30
0.0
 10
21.78581179239129
 20
0.4886340588057262
 30
0.0
 10
21.53391292086351
 20
0.0425213200904485
 30
0.0
 10
21.53391292086351
 20
0.0425213200904485
 30
0.0
 10
21.53391292086351
 20
0.0425213200904485
 30
0.0
 10
21.6579092316274
 20
0.2303604042918374
 30
0.0
 10
21.53391292086351
 20
0.0425213200904485
 30
0.0
  0
SPLINE
  5
2C6
330
2BD
100
AcDbEntity
  8
Layer 1
370
     0
100
AcDbSpline
210
0.0
220
0.0
230
1.0
 70
    11
 71
     3
 72
    20
 73
    16
 74
     0
 42
0.0000000001
 43
0.0000000001
 12
1.0
 22
0.0
 32
0.0
 13
1.0
 23
0.0
 33
0.0
 40
0.0
 40
0.0
 40
0.0
 40
0.0
 40
1.0
 40
1.0
 40
1.0
 40
2.0
 40
2.0
 40
2.0
 40
3.0
 40
3.0
 40
3.0
 40
4.0
 40
4.0
 40
4.0
 40
5.0
 40
5.0
 40
5.0
 40
5.0
 10
23.99780723509975
 20
0.3196887463057262
 30
0.0
 10
24.00382937051629
 20
0.3379992931807262
 30
0.0
 10
24.00187624551629
 20
0.3623726655765596
 30
0.0
 10
23.9909170441274
 20
0.3792319320696151
 30
0.0
 10
23.96720827676629
 20
0.4090713417918374
 30
0.0
 10
23.92152685315518
 20
0.4302708860626707
 30
0.0
 10
23.89317941391906
 20
0.391167695958504
 30
0.0
 10
23.87891075072462
 20
0.3562691499515596
 30
0.0
 10
23.88959868475252
 20
0.3215333643612818
 30
0.0
 10
23.9176206031553
 20
0.2975804563751707
 30
0.0
 10
23.94740575940518
 20
0.2904461247779485
 30
0.0
 10
23.99780723509975
 20
0.3196887463057262
 30
0.0
 10
23.99780723509975
 20
0.3196887463057262
 30
0.0
 10
23.99780723509975
 20
0.3196887463057262
 30
0.0
 10
23.98134130628018
 20
0.2833117931807262
 30
0.0
 10
23.99780723509975
 20
0.3196887463057262
 30
0.0
  0
SPLINE
  5
2C7
330
2BD
100
AcDbEntity
  8
Layer 1
370
     0
100
AcDbSpline
210
0.0
220
0.0
230
1.0
 70
    11
 71
     3
 72
    20
 73
    16
 74
     0
 42
0.0000000001
 43
0.0000000001
 12
1.0
 22
0.0
 32
0.0
 13
1.0
 23
0.0
 33
0.0
 40
0.0
 40
0.0
 40
0.0
 40
0.0
 40
1.0
 40
1.0
 40
1.0
 40
2.0
 40
2.0
 40
2.0
 40
3.0
 40
3.0
 40
3.0
 40
4.0
 40
4.0
 40
4.0
 40
5.0
 40
5.0
 40
5.0
 40
5.0
 10
22.28762928371073
 20
0.3755833860626707
 30
0.0
 10
22.27230267780808
 20
0.3536107298126707
 30
0.0
 10
22.23446088093308
 20
0.3535564763404485
 30
0.0
 10
22.21490250419684
 20
0.3615453001251707
 30
0.0
 10
22.18660931843308
 20
0.3730877263404485
 30
0.0
 10
22.15972672294697
 20
0.4104141152293374
 30
0.0
 10
22.18045154933586
 20
0.4465062376251707
 30
0.0
 10
22.20359065523851
 20
0.4867894407501707
 30
0.0
 10
22.25160497815518
 20
0.4757217324168374
 30
0.0
 10
22.27639881496073
 20
0.4555258773821151
 30
0.0
 10
22.2919424347524
 20
0.4428848183543374
 30
0.0
 10
22.28762928371073
 20
0.3755833860626707
 30
0.0
 10
22.28762928371073
 20
0.3755833860626707
 30
0.0
 10
22.28762928371073
 20
0.3755833860626707
 30
0.0
 10
22.30832698336351
 20
0.4051786551598929
 30
0.0
 10
22.28762928371073
 20
0.3755833860626707
 30
0.0
  0
HATCH
  5
2C8
330
2BD
100
AcDbEntity
  8
Layer 1
 62
   152
420
    26316
100
AcDbHatch
 10
0.0
 20
0.0
 30
0.0
210
0.0
220
0.0
230
1.0
  2
SOLID
 70
     1
 71
     0
 91
        7
 92
        1
 93
        1
 72
     4
 94
        3
 73
     0
 74
     1
 95
       17
 96
       13
 40
0.0
 40
0.0
 40
0.0
 40
0.0
 40
1.0
 40
1.0
 40
1.0
 40
2.0
 40
2.0
 40
2.0
 40
3.0
 40
3.0
 40
3.0
 40
4.0
 40
4.0
 40
4.0
 40
4.0
 10
22.04112863266919
 20
0.6517064329376706
 10
22.03263796426641
 20
0.5362550440487818
 10
21.9852475562803
 20
0.4598525917918374
 10
21.92874256496073
 20
0.3645021143612818
 10
21.92944786009962
 20
0.4842530909237818
 10
21.94572390176641
 20
0.5914036985626706
 10
22.01929161009962
 20
0.6690811074168374
 10
22.02873171426629
 20
0.6819527437015596
 10
22.04112863266919
 20
0.6517064329376706
 10
22.04112863266919
 20
0.6517064329376706
 10
22.04112863266919
 20
0.6517064329376706
 10
22.04351578544684
 20
0.6797147879723929
 10
22.04112863266919
 20
0.6517064329376706
 97
        0
 97
        0
 92
        1
 93
        1
 72
     4
 94
        3
 73
     0
 74
     1
 95
       17
 96
       13
 40
0.0
 40
0.0
 40
0.0
 40
0.0
 40
1.0
 40
1.0
 40
1.0
 40
2.0
 40
2.0
 40
2.0
 40
3.0
 40
3.0
 40
3.0
 40
4.0
 40
4.0
 40
4.0
 40
4.0
 10
23.19200753891906
 20
0.1692845579376707
 10
23.19162776461351
 20
0.1595867497779485
 10
23.16851578544697
 20
0.1340469277293374
 10
23.12693049898851
 20
0.1268447792918374
 10
23.11933501287752
 20
0.1757271577640596
 10
23.14293527329406
 20
0.204278047521004
 10
23.16604725246086
 20
0.204278047521004
 10
23.18517160141906
 20
0.204278047521004
 10
23.19200753891906
 20
0.1692845579376707
 10
23.19200753891906
 20
0.1692845579376707
 10
23.19200753891906
 20
0.1692845579376707
 10
23.19306548162752
 20
0.1971030258196151
 10
23.19200753891906
 20
0.1692845579376707
 97
        0
 97
        0
 92
        1
 93
        1
 72
     4
 94
        3
 73
     0
 74
     1
 95
      203
 96
      199
 40
0.0
 40
0.0
 40
0.0
 40
0.0
 40
1.0
 40
1.0
 40
1.0
 40
2.0
 40
2.0
 40
2.0
 40
3.0
 40
3.0
 40
3.0
 40
4.0
 40
4.0
 40
4.0
 40
5.0
 40
5.0
 40
5.0
 40
6.0
 40
6.0
 40
6.0
 40
7.0
 40
7.0
 40
7.0
 40
8.0
 40
8.0
 40
8.0
 40
9.0
 40
9.0
 40
9.0
 40
10.0
 40
10.0
 40
10.0
 40
11.0
 40
11.0
 40
11.0
 40
12.0
 40
12.0
 40
12.0
 40
13.0
 40
13.0
 40
13.0
 40
14.0
 40
14.0
 40
14.0
 40
15.0
 40
15.0
 40
15.0
 40
16.0
 40
16.0
 40
16.0
 40
17.0
 40
17.0
 40
17.0
 40
18.0
 40
18.0
 40
18.0
 40
19.0
 40
19.0
 40
19.0
 40
20.0
 40
20.0
 40
20.0
 40
21.0
 40
21.0
 40
21.0
 40
22.0
 40
22.0
 40
22.0
 40
23.0
 40
23.0
 40
23.0
 40
24.0
 40
24.0
 40
24.0
 40
25.0
 40
25.0
 40
25.0
 40
26.0
 40
26.0
 40
26.0
 40
27.0
 40
27.0
 40
27.0
 40
28.0
 40
28.0
 40
28.0
 40
29.0
 40
29.0
 40
29.0
 40
30.0
 40
30.0
 40
30.0
 40
31.0
 40
31.0
 40
31.0
 40
32.0
 40
32.0
 40
32.0
 40
33.0
 40
33.0
 40
33.0
 40
34.0
 40
34.0
 40
34.0
 40
35.0
 40
35.0
 40
35.0
 40
36.0
 40
36.0
 40
36.0
 40
37.0
 40
37.0
 40
37.0
 40
38.0
 40
38.0
 40
38.0
 40
39.0
 40
39.0
 40
39.0
 40
40.0
 40
40.0
 40
40.0
 40
41.0
 40
41.0
 40
41.0
 40
42.0
 40
42.0
 40
42.0
 40
43.0
 40
43.0
 40
43.0
 40
44.0
 40
44.0
 40
44.0
 40
45.0
 40
45.0
 40
45.0
 40
46.0
 40
46.0
 40
46.0
 40
47.0
 40
47.0
 40
47.0
 40
48.0
 40
48.0
 40
48.0
 40
49.0
 40
49.0
 40
49.0
 40
50.0
 40
50.0
 40
50.0
 40
51.0
 40
51.0
 40
51.0
 40
52.0
 40
52.0
 40
52.0
 40
53.0
 40
53.0
 40
53.0
 40
54.0
 40
54.0
 40
54.0
 40
55.0
 40
55.0
 40
55.0
 40
56.0
 40
56.0
 40
56.0
 40
57.0
 40
57.0
 40
57.0
 40
58.0
 40
58.0
 40
58.0
 40
59.0
 40
59.0
 40
59.0
 40
60.0
 40
60.0
 40
60.0
 40
61.0
 40
61.0
 40
61.0
 40
62.0
 40
62.0
 40
62.0
 40
63.0
 40
63.0
 40
63.0
 40
64.0
 40
64.0
 40
64.0
 40
65.0
 40
65.0
 40
65.0
 40
66.0
 40
66.0
 40
66.0
 40
66.0
 10
23.4989736847524
 20
0.0675186074168374
 10
23.4989736847524
 20
0.0675186074168374
 10
23.50797976114141
 20
0.0299209511668374
 10
23.50797976114141
 20
0.0299209511668374
 10
23.51294395384962
 20
0.0104168279029485
 10
23.51866769516906
 20
-0.0077038318192737
 10
23.52824343301641
 20
-0.0255396608123293
 10
23.5890073219053
 20
-0.1068520523053849
 10
23.74411799898851
 20
-0.0975340184512182
 10
23.82359933579406
 20
-0.0728893786942737
 10
23.8676260285024
 20
-0.0592039403262182
 10
23.90991661009962
 20
-0.0365938057776071
 10
23.94957589829406
 20
-0.0130206720970515
 10
24.05067724378018
 20
-0.0794811755692737
 10
24.17836279065518
 20
-0.100043241541496
 10
24.30629247815518
 20
-0.1005450861595515
 10
24.43704334621086
 20
-0.1010333674095515
 10
24.57053401461351
 20
-0.0804577380692737
 10
24.68026166218295
 20
-0.0644800904998293
 10
24.79696088093295
 20
-0.0569931113331626
 10
24.89000558579406
 20
-0.0019665271317737
 10
25.01278119343308
 20
-0.0283744047359404
 10
25.0392568878774
 20
-0.0195310887637182
 10
25.06011734794697
 20
-0.0060219741803849
 10
25.05816422294684
 20
0.0268963200904485
 10
25.04628271253018
 20
0.0560304346737818
 10
25.02981678371073
 20
0.0763890501251707
 10
24.99550146253018
 20
0.0791152871043374
 10
24.93761300766906
 20
0.0542129433543374
 10
24.8722647003774
 20
0.0615914155765596
 10
24.81182633232184
 20
0.0467530909237818
 10
24.65820762572462
 20
0.0109457992571151
 10
24.49466053371073
 20
-0.0031058500484404
 10
24.32083240871073
 20
-0.012518827478996
 10
24.21305788614129
 20
-0.0116100818192737
 10
24.07682741739129
 20
-0.0099417875484404
 10
24.00168635836364
 20
0.0808920883196151
 10
23.99338557711351
 20
0.1082629650557262
 10
24.01584651461351
 20
0.1445992280765596
 10
24.00689469169697
 20
0.1835125310279485
 10
23.99287016912752
 20
0.2106663938751707
 10
23.96989382364141
 20
0.2286378565487818
 10
23.93650081148851
 20
0.2198216673126707
 10
23.89071088093295
 20
0.1867406126251707
 10
23.89133479586364
 20
0.1321480562015596
 10
23.89543093301641
 20
0.0825196924862818
 10
23.82951296426641
 20
-0.0026718222706626
 10
23.67779312919684
 20
-0.0382349733123293
 10
23.61282459621073
 20
0.0278186291182262
 10
23.60943375419697
 20
0.0394966890140596
 10
23.6029233375303
 20
0.0624187810279485
 10
23.60954226114129
 20
0.079278047521004
 10
23.61013904933573
 20
0.0813125527293374
 10
23.61076296426629
 20
0.0835233817223929
 10
23.61106135836351
 20
0.0860326048126707
 10
23.6144522003774
 20
0.111626680333504
 10
23.60604291218295
 20
0.1308052827640596
 10
23.58263253891906
 20
0.1391196273821151
 10
23.53811756496086
 20
0.1554634858890596
 10
23.54074885836351
 20
0.1754423270348929
 10
23.5092275910024
 20
0.2032607949168374
 10
23.47681114134975
 20
0.2331137680071151
 10
23.43905072468295
 20
0.2187365978682262
 10
23.41653553371073
 20
0.1888293713057262
 10
23.41100167954419
 20
0.1087512463057262
 10
23.3544424347524
 20
0.0431181082848929
 10
23.29224082884962
 20
0.0000001612362818
 10
23.25250016044684
 20
-0.013739530603996
 10
23.20269547294684
 20
-0.0091958023053849
 10
23.17017051634962
 20
0.012871797521004
 10
23.15937407537752
 20
0.0203316499515596
 10
23.15557633232184
 20
0.0285781777293374
 10
23.15535931843295
 20
0.0343968626251707
 10
23.2072256378774
 20
0.0489910466529485
 10
23.25372086357184
 20
0.0842558035973929
 10
23.28027793822475
 20
0.1327041542918374
 10
23.31171782537752
 20
0.2170683035973929
 10
23.25073692259975
 20
0.3071155041182262
 10
23.15701404933586
 20
0.2940404173126707
 10
23.07058826808586
 20
0.2819418930071151
 10
23.0279721656553
 20
0.2209338634932262
 10
23.03206830280808
 20
0.1158041976946151
 10
22.98454226114129
 20
0.1177844494307262
 10
22.94195328544684
 20
0.133599336583504
 10
22.89779095905795
 20
0.1513673487362818
 10
22.85992203544684
 20
0.1666668279029485
 10
22.85314035141906
 20
0.2022164155765596
 10
22.79799169690518
 20
0.1919218192223929
 10
22.75461604586364
 20
0.146050508458504
 10
22.78502511704406
 20
0.1159127046390596
 10
22.81345393648851
 20
0.0796849485626707
 10
22.8419370094053
 20
0.0435521360626707
 10
22.84063492607184
 20
-0.0106470826873293
 10
22.79552316391906
 20
-0.0362547215762182
 10
22.7308530250303
 20
-0.051581327478996
 10
22.67676231322462
 20
0.0050321707848929
 10
22.63742854586364
 20
0.0469972315487818
 10
22.63794395384962
 20
0.0720216456112818
 10
22.63867637572462
 20
0.1205920666182262
 10
22.63224733926641
 20
0.1419950614098929
 10
22.61944351982197
 20
0.1849502480418374
 10
22.59169286878018
 20
0.2218290457848929
 10
22.54074885836351
 20
0.2048070188751707
 10
22.50892919690518
 20
0.1624893105418374
 10
22.52110910141906
 20
0.1118030041182262
 10
22.53855159273851
 20
0.0686308035973929
 10
22.52431005628018
 20
0.0244142237362818
 10
22.50325970905795
 20
-0.0187037233123293
 10
22.46197281669684
 20
-0.0406221260901071
 10
22.41398562051641
 20
-0.0520560453609404
 10
22.33043527329419
 20
-0.0405814359859404
 10
22.29587581148851
 20
0.0450847966529485
 10
22.29785606322475
 20
0.0564644624515596
 10
22.30311865003018
 20
0.0888402220001707
 10
22.3031729035024
 20
0.1218398964793374
 10
22.30322715697462
 20
0.1422120752987818
 10
22.30132828544684
 20
0.1642525483890596
 10
22.29476361530808
 20
0.1822240110626707
 10
22.27327924030795
 20
0.2406143105418374
 10
22.18571413614141
 20
0.2400039589793374
 10
22.18576838961351
 20
0.139580781896004
 10
22.18576838961351
 20
0.1155600570696151
 10
22.18934911878018
 20
0.0914715154029485
 10
22.19496435315518
 20
0.0681967758196151
 10
22.16013362398851
 20
-0.0033499906734404
 10
22.08843766044684
 20
-0.0177135974442737
 10
22.03809043822475
 20
-0.0080836061248293
 10
21.96417008232184
 20
0.0296361204376707
 10
21.94029855454406
 20
0.1100533296390596
 10
21.92985476114129
 20
0.1928441282501707
 10
21.98275189655795
 20
0.2657607949168374
 10
22.02734825072462
 20
0.329644258458504
 10
22.07349082884962
 20
0.418389375646004
 10
22.12644221773851
 20
0.5167644841529484
 10
22.14695003023851
 20
0.5569934338057262
 10
22.15107329412752
 20
0.6782635075904484
 10
22.13843223509975
 20
0.8276775700904484
 10
21.95464859794697
 20
0.7850072141876706
 10
21.91545046426641
 20
0.7058242714793374
 10
21.82183609794697
 20
0.5591635726946151
 10
21.80569568996073
 20
0.3620607081112818
 10
21.82218874551641
 20
0.195244844396004
 10
21.80382394516919
 20
0.1607396360626707
 10
21.77612754759975
 20
0.1342368148821151
 10
21.74883805107197
 20
0.1069473183543374
 10
21.72366443996073
 20
0.0852730562015596
 10
21.70304812051629
 20
0.0794136812015596
 10
21.68834542954406
 20
0.0457765284237818
 10
21.69566964829419
 20
0.0321995970001707
 10
21.69781266044684
 20
0.0300430214793374
 10
21.71520089829406
 20
0.0195585379723929
 10
21.7687490753774
 20
0.0031332992571151
 10
21.80059586357184
 20
0.0357667627987818
 10
21.83472129759962
 20
0.0684816065487818
 10
21.83472129759962
 20
0.0684816065487818
 10
21.84958674898864
 20
0.0823162419654485
 10
21.84958674898864
 20
0.0823162419654485
 10
21.88487863266906
 20
0.0084365761668374
 10
21.93877945732184
 20
-0.0763480375484404
 10
22.02563926634962
 20
-0.1005043960553849
 10
22.07598648857197
 20
-0.108954374353996
 10
22.13696739134962
 20
-0.1086288535206626
 10
22.18256743475252
 20
-0.080145780603996
 10
22.18256743475252
 20
-0.080145780603996
 10
22.24973323336364
 20
-0.0370142701873293
 10
22.24973323336364
 20
-0.0370142701873293
 10
22.29858848509975
 20
-0.0946314576873293
 10
22.3620107941274
 20
-0.140936796228996
 10
22.44572390176629
 20
-0.1330564793887182
 10
22.5009268097524
 20
-0.1306693266109404
 10
22.54460085489141
 20
-0.0913491226178849
 10
22.57986561183586
 20
-0.0531546781734404
 10
22.57986561183586
 20
-0.0531546781734404
 10
22.60012928371086
 20
-0.0305174168887182
 10
22.60012928371086
 20
-0.0305174168887182
 10
22.65446413614129
 20
-0.0876598865067737
 10
22.71775081148851
 20
-0.1409232328609404
 10
22.81245024725252
 20
-0.1233857979651071
 10
22.87050146253018
 20
-0.1158852554303849
 10
22.90139881496086
 20
-0.0838350167151071
 10
22.92407676634962
 20
-0.0330402033470515
 10
22.93476470037752
 20
-0.0081785497012182
 10
22.93167225246086
 20
0.0189346230418374
 10
22.92898670558573
 20
0.0448813461321151
 10
22.96845610662752
 20
0.0347088200904485
 10
23.00939035141919
 20
0.0262859685279485
 10
23.05016183579406
 20
0.0247397445696151
 10
23.06410497815518
 20
-0.0113116877220515
 10
23.08876318128018
 20
-0.0531818049095515
 10
23.12511300766919
 20
-0.0699325644581626
 10
23.2038076691274
 20
-0.1061874472706626
 10
23.20825645384962
 20
-0.1002195653262182
 10
23.28225818996073
 20
-0.0962997519581626
 10
23.37671348509962
 20
-0.0787623170623293
 10
23.4989736847524
 20
0.0675186074168374
 10
23.4989736847524
 20
0.0675186074168374
 10
23.4989736847524
 20
0.0675186074168374
 10
23.44610367607184
 20
-0.0049911582081626
 10
23.4989736847524
 20
0.0675186074168374
 97
        0
 97
        0
 92
        1
 93
        1
 72
     4
 94
        3
 73
     0
 74
     1
 95
       56
 96
       52
 40
0.0
 40
0.0
 40
0.0
 40
0.0
 40
1.0
 40
1.0
 40
1.0
 40
2.0
 40
2.0
 40
2.0
 40
3.0
 40
3.0
 40
3.0
 40
4.0
 40
4.0
 40
4.0
 40
5.0
 40
5.0
 40
5.0
 40
6.0
 40
6.0
 40
6.0
 40
7.0
 40
7.0
 40
7.0
 40
8.0
 40
8.0
 40
8.0
 40
9.0
 40
9.0
 40
9.0
 40
10.0
 40
10.0
 40
10.0
 40
11.0
 40
11.0
 40
11.0
 40
12.0
 40
12.0
 40
12.0
 40
13.0
 40
13.0
 40
13.0
 40
14.0
 40
14.0
 40
14.0
 40
15.0
 40
15.0
 40
15.0
 40
16.0
 40
16.0
 40
16.0
 40
17.0
 40
17.0
 40
17.0
 40
17.0
 10
21.19298410141919
 20
0.5937230345001706
 10
21.19298410141919
 20
0.5937230345001706
 10
21.17293744343308
 20
0.6122641586321151
 10
21.17293744343308
 20
0.6122641586321151
 10
21.17293744343308
 20
0.6122641586321151
 10
21.19225167954419
 20
0.6215957558543374
 10
21.19225167954419
 20
0.6215957558543374
 10
21.2226064972524
 20
0.6313342541182262
 10
21.25553835489141
 20
0.6337620970001706
 10
21.27097346773864
 20
0.5985244667918374
 10
21.27474408405808
 20
0.5676135509932262
 10
21.26185888440518
 20
0.5489503565487818
 10
21.23996760836351
 20
0.5296903739098929
 10
21.19284846773851
 20
0.5254043496043374
 10
21.16127294690518
 20
0.481988008458504
 10
21.13213883232184
 20
0.4494494884932262
 10
21.0985288062803
 20
0.3702258556807262
 10
21.12619807711351
 20
0.2750381386668374
 10
21.14266400593308
 20
0.195244844396004
 10
21.14266400593308
 20
0.195244844396004
 10
21.15272802503018
 20
0.1854520926598929
 10
21.15272802503018
 20
0.1854520926598929
 10
21.17087581148851
 20
0.1674806299862818
 10
21.18563275593295
 20
0.1483562810279485
 10
21.18433067259975
 20
0.1209175874515596
 10
21.16705094169684
 20
0.0744630518612818
 10
21.07484716565518
 20
0.0518664806807262
 10
21.06502728718295
 20
0.126030977208504
 10
21.04834434447462
 20
0.1554634858890596
 10
21.0416440406553
 20
0.1768257905765596
 10
21.03735801634962
 20
0.1986221230418374
 10
21.03735801634962
 20
0.1986221230418374
 10
21.03434694864141
 20
0.2158204737362818
 10
21.03434694864141
 20
0.2158204737362818
 10
21.02867746079419
 20
0.1728517237362818
 10
21.03556765176629
 20
0.1228164589793374
 10
21.04275623683586
 20
0.0805936942223929
 10
21.0575674347524
 20
0.0246854910973929
 10
21.0961416535024
 20
-0.018011991541496
 10
21.15142594169697
 20
-0.0404593656734404
 10
21.27813492607184
 20
-0.070502225916496
 10
21.38265424030795
 20
0.0160591890140596
 10
21.45494699204406
 20
0.1097142454376707
 10
21.5687979035024
 20
0.2722983383196151
 10
21.66989924898864
 20
0.4761421968265596
 10
21.57791248683586
 20
0.6730958643612818
 10
21.46813058579419
 20
0.8104656560279484
 10
21.19298410141919
 20
0.5937230345001706
 10
21.19298410141919
 20
0.5937230345001706
 10
21.19298410141919
 20
0.5937230345001706
 10
21.25277142780808
 20
0.7466635726946151
 10
21.19298410141919
 20
0.5937230345001706
 97
        0
 97
        0
 92
        1
 93
        1
 72
     4
 94
        3
 73
     0
 74
     1
 95
       26
 96
       22
 40
0.0
 40
0.0
 40
0.0
 40
0.0
 40
1.0
 40
1.0
 40
1.0
 40
2.0
 40
2.0
 40
2.0
 40
3.0
 40
3.0
 40
3.0
 40
4.0
 40
4.0
 40
4.0
 40
5.0
 40
5.0
 40
5.0
 40
6.0
 40
6.0
 40
6.0
 40
7.0
 40
7.0
 40
7.0
 40
7.0
 10
21.53391292086351
 20
0.0425213200904485
 10
21.44474733926629
 20
-0.078558866541496
 10
21.29948366739129
 20
-0.159247343103996
 10
21.14402034273864
 20
-0.1373560670623293
 10
21.03442832884962
 20
-0.1081676990067737
 10
20.96349191391906
 20
-0.0016952597706626
 10
20.94537125419684
 20
0.1030139416182262
 10
20.9232900910024
 20
0.2398954520348929
 10
20.9603994660024
 20
0.364556367833504
 10
21.03269221773851
 20
0.4675972749515596
 10
21.05436647989129
 20
0.6172690414446151
 10
21.13949017780795
 20
0.7610000527293374
 10
21.28803618475252
 20
0.8270672185279484
 10
21.38064686183586
 20
0.8608535683543374
 10
21.58800363266906
 20
0.8757325831112818
 10
21.65826187919684
 20
0.7238635509932262
 10
21.78581179239129
 20
0.4886340588057262
 10
21.53391292086351
 20
0.0425213200904485
 10
21.53391292086351
 20
0.0425213200904485
 10
21.53391292086351
 20
0.0425213200904485
 10
21.6579092316274
 20
0.2303604042918374
 10
21.53391292086351
 20
0.0425213200904485
 97
        0
 97
        0
 92
        1
 93
        1
 72
     4
 94
        3
 73
     0
 74
     1
 95
       20
 96
       16
 40
0.0
 40
0.0
 40
0.0
 40
0.0
 40
1.0
 40
1.0
 40
1.0
 40
2.0
 40
2.0
 40
2.0
 40
3.0
 40
3.0
 40
3.0
 40
4.0
 40
4.0
 40
4.0
 40
5.0
 40
5.0
 40
5.0
 40
5.0
 10
23.99780723509975
 20
0.3196887463057262
 10
24.00382937051629
 20
0.3379992931807262
 10
24.00187624551629
 20
0.3623726655765596
 10
23.9909170441274
 20
0.3792319320696151
 10
23.96720827676629
 20
0.4090713417918374
 10
23.92152685315518
 20
0.4302708860626707
 10
23.89317941391906
 20
0.391167695958504
 10
23.87891075072462
 20
0.3562691499515596
 10
23.88959868475252
 20
0.3215333643612818
 10
23.9176206031553
 20
0.2975804563751707
 10
23.94740575940518
 20
0.2904461247779485
 10
23.99780723509975
 20
0.3196887463057262
 10
23.99780723509975
 20
0.3196887463057262
 10
23.99780723509975
 20
0.3196887463057262
 10
23.98134130628018
 20
0.2833117931807262
 10
23.99780723509975
 20
0.3196887463057262
 97
        0
 97
        0
 92
        1
 93
        1
 72
     4
 94
        3
 73
     0
 74
     1
 95
       20
 96
       16
 40
0.0
 40
0.0
 40
0.0
 40
0.0
 40
1.0
 40
1.0
 40
1.0
 40
2.0
 40
2.0
 40
2.0
 40
3.0
 40
3.0
 40
3.0
 40
4.0
 40
4.0
 40
4.0
 40
5.0
 40
5.0
 40
5.0
 40
5.0
 10
22.28762928371073
 20
0.3755833860626707
 10
22.27230267780808
 20
0.3536107298126707
 10
22.23446088093308
 20
0.3535564763404485
 10
22.21490250419684
 20
0.3615453001251707
 10
22.18660931843308
 20
0.3730877263404485
 10
22.15972672294697
 20
0.4104141152293374
 10
22.18045154933586
 20
0.4465062376251707
 10
22.20359065523851
 20
0.4867894407501707
 10
22.25160497815518
 20
0.4757217324168374
 10
22.27639881496073
 20
0.4555258773821151
 10
22.2919424347524
 20
0.4428848183543374
 10
22.28762928371073
 20
0.3755833860626707
 10
22.28762928371073
 20
0.3755833860626707
 10
22.28762928371073
 20
0.3755833860626707
 10
22.30832698336351
 20
0.4051786551598929
 10
22.28762928371073
 20
0.3755833860626707
 97
        0
 97
        0
 75
     2
 76
     1
 98
        0
  0
ENDBLK
  5
2C0
330
2BD
100
AcDbEntity
  8
0
100
AcDbBlockEnd
  0
BLOCK
  5
2CB
330
2C9
100
AcDbEntity
  8
0
100
AcDbBlockBegin
  2
block 39
 70
     0
 10
0.0
 20
0.0
 30
0.0
  3
block 39
  1

  0
SPLINE
  5
2CD
330
2C9
100
AcDbEntity
  8
Layer 1
370
     0
100
AcDbSpline
210
0.0
220
0.0
230
1.0
 70
    11
 71
     3
 72
    20
 73
    16
 74
     0
 42
0.0000000001
 43
0.0000000001
 12
1.0
 22
0.0
 32
0.0
 13
1.0
 23
0.0
 33
0.0
 40
0.0
 40
0.0
 40
0.0
 40
0.0
 40
1.0
 40
1.0
 40
1.0
 40
2.0
 40
2.0
 40
2.0
 40
3.0
 40
3.0
 40
3.0
 40
4.0
 40
4.0
 40
4.0
 40
5.0
 40
5.0
 40
5.0
 40
5.0
 10
24.95703575072462
 20
0.2002768539446151
 30
0.0
 10
24.95703575072462
 20
0.2002768539446151
 30
0.0
 10
24.96867312051629
 20
0.2002768539446151
 30
0.0
 10
24.96867312051629
 20
0.2002768539446151
 30
0.0
 10
24.97491226982184
 20
0.2002768539446151
 30
0.0
 10
24.98104291218295
 20
0.1983237289446151
 30
0.0
 10
24.98104291218295
 20
0.1915013548126707
 30
0.0
 10
24.98104291218295
 20
0.1836617280765596
 30
0.0
 10
24.97618722641906
 20
0.1821019407501707
 30
0.0
 10
24.96867312051629
 20
0.1821019407501707
 30
0.0
 10
24.96867312051629
 20
0.1821019407501707
 30
0.0
 10
24.95703575072462
 20
0.1821019407501707
 30
0.0
 10
24.95703575072462
 20
0.1821019407501707
 30
0.0
 10
24.95703575072462
 20
0.1821019407501707
 30
0.0
 10
24.95703575072462
 20
0.2002768539446151
 30
0.0
 10
24.95703575072462
 20
0.2002768539446151
 30
0.0
  0
ENDBLK
  5
2CC
330
2C9
100
AcDbEntity
  8
0
100
AcDbBlockEnd
  0
BLOCK
  5
2D0
330
2CE
100
AcDbEntity
  8
0
100
AcDbBlockBegin
  2
block 40
 70
     0
 10
0.0
 20
0.0
 30
0.0
  3
block 40
  1

  0
SPLINE
  5
2D2
330
2CE
100
AcDbEntity
  8
Layer 1
370
     0
100
AcDbSpline
210
0.0
220
0.0
230
1.0
 70
    11
 71
     3
 72
    35
 73
    31
 74
     0
 42
0.0000000001
 43
0.0000000001
 12
1.0
 22
0.0
 32
0.0
 13
1.0
 23
0.0
 33
0.0
 40
0.0
 40
0.0
 40
0.0
 40
0.0
 40
1.0
 40
1.0
 40
1.0
 40
2.0
 40
2.0
 40
2.0
 40
3.0
 40
3.0
 40
3.0
 40
4.0
 40
4.0
 40
4.0
 40
5.0
 40
5.0
 40
5.0
 40
6.0
 40
6.0
 40
6.0
 40
7.0
 40
7.0
 40
7.0
 40
8.0
 40
8.0
 40
8.0
 40
9.0
 40
9.0
 40
9.0
 40
10.0
 40
10.0
 40
10.0
 40
10.0
 10
24.94718874551629
 20
0.1478544364098929
 30
0.0
 10
24.94718874551629
 20
0.1478544364098929
 30
0.0
 10
24.95703575072462
 20
0.1478544364098929
 30
0.0
 10
24.95703575072462
 20
0.1478544364098929
 30
0.0
 10
24.95703575072462
 20
0.1478544364098929
 30
0.0
 10
24.95703575072462
 20
0.1744250744307262
 30
0.0
 10
24.95703575072462
 20
0.1744250744307262
 30
0.0
 10
24.95703575072462
 20
0.1744250744307262
 30
0.0
 10
24.96522802503018
 20
0.1744250744307262
 30
0.0
 10
24.96522802503018
 20
0.1744250744307262
 30
0.0
 10
24.96522802503018
 20
0.1744250744307262
 30
0.0
 10
24.98201947468295
 20
0.1478544364098929
 30
0.0
 10
24.98201947468295
 20
0.1478544364098929
 30
0.0
 10
24.98201947468295
 20
0.1478544364098929
 30
0.0
 10
24.99240901461351
 20
0.1478544364098929
 30
0.0
 10
24.99240901461351
 20
0.1478544364098929
 30
0.0
 10
24.99240901461351
 20
0.1478544364098929
 30
0.0
 10
24.97534629759962
 20
0.1744250744307262
 30
0.0
 10
24.97534629759962
 20
0.1744250744307262
 30
0.0
 10
24.98473214829406
 20
0.1744250744307262
 30
0.0
 10
24.99086279065518
 20
0.1814102089793374
 30
0.0
 10
24.99086279065518
 20
0.1910537636668374
 30
0.0
 10
24.99086279065518
 20
0.2024063027293374
 30
0.0
 10
24.98399972641906
 20
0.2079537202640596
 30
0.0
 10
24.97021934447462
 20
0.2079537202640596
 30
0.0
 10
24.97021934447462
 20
0.2079537202640596
 30
0.0
 10
24.94718874551629
 20
0.2079537202640596
 30
0.0
 10
24.94718874551629
 20
0.2079537202640596
 30
0.0
 10
24.94718874551629
 20
0.2079537202640596
 30
0.0
 10
24.94718874551629
 20
0.1478544364098929
 30
0.0
 10
24.94718874551629
 20
0.1478544364098929
 30
0.0
  0
ENDBLK
  5
2D1
330
2CE
100
AcDbEntity
  8
0
100
AcDbBlockEnd
  0
BLOCK
  5
2D5
330
2D3
100
AcDbEntity
  8
0
100
AcDbBlockBegin
  2
block 41
 70
     0
 10
0.0
 20
0.0
 30
0.0
  3
block 41
  1

  0
SPLINE
  5
2D7
330
2D3
100
AcDbEntity
  8
Layer 1
370
     0
100
AcDbSpline
210
0.0
220
0.0
230
1.0
 70
    11
 71
     3
 72
    17
 73
    13
 74
     0
 42
0.0000000001
 43
0.0000000001
 12
1.0
 22
0.0
 32
0.0
 13
1.0
 23
0.0
 33
0.0
 40
0.0
 40
0.0
 40
0.0
 40
0.0
 40
1.0
 40
1.0
 40
1.0
 40
2.0
 40
2.0
 40
2.0
 40
3.0
 40
3.0
 40
3.0
 40
4.0
 40
4.0
 40
4.0
 40
4.0
 10
24.92532459621073
 20
0.1778430431807262
 30
0.0
 10
24.92532459621073
 20
0.2024063027293374
 30
0.0
 10
24.94311973509962
 20
0.2214763982154485
 30
0.0
 10
24.96696413614129
 20
0.2214763982154485
 30
0.0
 10
24.99053726982184
 20
0.2214763982154485
 30
0.0
 10
25.00827815523851
 20
0.2024063027293374
 30
0.0
 10
25.00827815523851
 20
0.1778430431807262
 30
0.0
 10
25.00827815523851
 20
0.1532797836321151
 30
0.0
 10
24.99053726982184
 20
0.1342368148821151
 30
0.0
 10
24.96696413614129
 20
0.1342368148821151
 30
0.0
 10
24.94311973509962
 20
0.1342368148821151
 30
0.0
 10
24.92532459621073
 20
0.1532797836321151
 30
0.0
 10
24.92532459621073
 20
0.1778430431807262
 30
0.0
  0
ENDBLK
  5
2D6
330
2D3
100
AcDbEntity
  8
0
100
AcDbBlockEnd
  0
BLOCK
  5
2DA
330
2D8
100
AcDbEntity
  8
0
100
AcDbBlockBegin
  2
block 42
 70
     0
 10
0.0
 20
0.0
 30
0.0
  3
block 42
  1

  0
SPLINE
  5
2DC
330
2D8
100
AcDbEntity
  8
Layer 1
370
     0
100
AcDbSpline
210
0.0
220
0.0
230
1.0
 70
    11
 71
     3
 72
    17
 73
    13
 74
     0
 42
0.0000000001
 43
0.0000000001
 12
1.0
 22
0.0
 32
0.0
 13
1.0
 23
0.0
 33
0.0
 40
0.0
 40
0.0
 40
0.0
 40
0.0
 40
1.0
 40
1.0
 40
1.0
 40
2.0
 40
2.0
 40
2.0
 40
3.0
 40
3.0
 40
3.0
 40
4.0
 40
4.0
 40
4.0
 40
4.0
 10
24.91553184447462
 20
0.1778430431807262
 30
0.0
 10
24.91553184447462
 20
0.149590547521004
 30
0.0
 10
24.93853531669684
 20
0.1265328218265596
 30
0.0
 10
24.96682850246073
 20
0.1265328218265596
 30
0.0
 10
24.99509456148851
 20
0.1265328218265596
 30
0.0
 10
25.01809803371073
 20
0.149590547521004
 30
0.0
 10
25.01809803371073
 20
0.1778430431807262
 30
0.0
 10
25.01809803371073
 20
0.2061226655765596
 30
0.0
 10
24.99509456148851
 20
0.2291532645348929
 30
0.0
 10
24.96682850246073
 20
0.2291532645348929
 30
0.0
 10
24.93853531669684
 20
0.2291532645348929
 30
0.0
 10
24.91553184447462
 20
0.2061226655765596
 30
0.0
 10
24.91553184447462
 20
0.1778430431807262
 30
0.0
  0
ENDBLK
  5
2DB
330
2D8
100
AcDbEntity
  8
0
100
AcDbBlockEnd
  0
BLOCK
  5
2DF
330
2DD
100
AcDbEntity
  8
0
100
AcDbBlockBegin
  2
block 43
 70
     0
 10
0.0
 20
0.0
 30
0.0
  3
block 43
  1

  0
SPLINE
  5
2E1
330
2DD
100
AcDbEntity
  8
Layer 1
370
     0
100
AcDbSpline
210
0.0
220
0.0
230
1.0
 70
    11
 71
     3
 72
    20
 73
    16
 74
     0
 42
0.0000000001
 43
0.0000000001
 12
1.0
 22
0.0
 32
0.0
 13
1.0
 23
0.0
 33
0.0
 40
0.0
 40
0.0
 40
0.0
 40
0.0
 40
1.0
 40
1.0
 40
1.0
 40
2.0
 40
2.0
 40
2.0
 40
3.0
 40
3.0
 40
3.0
 40
4.0
 40
4.0
 40
4.0
 40
5.0
 40
5.0
 40
5.0
 40
5.0
 10
24.95703575072462
 20
0.2002768539446151
 30
0.0
 10
24.95703575072462
 20
0.2002768539446151
 30
0.0
 10
24.96867312051629
 20
0.2002768539446151
 30
0.0
 10
24.96867312051629
 20
0.2002768539446151
 30
0.0
 10
24.97491226982184
 20
0.2002768539446151
 30
0.0
 10
24.98104291218295
 20
0.1983237289446151
 30
0.0
 10
24.98104291218295
 20
0.1915013548126707
 30
0.0
 10
24.98104291218295
 20
0.1836617280765596
 30
0.0
 10
24.97618722641906
 20
0.1821019407501707
 30
0.0
 10
24.96867312051629
 20
0.1821019407501707
 30
0.0
 10
24.96867312051629
 20
0.1821019407501707
 30
0.0
 10
24.95703575072462
 20
0.1821019407501707
 30
0.0
 10
24.95703575072462
 20
0.1821019407501707
 30
0.0
 10
24.95703575072462
 20
0.1821019407501707
 30
0.0
 10
24.95703575072462
 20
0.2002768539446151
 30
0.0
 10
24.95703575072462
 20
0.2002768539446151
 30
0.0
  0
SPLINE
  5
2E2
330
2DD
100
AcDbEntity
  8
Layer 1
370
     0
100
AcDbSpline
210
0.0
220
0.0
230
1.0
 70
    11
 71
     3
 72
    35
 73
    31
 74
     0
 42
0.0000000001
 43
0.0000000001
 12
1.0
 22
0.0
 32
0.0
 13
1.0
 23
0.0
 33
0.0
 40
0.0
 40
0.0
 40
0.0
 40
0.0
 40
1.0
 40
1.0
 40
1.0
 40
2.0
 40
2.0
 40
2.0
 40
3.0
 40
3.0
 40
3.0
 40
4.0
 40
4.0
 40
4.0
 40
5.0
 40
5.0
 40
5.0
 40
6.0
 40
6.0
 40
6.0
 40
7.0
 40
7.0
 40
7.0
 40
8.0
 40
8.0
 40
8.0
 40
9.0
 40
9.0
 40
9.0
 40
10.0
 40
10.0
 40
10.0
 40
10.0
 10
24.94718874551629
 20
0.1478544364098929
 30
0.0
 10
24.94718874551629
 20
0.1478544364098929
 30
0.0
 10
24.95703575072462
 20
0.1478544364098929
 30
0.0
 10
24.95703575072462
 20
0.1478544364098929
 30
0.0
 10
24.95703575072462
 20
0.1478544364098929
 30
0.0
 10
24.95703575072462
 20
0.1744250744307262
 30
0.0
 10
24.95703575072462
 20
0.1744250744307262
 30
0.0
 10
24.95703575072462
 20
0.1744250744307262
 30
0.0
 10
24.9652280250303
 20
0.1744250744307262
 30
0.0
 10
24.9652280250303
 20
0.1744250744307262
 30
0.0
 10
24.9652280250303
 20
0.1744250744307262
 30
0.0
 10
24.98201947468295
 20
0.1478544364098929
 30
0.0
 10
24.98201947468295
 20
0.1478544364098929
 30
0.0
 10
24.98201947468295
 20
0.1478544364098929
 30
0.0
 10
24.99240901461351
 20
0.1478544364098929
 30
0.0
 10
24.99240901461351
 20
0.1478544364098929
 30
0.0
 10
24.99240901461351
 20
0.1478544364098929
 30
0.0
 10
24.97534629759962
 20
0.1744250744307262
 30
0.0
 10
24.97534629759962
 20
0.1744250744307262
 30
0.0
 10
24.98473214829406
 20
0.1744250744307262
 30
0.0
 10
24.99086279065518
 20
0.1814102089793374
 30
0.0
 10
24.99086279065518
 20
0.1910537636668374
 30
0.0
 10
24.99086279065518
 20
0.2024063027293374
 30
0.0
 10
24.98399972641906
 20
0.2079537202640596
 30
0.0
 10
24.97021934447475
 20
0.2079537202640596
 30
0.0
 10
24.97021934447475
 20
0.2079537202640596
 30
0.0
 10
24.94718874551629
 20
0.2079537202640596
 30
0.0
 10
24.94718874551629
 20
0.2079537202640596
 30
0.0
 10
24.94718874551629
 20
0.2079537202640596
 30
0.0
 10
24.94718874551629
 20
0.1478544364098929
 30
0.0
 10
24.94718874551629
 20
0.1478544364098929
 30
0.0
  0
SPLINE
  5
2E3
330
2DD
100
AcDbEntity
  8
Layer 1
370
     0
100
AcDbSpline
210
0.0
220
0.0
230
1.0
 70
    11
 71
     3
 72
    20
 73
    16
 74
     0
 42
0.0000000001
 43
0.0000000001
 12
1.0
 22
0.0
 32
0.0
 13
1.0
 23
0.0
 33
0.0
 40
0.0
 40
0.0
 40
0.0
 40
0.0
 40
1.0
 40
1.0
 40
1.0
 40
2.0
 40
2.0
 40
2.0
 40
3.0
 40
3.0
 40
3.0
 40
4.0
 40
4.0
 40
4.0
 40
5.0
 40
5.0
 40
5.0
 40
5.0
 10
24.92532459621073
 20
0.1778430431807262
 30
0.0
 10
24.92532459621073
 20
0.2024063027293374
 30
0.0
 10
24.94311973509962
 20
0.2214763982154485
 30
0.0
 10
24.96696413614141
 20
0.2214763982154485
 30
0.0
 10
24.99053726982184
 20
0.2214763982154485
 30
0.0
 10
25.00827815523851
 20
0.2024063027293374
 30
0.0
 10
25.00827815523851
 20
0.1778430431807262
 30
0.0
 10
25.00827815523851
 20
0.1532797836321151
 30
0.0
 10
24.99053726982184
 20
0.1342368148821151
 30
0.0
 10
24.96696413614141
 20
0.1342368148821151
 30
0.0
 10
24.94311973509962
 20
0.1342368148821151
 30
0.0
 10
24.92532459621073
 20
0.1778430431807262
 30
0.0
 10
24.92532459621073
 20
0.1778430431807262
 30
0.0
 10
24.92532459621073
 20
0.1778430431807262
 30
0.0
 10
24.92532459621073
 20
0.1532797836321151
 30
0.0
 10
24.92532459621073
 20
0.1778430431807262
 30
0.0
  0
SPLINE
  5
2E4
330
2DD
100
AcDbEntity
  8
Layer 1
370
     0
100
AcDbSpline
210
0.0
220
0.0
230
1.0
 70
    11
 71
     3
 72
    20
 73
    16
 74
     0
 42
0.0000000001
 43
0.0000000001
 12
1.0
 22
0.0
 32
0.0
 13
1.0
 23
0.0
 33
0.0
 40
0.0
 40
0.0
 40
0.0
 40
0.0
 40
1.0
 40
1.0
 40
1.0
 40
2.0
 40
2.0
 40
2.0
 40
3.0
 40
3.0
 40
3.0
 40
4.0
 40
4.0
 40
4.0
 40
5.0
 40
5.0
 40
5.0
 40
5.0
 10
24.91553184447475
 20
0.1778430431807262
 30
0.0
 10
24.91553184447475
 20
0.149590547521004
 30
0.0
 10
24.93853531669684
 20
0.1265328218265596
 30
0.0
 10
24.96682850246073
 20
0.1265328218265596
 30
0.0
 10
24.99509456148864
 20
0.1265328218265596
 30
0.0
 10
25.01809803371073
 20
0.149590547521004
 30
0.0
 10
25.01809803371073
 20
0.1778430431807262
 30
0.0
 10
25.01809803371073
 20
0.2061226655765596
 30
0.0
 10
24.99509456148864
 20
0.2291532645348929
 30
0.0
 10
24.96682850246073
 20
0.2291532645348929
 30
0.0
 10
24.93853531669684
 20
0.2291532645348929
 30
0.0
 10
24.91553184447475
 20
0.1778430431807262
 30
0.0
 10
24.91553184447475
 20
0.1778430431807262
 30
0.0
 10
24.91553184447475
 20
0.1778430431807262
 30
0.0
 10
24.91553184447475
 20
0.2061226655765596
 30
0.0
 10
24.91553184447475
 20
0.1778430431807262
 30
0.0
  0
HATCH
  5
2E5
330
2DD
100
AcDbEntity
  8
Layer 1
 62
   152
420
    26316
100
AcDbHatch
 10
0.0
 20
0.0
 30
0.0
210
0.0
220
0.0
230
1.0
  2
SOLID
 70
     1
 71
     0
 91
        4
 92
        1
 93
        1
 72
     4
 94
        3
 73
     0
 74
     1
 95
       20
 96
       16
 40
0.0
 40
0.0
 40
0.0
 40
0.0
 40
1.0
 40
1.0
 40
1.0
 40
2.0
 40
2.0
 40
2.0
 40
3.0
 40
3.0
 40
3.0
 40
4.0
 40
4.0
 40
4.0
 40
5.0
 40
5.0
 40
5.0
 40
5.0
 10
24.95703575072462
 20
0.2002768539446151
 10
24.95703575072462
 20
0.2002768539446151
 10
24.96867312051629
 20
0.2002768539446151
 10
24.96867312051629
 20
0.2002768539446151
 10
24.97491226982184
 20
0.2002768539446151
 10
24.98104291218295
 20
0.1983237289446151
 10
24.98104291218295
 20
0.1915013548126707
 10
24.98104291218295
 20
0.1836617280765596
 10
24.97618722641906
 20
0.1821019407501707
 10
24.96867312051629
 20
0.1821019407501707
 10
24.96867312051629
 20
0.1821019407501707
 10
24.95703575072462
 20
0.1821019407501707
 10
24.95703575072462
 20
0.1821019407501707
 10
24.95703575072462
 20
0.1821019407501707
 10
24.95703575072462
 20
0.2002768539446151
 10
24.95703575072462
 20
0.2002768539446151
 97
        0
 97
        0
 92
        1
 93
        1
 72
     4
 94
        3
 73
     0
 74
     1
 95
       35
 96
       31
 40
0.0
 40
0.0
 40
0.0
 40
0.0
 40
1.0
 40
1.0
 40
1.0
 40
2.0
 40
2.0
 40
2.0
 40
3.0
 40
3.0
 40
3.0
 40
4.0
 40
4.0
 40
4.0
 40
5.0
 40
5.0
 40
5.0
 40
6.0
 40
6.0
 40
6.0
 40
7.0
 40
7.0
 40
7.0
 40
8.0
 40
8.0
 40
8.0
 40
9.0
 40
9.0
 40
9.0
 40
10.0
 40
10.0
 40
10.0
 40
10.0
 10
24.94718874551629
 20
0.1478544364098929
 10
24.94718874551629
 20
0.1478544364098929
 10
24.95703575072462
 20
0.1478544364098929
 10
24.95703575072462
 20
0.1478544364098929
 10
24.95703575072462
 20
0.1478544364098929
 10
24.95703575072462
 20
0.1744250744307262
 10
24.95703575072462
 20
0.1744250744307262
 10
24.95703575072462
 20
0.1744250744307262
 10
24.9652280250303
 20
0.1744250744307262
 10
24.9652280250303
 20
0.1744250744307262
 10
24.9652280250303
 20
0.1744250744307262
 10
24.98201947468295
 20
0.1478544364098929
 10
24.98201947468295
 20
0.1478544364098929
 10
24.98201947468295
 20
0.1478544364098929
 10
24.99240901461351
 20
0.1478544364098929
 10
24.99240901461351
 20
0.1478544364098929
 10
24.99240901461351
 20
0.1478544364098929
 10
24.97534629759962
 20
0.1744250744307262
 10
24.97534629759962
 20
0.1744250744307262
 10
24.98473214829406
 20
0.1744250744307262
 10
24.99086279065518
 20
0.1814102089793374
 10
24.99086279065518
 20
0.1910537636668374
 10
24.99086279065518
 20
0.2024063027293374
 10
24.98399972641906
 20
0.2079537202640596
 10
24.97021934447475
 20
0.2079537202640596
 10
24.97021934447475
 20
0.2079537202640596
 10
24.94718874551629
 20
0.2079537202640596
 10
24.94718874551629
 20
0.2079537202640596
 10
24.94718874551629
 20
0.2079537202640596
 10
24.94718874551629
 20
0.1478544364098929
 10
24.94718874551629
 20
0.1478544364098929
 97
        0
 97
        0
 92
        1
 93
        1
 72
     4
 94
        3
 73
     0
 74
     1
 95
       20
 96
       16
 40
0.0
 40
0.0
 40
0.0
 40
0.0
 40
1.0
 40
1.0
 40
1.0
 40
2.0
 40
2.0
 40
2.0
 40
3.0
 40
3.0
 40
3.0
 40
4.0
 40
4.0
 40
4.0
 40
5.0
 40
5.0
 40
5.0
 40
5.0
 10
24.92532459621073
 20
0.1778430431807262
 10
24.92532459621073
 20
0.2024063027293374
 10
24.94311973509962
 20
0.2214763982154485
 10
24.96696413614141
 20
0.2214763982154485
 10
24.99053726982184
 20
0.2214763982154485
 10
25.00827815523851
 20
0.2024063027293374
 10
25.00827815523851
 20
0.1778430431807262
 10
25.00827815523851
 20
0.1532797836321151
 10
24.99053726982184
 20
0.1342368148821151
 10
24.96696413614141
 20
0.1342368148821151
 10
24.94311973509962
 20
0.1342368148821151
 10
24.92532459621073
 20
0.1778430431807262
 10
24.92532459621073
 20
0.1778430431807262
 10
24.92532459621073
 20
0.1778430431807262
 10
24.92532459621073
 20
0.1532797836321151
 10
24.92532459621073
 20
0.1778430431807262
 97
        0
 97
        0
 92
        1
 93
        1
 72
     4
 94
        3
 73
     0
 74
     1
 95
       20
 96
       16
 40
0.0
 40
0.0
 40
0.0
 40
0.0
 40
1.0
 40
1.0
 40
1.0
 40
2.0
 40
2.0
 40
2.0
 40
3.0
 40
3.0
 40
3.0
 40
4.0
 40
4.0
 40
4.0
 40
5.0
 40
5.0
 40
5.0
 40
5.0
 10
24.91553184447475
 20
0.1778430431807262
 10
24.91553184447475
 20
0.149590547521004
 10
24.93853531669684
 20
0.1265328218265596
 10
24.96682850246073
 20
0.1265328218265596
 10
24.99509456148864
 20
0.1265328218265596
 10
25.01809803371073
 20
0.149590547521004
 10
25.01809803371073
 20
0.1778430431807262
 10
25.01809803371073
 20
0.2061226655765596
 10
24.99509456148864
 20
0.2291532645348929
 10
24.96682850246073
 20
0.2291532645348929
 10
24.93853531669684
 20
0.2291532645348929
 10
24.91553184447475
 20
0.1778430431807262
 10
24.91553184447475
 20
0.1778430431807262
 10
24.91553184447475
 20
0.1778430431807262
 10
24.91553184447475
 20
0.2061226655765596
 10
24.91553184447475
 20
0.1778430431807262
 97
        0
 97
        0
 75
     2
 76
     1
 98
        0
  0
ENDBLK
  5
2E0
330
2DD
100
AcDbEntity
  8
0
100
AcDbBlockEnd
  0
ENDSEC
  0
SECTION
  2
ENTITIES
  0
POLYLINE
  5
41
330
1F
100
AcDbEntity
  8
Layer 1
 62
     7
420
 16777215
370
    35
100
AcDb2dPolyline
 66
     1
 10
0.0
 20
0.0
 30
0.0
  0
VERTEX
  5
42
330
41
100
AcDbEntity
  8
Layer 1
 62
     7
420
 16777215
370
    35
100
AcDbVertex
100
AcDb2dVertex
 10
-11.30136509641779
 20
19.30274831481458
 30
0.0
  0
VERTEX
  5
43
330
41
100
AcDbEntity
  8
Layer 1
 62
     7
420
 16777215
370
    35
100
AcDbVertex
100
AcDb2dVertex
 10
-11.30136509553477
 20
38.97182033452737
 30
0.0
  0
SEQEND
  5
44
330
41
100
AcDbEntity
  8
Layer 1
 62
     7
420
 16777215
370
    35
  0
POLYLINE
  5
45
330
1F
100
AcDbEntity
  8
Layer 1
 62
     7
420
 16777215
370
    35
100
AcDb2dPolyline
 66
     1
 10
0.0
 20
0.0
 30
0.0
  0
VERTEX
  5
46
330
45
100
AcDbEntity
  8
Layer 1
 62
     7
420
 16777215
370
    35
100
AcDbVertex
100
AcDb2dVertex
 10
-10.12632538983005
 20
20.86094756467813
 30
0.0
  0
VERTEX
  5
47
330
45
100
AcDbEntity
  8
Layer 1
 62
     7
420
 16777215
370
    35
100
AcDbVertex
100
AcDb2dVertex
 10
-10.12632538916714
 20
35.62552643341488
 30
0.0
  0
SEQEND
  5
48
330
45
100
AcDbEntity
  8
Layer 1
 62
     7
420
 16777215
370
    35
  0
POLYLINE
  5
49
330
1F
100
AcDbEntity
  8
Layer 1
 62
     7
420
 16777215
370
    35
100
AcDb2dPolyline
 66
     1
 10
0.0
 20
0.0
 30
0.0
  0
VERTEX
  5
4A
330
49
100
AcDbEntity
  8
Layer 1
 62
     7
420
 16777215
370
    35
100
AcDbVertex
100
AcDb2dVertex
 10
-11.09700640972483
 20
39.17617577219944
 30
0.0
  0
VERTEX
  5
4B
330
49
100
AcDbEntity
  8
Layer 1
 62
     7
420
 16777215
370
    35
100
AcDbVertex
100
AcDb2dVertex
 10
-11.25027217595822
 20
39.12508610075611
 30
0.0
  0
VERTEX
  5
4C
330
49
100
AcDbEntity
  8
Layer 1
 62
     7
420
 16777215
370
    35
100
AcDbVertex
100
AcDb2dVertex
 10
-11.30136509553477
 20
38.97182033452737
 30
0.0
  0
SEQEND
  5
4D
330
49
100
AcDbEntity
  8
Layer 1
 62
     7
420
 16777215
370
    35
  0
POLYLINE
  5
4E
330
1F
100
AcDbEntity
  8
Layer 1
 62
     7
420
 16777215
370
    35
100
AcDb2dPolyline
 66
     1
 10
0.0
 20
0.0
 30
0.0
  0
VERTEX
  5
4F
330
4E
100
AcDbEntity
  8
Layer 1
 62
     7
420
 16777215
370
    35
100
AcDbVertex
100
AcDb2dVertex
 10
-11.30136509641779
 20
19.30274831481458
 30
0.0
  0
VERTEX
  5
50
330
4E
100
AcDbEntity
  8
Layer 1
 62
     7
420
 16777215
370
    35
100
AcDbVertex
100
AcDb2dVertex
 10
-11.25027217685499
 20
19.14948254858119
 30
0.0
  0
VERTEX
  5
51
330
4E
100
AcDbEntity
  8
Layer 1
 62
     7
420
 16777215
370
    35
100
AcDbVertex
100
AcDb2dVertex
 10
-11.09700641062624
 20
19.09839450118377
 30
0.0
  0
SEQEND
  5
52
330
4E
100
AcDbEntity
  8
Layer 1
 62
     7
420
 16777215
370
    35
  0
POLYLINE
  5
53
330
1F
100
AcDbEntity
  8
Layer 1
 62
     7
420
 16777215
370
    35
100
AcDb2dPolyline
 66
     1
 10
0.0
 20
0.0
 30
0.0
  0
VERTEX
  5
54
330
53
100
AcDbEntity
  8
Layer 1
 62
     7
420
 16777215
370
    35
100
AcDbVertex
100
AcDb2dVertex
 10
-9.513262324216434
 20
36.21304303852674
 30
0.0
  0
VERTEX
  5
55
330
53
100
AcDbEntity
  8
Layer 1
 62
     7
420
 16777215
370
    35
100
AcDbVertex
100
AcDb2dVertex
 10
-9.743164221684852
 20
36.16195336708692
 30
0.0
  0
VERTEX
  5
56
330
53
100
AcDbEntity
  8
Layer 1
 62
     7
420
 16777215
370
    35
100
AcDbVertex
100
AcDb2dVertex
 10
-9.947516411252334
 20
36.03423406064987
 30
0.0
  0
VERTEX
  5
57
330
53
100
AcDbEntity
  8
Layer 1
 62
     7
420
 16777215
370
    35
100
AcDbVertex
100
AcDb2dVertex
 10
-10.07523896582609
 20
35.85542183463968
 30
0.0
  0
VERTEX
  5
58
330
53
100
AcDbEntity
  8
Layer 1
 62
     7
420
 16777215
370
    35
100
AcDbVertex
100
AcDb2dVertex
 10
-10.12632538916714
 20
35.62552643341488
 30
0.0
  0
SEQEND
  5
59
330
53
100
AcDbEntity
  8
Layer 1
 62
     7
420
 16777215
370
    35
  0
POLYLINE
  5
5A
330
1F
100
AcDbEntity
  8
Layer 1
 62
     7
420
 16777215
370
    35
100
AcDb2dPolyline
 66
     1
 10
0.0
 20
0.0
 30
0.0
  0
VERTEX
  5
5B
330
5A
100
AcDbEntity
  8
Layer 1
 62
     7
420
 16777215
370
    35
100
AcDbVertex
100
AcDb2dVertex
 10
19.99034570548585
 20
39.17617577080366
 30
0.0
  0
VERTEX
  5
5C
330
5A
100
AcDbEntity
  8
Layer 1
 62
     7
420
 16777215
370
    35
100
AcDbVertex
100
AcDb2dVertex
 10
-11.09700640972483
 20
39.17617577219944
 30
0.0
  0
SEQEND
  5
5D
330
5A
100
AcDbEntity
  8
Layer 1
 62
     7
420
 16777215
370
    35
  0
POLYLINE
  5
5E
330
1F
100
AcDbEntity
  8
Layer 1
 62
     7
420
 16777215
370
    35
100
AcDb2dPolyline
 66
     1
 10
0.0
 20
0.0
 30
0.0
  0
VERTEX
  5
5F
330
5E
100
AcDbEntity
  8
Layer 1
 62
     7
420
 16777215
370
    35
100
AcDbVertex
100
AcDb2dVertex
 10
19.99034570458444
 20
19.0983944997881
 30
0.0
  0
VERTEX
  5
60
330
5E
100
AcDbEntity
  8
Layer 1
 62
     7
420
 16777215
370
    35
100
AcDbVertex
100
AcDb2dVertex
 10
-11.09700641062624
 20
19.09839450118377
 30
0.0
  0
SEQEND
  5
61
330
5E
100
AcDbEntity
  8
Layer 1
 62
     7
420
 16777215
370
    35
  0
POLYLINE
  5
62
330
1F
100
AcDbEntity
  8
Layer 1
 62
     7
420
 16777215
370
    35
100
AcDb2dPolyline
 66
     1
 10
0.0
 20
0.0
 30
0.0
  0
VERTEX
  5
63
330
62
100
AcDbEntity
  8
Layer 1
 62
     7
420
 16777215
370
    35
100
AcDbVertex
100
AcDb2dVertex
 10
20.19469789503831
 20
38.9718203331133
 30
0.0
  0
VERTEX
  5
64
330
62
100
AcDbEntity
  8
Layer 1
 62
     7
420
 16777215
370
    35
100
AcDbVertex
100
AcDb2dVertex
 10
20.1436114717146
 20
39.12508609934669
 30
0.0
  0
VERTEX
  5
65
330
62
100
AcDbEntity
  8
Layer 1
 62
     7
420
 16777215
370
    35
100
AcDbVertex
100
AcDb2dVertex
 10
19.99034570548585
 20
39.17617577080366
 30
0.0
  0
SEQEND
  5
66
330
62
100
AcDbEntity
  8
Layer 1
 62
     7
420
 16777215
370
    35
  0
POLYLINE
  5
67
330
1F
100
AcDbEntity
  8
Layer 1
 62
     7
420
 16777215
370
    35
100
AcDb2dPolyline
 66
     1
 10
0.0
 20
0.0
 30
0.0
  0
VERTEX
  5
68
330
67
100
AcDbEntity
  8
Layer 1
 62
     7
420
 16777215
370
    35
100
AcDbVertex
100
AcDb2dVertex
 10
19.99034570458444
 20
19.0983944997881
 30
0.0
  0
VERTEX
  5
69
330
67
100
AcDbEntity
  8
Layer 1
 62
     7
420
 16777215
370
    35
100
AcDbVertex
100
AcDb2dVertex
 10
20.14361147081763
 20
19.14948254717176
 30
0.0
  0
VERTEX
  5
6A
330
67
100
AcDbEntity
  8
Layer 1
 62
     7
420
 16777215
370
    35
100
AcDbVertex
100
AcDb2dVertex
 10
20.1946978941553
 20
19.30274831340052
 30
0.0
  0
SEQEND
  5
6B
330
67
100
AcDbEntity
  8
Layer 1
 62
     7
420
 16777215
370
    35
  0
POLYLINE
  5
6C
330
1F
100
AcDbEntity
  8
Layer 1
 62
     7
420
 16777215
370
    35
100
AcDb2dPolyline
 66
     1
 10
0.0
 20
0.0
 30
0.0
  0
VERTEX
  5
6D
330
6C
100
AcDbEntity
  8
Layer 1
 62
     7
420
 16777215
370
    35
100
AcDbVertex
100
AcDb2dVertex
 10
-10.12632538983005
 20
20.86094756467813
 30
0.0
  0
VERTEX
  5
6E
330
6C
100
AcDbEntity
  8
Layer 1
 62
     7
420
 16777215
370
    35
100
AcDbVertex
100
AcDb2dVertex
 10
-10.0752389665096
 20
20.63104891532921
 30
0.0
  0
VERTEX
  5
6F
330
6C
100
AcDbEntity
  8
Layer 1
 62
     7
420
 16777215
370
    35
100
AcDbVertex
100
AcDb2dVertex
 10
-9.947516411951911
 20
20.45223993742708
 30
0.0
  0
VERTEX
  5
70
330
6C
100
AcDbEntity
  8
Layer 1
 62
     7
420
 16777215
370
    35
100
AcDbVertex
100
AcDb2dVertex
 10
-9.743164222395864
 20
20.32451900691192
 30
0.0
  0
VERTEX
  5
71
330
6C
100
AcDbEntity
  8
Layer 1
 62
     7
420
 16777215
370
    35
100
AcDbVertex
100
AcDb2dVertex
 10
-9.51326232493208
 20
20.27342933545136
 30
0.0
  0
SEQEND
  5
72
330
6C
100
AcDbEntity
  8
Layer 1
 62
     7
420
 16777215
370
    35
  0
POLYLINE
  5
73
330
1F
100
AcDbEntity
  8
Layer 1
 62
     7
420
 16777215
370
    35
100
AcDb2dPolyline
 66
     1
 10
0.0
 20
0.0
 30
0.0
  0
VERTEX
  5
74
330
73
100
AcDbEntity
  8
Layer 1
 62
     7
420
 16777215
370
    35
100
AcDbVertex
100
AcDb2dVertex
 10
6.298628824081131
 20
31.48735724067754
 30
0.0
  0
VERTEX
  5
75
330
73
100
AcDbEntity
  8
Layer 1
 62
     7
420
 16777215
370
    35
100
AcDbVertex
100
AcDb2dVertex
 10
6.27307911619616
 20
31.92160807958698
 30
0.0
  0
VERTEX
  5
76
330
73
100
AcDbEntity
  8
Layer 1
 62
     7
420
 16777215
370
    35
100
AcDbVertex
100
AcDb2dVertex
 10
6.119819846221313
 20
32.30477249517162
 30
0.0
  0
VERTEX
  5
77
330
73
100
AcDbEntity
  8
Layer 1
 62
     7
420
 16777215
370
    35
100
AcDbVertex
100
AcDb2dVertex
 10
5.915461160436633
 20
32.66239045097356
 30
0.0
  0
VERTEX
  5
78
330
73
100
AcDbEntity
  8
Layer 1
 62
     7
420
 16777215
370
    35
100
AcDbVertex
100
AcDb2dVertex
 10
5.608929627987082
 20
32.9433787717842
 30
0.0
  0
VERTEX
  5
79
330
73
100
AcDbEntity
  8
Layer 1
 62
     7
420
 16777215
370
    35
100
AcDbVertex
100
AcDb2dVertex
 10
5.251311672204489
 20
33.17327742114677
 30
0.0
  0
VERTEX
  5
7A
330
73
100
AcDbEntity
  8
Layer 1
 62
     7
420
 16777215
370
    35
100
AcDbVertex
100
AcDb2dVertex
 10
4.868150504752117
 20
33.30099672761023
 30
0.0
  0
VERTEX
  5
7B
330
73
100
AcDbEntity
  8
Layer 1
 62
     7
420
 16777215
370
    35
100
AcDbVertex
100
AcDb2dVertex
 10
4.459439629391934
 20
33.35208639907882
 30
0.0
  0
VERTEX
  5
7C
330
73
100
AcDbEntity
  8
Layer 1
 62
     7
420
 16777215
370
    35
100
AcDbVertex
100
AcDb2dVertex
 10
4.025185542361744
 20
33.30099672764808
 30
0.0
  0
VERTEX
  5
7D
330
73
100
AcDbEntity
  8
Layer 1
 62
     7
420
 16777215
370
    35
100
AcDbVertex
100
AcDb2dVertex
 10
3.64202437489775
 20
33.17327742121908
 30
0.0
  0
VERTEX
  5
7E
330
73
100
AcDbEntity
  8
Layer 1
 62
     7
420
 16777215
370
    35
100
AcDbVertex
100
AcDb2dVertex
 10
3.284406419094656
 20
32.94337877188855
 30
0.0
  0
VERTEX
  5
7F
330
73
100
AcDbEntity
  8
Layer 1
 62
     7
420
 16777215
370
    35
100
AcDbVertex
100
AcDb2dVertex
 10
3.003418098285275
 20
32.66239045110434
 30
0.0
  0
VERTEX
  5
80
330
73
100
AcDbEntity
  8
Layer 1
 62
     7
420
 16777215
370
    35
100
AcDbVertex
100
AcDb2dVertex
 10
2.77352269704209
 20
32.30477249532186
 30
0.0
  0
VERTEX
  5
81
330
73
100
AcDbEntity
  8
Layer 1
 62
     7
420
 16777215
370
    35
100
AcDbVertex
100
AcDb2dVertex
 10
2.64580014245914
 20
31.92160807974989
 30
0.0
  0
VERTEX
  5
82
330
73
100
AcDbEntity
  8
Layer 1
 62
     7
420
 16777215
370
    35
100
AcDbVertex
100
AcDb2dVertex
 10
2.594707222870106
 20
31.48735724084385
 30
0.0
  0
VERTEX
  5
83
330
73
100
AcDbEntity
  8
Layer 1
 62
     7
420
 16777215
370
    35
100
AcDbVertex
100
AcDb2dVertex
 10
2.645800142421396
 20
31.0786496135985
 30
0.0
  0
VERTEX
  5
84
330
73
100
AcDbEntity
  8
Layer 1
 62
     7
420
 16777215
370
    35
100
AcDbVertex
100
AcDb2dVertex
 10
2.773522696969874
 20
30.69548519801511
 30
0.0
  0
VERTEX
  5
85
330
73
100
AcDbEntity
  8
Layer 1
 62
     7
420
 16777215
370
    35
100
AcDbVertex
100
AcDb2dVertex
 10
3.003418098180923
 20
30.33786399409243
 30
0.0
  0
VERTEX
  5
86
330
73
100
AcDbEntity
  8
Layer 1
 62
     7
420
 16777215
370
    35
100
AcDbVertex
100
AcDb2dVertex
 10
3.284406418963979
 20
30.0313324616177
 30
0.0
  0
VERTEX
  5
87
330
73
100
AcDbEntity
  8
Layer 1
 62
     7
420
 16777215
370
    35
100
AcDbVertex
100
AcDb2dVertex
 10
3.642024374747507
 20
29.82698027203987
 30
0.0
  0
VERTEX
  5
88
330
73
100
AcDbEntity
  8
Layer 1
 62
     7
420
 16777215
370
    35
100
AcDbVertex
100
AcDb2dVertex
 10
4.02518554219892
 20
29.67371450579157
 30
0.0
  0
VERTEX
  5
89
330
73
100
AcDbEntity
  8
Layer 1
 62
     7
420
 16777215
370
    35
100
AcDbVertex
100
AcDb2dVertex
 10
4.459439629225622
 20
29.64817129410676
 30
0.0
  0
VERTEX
  5
8A
330
73
100
AcDbEntity
  8
Layer 1
 62
     7
420
 16777215
370
    35
100
AcDbVertex
100
AcDb2dVertex
 10
4.868150504589291
 20
29.67371450575373
 30
0.0
  0
VERTEX
  5
8B
330
73
100
AcDbEntity
  8
Layer 1
 62
     7
420
 16777215
370
    35
100
AcDbVertex
100
AcDb2dVertex
 10
5.251311672054271
 20
29.82698027196756
 30
0.0
  0
VERTEX
  5
8C
330
73
100
AcDbEntity
  8
Layer 1
 62
     7
420
 16777215
370
    35
100
AcDbVertex
100
AcDb2dVertex
 10
5.608929627856392
 20
30.03133246151335
 30
0.0
  0
VERTEX
  5
8D
330
73
100
AcDbEntity
  8
Layer 1
 62
     7
420
 16777215
370
    35
100
AcDbVertex
100
AcDb2dVertex
 10
5.915461160332294
 20
30.33786399396164
 30
0.0
  0
VERTEX
  5
8E
330
73
100
AcDbEntity
  8
Layer 1
 62
     7
420
 16777215
370
    35
100
AcDbVertex
100
AcDb2dVertex
 10
6.11981984614911
 20
30.69548519786488
 30
0.0
  0
VERTEX
  5
8F
330
73
100
AcDbEntity
  8
Layer 1
 62
     7
420
 16777215
370
    35
100
AcDbVertex
100
AcDb2dVertex
 10
6.273079116158416
 20
31.07864961343558
 30
0.0
  0
VERTEX
  5
90
330
73
100
AcDbEntity
  8
Layer 1
 62
     7
420
 16777215
370
    35
100
AcDbVertex
100
AcDb2dVertex
 10
6.298628824081131
 20
31.48735724067754
 30
0.0
  0
SEQEND
  5
91
330
73
100
AcDbEntity
  8
Layer 1
 62
     7
420
 16777215
370
    35
  0
POLYLINE
  5
92
330
1F
100
AcDbEntity
  8
Layer 1
 62
     7
420
 16777215
370
    35
100
AcDb2dPolyline
 66
     1
 10
0.0
 20
0.0
 30
0.0
  0
VERTEX
  5
93
330
92
100
AcDbEntity
  8
Layer 1
 62
     7
420
 16777215
370
    35
100
AcDbVertex
100
AcDb2dVertex
 10
6.681789991539315
 20
31.48735724066031
 30
0.0
  0
VERTEX
  5
94
330
92
100
AcDbEntity
  8
Layer 1
 62
     7
420
 16777215
370
    35
100
AcDbVertex
100
AcDb2dVertex
 10
6.630703568228
 20
31.92160807957101
 30
0.0
  0
VERTEX
  5
95
330
92
100
AcDbEntity
  8
Layer 1
 62
     7
420
 16777215
370
    35
100
AcDbVertex
100
AcDb2dVertex
 10
6.502981013681821
 20
32.35586216660459
 30
0.0
  0
VERTEX
  5
96
330
92
100
AcDbEntity
  8
Layer 1
 62
     7
420
 16777215
370
    35
100
AcDbVertex
100
AcDb2dVertex
 10
6.298628824137268
 20
32.73902333407197
 30
0.0
  0
VERTEX
  5
97
330
92
100
AcDbEntity
  8
Layer 1
 62
     7
420
 16777215
370
    35
100
AcDbVertex
100
AcDb2dVertex
 10
6.017640503355399
 20
33.07110132633152
 30
0.0
  0
VERTEX
  5
98
330
92
100
AcDbEntity
  8
Layer 1
 62
     7
420
 16777215
370
    35
100
AcDbVertex
100
AcDb2dVertex
 10
5.68556575924049
 20
33.35208639902373
 30
0.0
  0
VERTEX
  5
99
330
92
100
AcDbEntity
  8
Layer 1
 62
     7
420
 16777215
370
    35
100
AcDbVertex
100
AcDb2dVertex
 10
5.302398095552436
 20
33.55644183672221
 30
0.0
  0
VERTEX
  5
9A
330
92
100
AcDbEntity
  8
Layer 1
 62
     7
420
 16777215
370
    35
100
AcDbVertex
100
AcDb2dVertex
 10
4.893693716434705
 20
33.68416114318676
 30
0.0
  0
VERTEX
  5
9B
330
92
100
AcDbEntity
  8
Layer 1
 62
     7
420
 16777215
370
    35
100
AcDbVertex
100
AcDb2dVertex
 10
4.459439629408002
 20
33.70970760299114
 30
0.0
  0
VERTEX
  5
9C
330
92
100
AcDbEntity
  8
Layer 1
 62
     7
420
 16777215
370
    35
100
AcDbVertex
100
AcDb2dVertex
 10
4.025185542378974
 20
33.68416114322577
 30
0.0
  0
VERTEX
  5
9D
330
92
100
AcDbEntity
  8
Layer 1
 62
     7
420
 16777215
370
    35
100
AcDbVertex
100
AcDb2dVertex
 10
3.590937951584288
 20
33.55644183679899
 30
0.0
  0
VERTEX
  5
9E
330
92
100
AcDbEntity
  8
Layer 1
 62
     7
420
 16777215
370
    35
100
AcDbVertex
100
AcDb2dVertex
 10
3.20777028787802
 20
33.35208639913495
 30
0.0
  0
VERTEX
  5
9F
330
92
100
AcDbEntity
  8
Layer 1
 62
     7
420
 16777215
370
    35
100
AcDbVertex
100
AcDb2dVertex
 10
2.875695543737947
 20
33.07110132647257
 30
0.0
  0
VERTEX
  5
A0
330
92
100
AcDbEntity
  8
Layer 1
 62
     7
420
 16777215
370
    35
100
AcDbVertex
100
AcDb2dVertex
 10
2.594707222926243
 20
32.73902333423827
 30
0.0
  0
VERTEX
  5
A1
330
92
100
AcDbEntity
  8
Layer 1
 62
     7
420
 16777215
370
    35
100
AcDbVertex
100
AcDb2dVertex
 10
2.390355033347254
 20
32.35586216678918
 30
0.0
  0
VERTEX
  5
A2
330
92
100
AcDbEntity
  8
Layer 1
 62
     7
420
 16777215
370
    35
100
AcDbVertex
100
AcDb2dVertex
 10
2.262632478761967
 20
31.92160807976714
 30
0.0
  0
VERTEX
  5
A3
330
92
100
AcDbEntity
  8
Layer 1
 62
     7
420
 16777215
370
    35
100
AcDbVertex
100
AcDb2dVertex
 10
2.237089267077256
 20
31.48735724085981
 30
0.0
  0
VERTEX
  5
A4
330
92
100
AcDbEntity
  8
Layer 1
 62
     7
420
 16777215
370
    35
100
AcDbVertex
100
AcDb2dVertex
 10
2.262632478723061
 20
31.05310315383089
 30
0.0
  0
VERTEX
  5
A5
330
92
100
AcDbEntity
  8
Layer 1
 62
     7
420
 16777215
370
    35
100
AcDbVertex
100
AcDb2dVertex
 10
2.390355033270389
 20
30.64439552658205
 30
0.0
  0
VERTEX
  5
A6
330
92
100
AcDbEntity
  8
Layer 1
 62
     7
420
 16777215
370
    35
100
AcDbVertex
100
AcDb2dVertex
 10
2.594707222814931
 20
30.26123111099529
 30
0.0
  0
VERTEX
  5
A7
330
92
100
AcDbEntity
  8
Layer 1
 62
     7
420
 16777215
370
    35
100
AcDbVertex
100
AcDb2dVertex
 10
2.875695543596811
 20
29.92915636685512
 30
0.0
  0
VERTEX
  5
A8
330
92
100
AcDbEntity
  8
Layer 1
 62
     7
420
 16777215
370
    35
100
AcDbVertex
100
AcDb2dVertex
 10
3.207770287711709
 20
29.64817129416291
 30
0.0
  0
VERTEX
  5
A9
330
92
100
AcDbEntity
  8
Layer 1
 62
     7
420
 16777215
370
    35
100
AcDbVertex
100
AcDb2dVertex
 10
3.590937951399787
 20
29.44381585646443
 30
0.0
  0
VERTEX
  5
AA
330
92
100
AcDbEntity
  8
Layer 1
 62
     7
420
 16777215
370
    35
100
AcDbVertex
100
AcDb2dVertex
 10
4.025185542182852
 20
29.31609492593899
 30
0.0
  0
VERTEX
  5
AB
330
92
100
AcDbEntity
  8
Layer 1
 62
     7
420
 16777215
370
    35
100
AcDbVertex
100
AcDb2dVertex
 10
4.459439629208393
 20
29.26500687852909
 30
0.0
  0
VERTEX
  5
AC
330
92
100
AcDbEntity
  8
Layer 1
 62
     7
420
 16777215
370
    35
100
AcDbVertex
100
AcDb2dVertex
 10
4.893693716238582
 20
29.31609492589997
 30
0.0
  0
VERTEX
  5
AD
330
92
100
AcDbEntity
  8
Layer 1
 62
     7
420
 16777215
370
    35
100
AcDbVertex
100
AcDb2dVertex
 10
5.30239809536791
 20
29.44381585638765
 30
0.0
  0
VERTEX
  5
AE
330
92
100
AcDbEntity
  8
Layer 1
 62
     7
420
 16777215
370
    35
100
AcDbVertex
100
AcDb2dVertex
 10
5.685565759074178
 20
29.64817129405168
 30
0.0
  0
VERTEX
  5
AF
330
92
100
AcDbEntity
  8
Layer 1
 62
     7
420
 16777215
370
    35
100
AcDbVertex
100
AcDb2dVertex
 10
6.017640503214251
 20
29.92915636671407
 30
0.0
  0
VERTEX
  5
B0
330
92
100
AcDbEntity
  8
Layer 1
 62
     7
420
 16777215
370
    35
100
AcDbVertex
100
AcDb2dVertex
 10
6.298628824025955
 20
30.26123111082898
 30
0.0
  0
VERTEX
  5
B1
330
92
100
AcDbEntity
  8
Layer 1
 62
     7
420
 16777215
370
    35
100
AcDbVertex
100
AcDb2dVertex
 10
6.502981013604969
 20
30.64439552639746
 30
0.0
  0
VERTEX
  5
B2
330
92
100
AcDbEntity
  8
Layer 1
 62
     7
420
 16777215
370
    35
100
AcDbVertex
100
AcDb2dVertex
 10
6.630703568189069
 20
31.05310315363477
 30
0.0
  0
VERTEX
  5
B3
330
92
100
AcDbEntity
  8
Layer 1
 62
     7
420
 16777215
370
    35
100
AcDbVertex
100
AcDb2dVertex
 10
6.681789991539315
 20
31.48735724066031
 30
0.0
  0
SEQEND
  5
B4
330
92
100
AcDbEntity
  8
Layer 1
 62
     7
420
 16777215
370
    35
  0
POLYLINE
  5
B5
330
1F
100
AcDbEntity
  8
Layer 1
 62
     7
420
 16777215
370
    25
100
AcDb2dPolyline
 66
     1
 10
0.0
 20
0.0
 30
0.0
  0
VERTEX
  5
B6
330
B5
100
AcDbEntity
  8
Layer 1
 62
     7
420
 16777215
370
    25
100
AcDbVertex
100
AcDb2dVertex
 10
-9.717621010714437
 20
20.68213858676333
 30
0.0
  0
VERTEX
  5
B7
330
B5
100
AcDbEntity
  8
Layer 1
 62
     7
420
 16777215
370
    25
100
AcDbVertex
100
AcDb2dVertex
 10
2.671343354044337
 20
30.13351180454557
 30
0.0
  0
SEQEND
  5
B8
330
B5
100
AcDbEntity
  8
Layer 1
 62
     7
420
 16777215
370
    25
  0
POLYLINE
  5
B9
330
1F
100
AcDbEntity
  8
Layer 1
 62
     7
420
 16777215
370
    25
100
AcDb2dPolyline
 66
     1
 10
0.0
 20
0.0
 30
0.0
  0
VERTEX
  5
BA
330
B9
100
AcDbEntity
  8
Layer 1
 62
     7
420
 16777215
370
    25
100
AcDbVertex
100
AcDb2dVertex
 10
-9.717621010034412
 20
35.82987862295826
 30
0.0
  0
VERTEX
  5
BB
330
B9
100
AcDbEntity
  8
Layer 1
 62
     7
420
 16777215
370
    25
100
AcDbVertex
100
AcDb2dVertex
 10
2.313725398342108
 20
32.15150672911141
 30
0.0
  0
SEQEND
  5
BC
330
B9
100
AcDbEntity
  8
Layer 1
 62
     7
420
 16777215
370
    25
  0
POLYLINE
  5
BD
330
1F
100
AcDbEntity
  8
Layer 1
 62
     7
420
 16777215
370
    35
100
AcDb2dPolyline
 66
     1
 10
0.0
 20
0.0
 30
0.0
  0
VERTEX
  5
BE
330
BD
100
AcDbEntity
  8
Layer 1
 62
     7
420
 16777215
370
    35
100
AcDbVertex
100
AcDb2dVertex
 10
-11.301365094865
 20
11.25549090586027
 30
0.0
  0
VERTEX
  5
BF
330
BD
100
AcDbEntity
  8
Layer 1
 62
     7
420
 16777215
370
    35
100
AcDbVertex
100
AcDb2dVertex
 10
20.19469789570818
 20
11.25549090444618
 30
0.0
  0
SEQEND
  5
C0
330
BD
100
AcDbEntity
  8
Layer 1
 62
     7
420
 16777215
370
    35
  0
POLYLINE
  5
C1
330
1F
100
AcDbEntity
  8
Layer 1
 62
     7
420
 16777215
370
    35
100
AcDb2dPolyline
 66
     1
 10
0.0
 20
0.0
 30
0.0
  0
VERTEX
  5
C2
330
C1
100
AcDbEntity
  8
Layer 1
 62
     7
420
 16777215
370
    35
100
AcDbVertex
100
AcDb2dVertex
 10
-10.15186860001471
 20
11.20440448247786
 30
0.0
  0
VERTEX
  5
C3
330
C1
100
AcDbEntity
  8
Layer 1
 62
     7
420
 16777215
370
    35
100
AcDbVertex
100
AcDb2dVertex
 10
-11.30136509486723
 20
11.20440448252955
 30
0.0
  0
VERTEX
  5
C4
330
C1
100
AcDbEntity
  8
Layer 1
 62
     7
420
 16777215
370
    35
100
AcDbVertex
100
AcDb2dVertex
 10
-11.301365094865
 20
11.25549090586027
 30
0.0
  0
SEQEND
  5
C5
330
C1
100
AcDbEntity
  8
Layer 1
 62
     7
420
 16777215
370
    35
  0
POLYLINE
  5
C6
330
1F
100
AcDbEntity
  8
Layer 1
 62
     7
420
 16777215
370
    35
100
AcDb2dPolyline
 66
     1
 10
0.0
 20
0.0
 30
0.0
  0
VERTEX
  5
C7
330
C6
100
AcDbEntity
  8
Layer 1
 62
     7
420
 16777215
370
    35
100
AcDbVertex
100
AcDb2dVertex
 10
-10.15186860033812
 20
4.000923213976042
 30
0.0
  0
VERTEX
  5
C8
330
C6
100
AcDbEntity
  8
Layer 1
 62
     7
420
 16777215
370
    35
100
AcDbVertex
100
AcDb2dVertex
 10
-10.10078217701779
 20
3.771027812746701
 30
0.0
  0
VERTEX
  5
C9
330
C6
100
AcDbEntity
  8
Layer 1
 62
     7
420
 16777215
370
    35
100
AcDbVertex
100
AcDb2dVertex
 10
-9.973059622461252
 20
3.566672375059726
 30
0.0
  0
VERTEX
  5
CA
330
C6
100
AcDbEntity
  8
Layer 1
 62
     7
420
 16777215
370
    35
100
AcDbVertex
100
AcDb2dVertex
 10
-9.768707432906366
 20
3.413406608819463
 30
0.0
  0
VERTEX
  5
CB
330
C6
100
AcDbEntity
  8
Layer 1
 62
     7
420
 16777215
370
    35
100
AcDbVertex
100
AcDb2dVertex
 10
-9.51326232377725
 20
3.362316937357769
 30
0.0
  0
SEQEND
  5
CC
330
C6
100
AcDbEntity
  8
Layer 1
 62
     7
420
 16777215
370
    35
  0
POLYLINE
  5
CD
330
1F
100
AcDbEntity
  8
Layer 1
 62
     7
420
 16777215
370
    35
100
AcDb2dPolyline
 66
     1
 10
0.0
 20
0.0
 30
0.0
  0
VERTEX
  5
CE
330
CD
100
AcDbEntity
  8
Layer 1
 62
     7
420
 16777215
370
    35
100
AcDbVertex
100
AcDb2dVertex
 10
-10.15186860033812
 20
4.000923213976042
 30
0.0
  0
VERTEX
  5
CF
330
CD
100
AcDbEntity
  8
Layer 1
 62
     7
420
 16777215
370
    35
100
AcDbVertex
100
AcDb2dVertex
 10
-10.15186860001471
 20
11.20440448247786
 30
0.0
  0
SEQEND
  5
D0
330
CD
100
AcDbEntity
  8
Layer 1
 62
     7
420
 16777215
370
    35
  0
POLYLINE
  5
D1
330
1F
100
AcDbEntity
  8
Layer 1
 62
     7
420
 16777215
370
    35
100
AcDb2dPolyline
 66
     1
 10
0.0
 20
0.0
 30
0.0
  0
VERTEX
  5
D2
330
D1
100
AcDbEntity
  8
Layer 1
 62
     7
420
 16777215
370
    35
100
AcDbVertex
100
AcDb2dVertex
 10
20.1946978941553
 20
19.30274831340052
 30
0.0
  0
VERTEX
  5
D3
330
D1
100
AcDbEntity
  8
Layer 1
 62
     7
420
 16777215
370
    35
100
AcDbVertex
100
AcDb2dVertex
 10
20.19469789503831
 20
38.9718203331133
 30
0.0
  0
SEQEND
  5
D4
330
D1
100
AcDbEntity
  8
Layer 1
 62
     7
420
 16777215
370
    35
  0
POLYLINE
  5
D5
330
1F
100
AcDbEntity
  8
Layer 1
 62
     7
420
 16777215
370
    35
100
AcDb2dPolyline
 66
     1
 10
0.0
 20
0.0
 30
0.0
  0
VERTEX
  5
D6
330
D5
100
AcDbEntity
  8
Layer 1
 62
     7
420
 16777215
370
    35
100
AcDbVertex
100
AcDb2dVertex
 10
19.0196646839463
 20
20.86094756336957
 30
0.0
  0
VERTEX
  5
D7
330
D5
100
AcDbEntity
  8
Layer 1
 62
     7
420
 16777215
370
    35
100
AcDbVertex
100
AcDb2dVertex
 10
19.0196646846092
 20
35.62552643210632
 30
0.0
  0
SEQEND
  5
D8
330
D5
100
AcDbEntity
  8
Layer 1
 62
     7
420
 16777215
370
    35
  0
POLYLINE
  5
D9
330
1F
100
AcDbEntity
  8
Layer 1
 62
     7
420
 16777215
370
    35
100
AcDb2dPolyline
 66
     1
 10
0.0
 20
0.0
 30
0.0
  0
VERTEX
  5
DA
330
D9
100
AcDbEntity
  8
Layer 1
 62
     7
420
 16777215
370
    35
100
AcDbVertex
100
AcDb2dVertex
 10
19.99034570458444
 20
19.0983944997881
 30
0.0
  0
VERTEX
  5
DB
330
D9
100
AcDbEntity
  8
Layer 1
 62
     7
420
 16777215
370
    35
100
AcDbVertex
100
AcDb2dVertex
 10
20.14361147081763
 20
19.14948254717176
 30
0.0
  0
VERTEX
  5
DC
330
D9
100
AcDbEntity
  8
Layer 1
 62
     7
420
 16777215
370
    35
100
AcDbVertex
100
AcDb2dVertex
 10
20.1946978941553
 20
19.30274831340052
 30
0.0
  0
SEQEND
  5
DD
330
D9
100
AcDbEntity
  8
Layer 1
 62
     7
420
 16777215
370
    35
  0
POLYLINE
  5
DE
330
1F
100
AcDbEntity
  8
Layer 1
 62
     7
420
 16777215
370
    35
100
AcDb2dPolyline
 66
     1
 10
0.0
 20
0.0
 30
0.0
  0
VERTEX
  5
DF
330
DE
100
AcDbEntity
  8
Layer 1
 62
     7
420
 16777215
370
    35
100
AcDbVertex
100
AcDb2dVertex
 10
19.0196646846092
 20
35.62552643210632
 30
0.0
  0
VERTEX
  5
E0
330
DE
100
AcDbEntity
  8
Layer 1
 62
     7
420
 16777215
370
    35
100
AcDbVertex
100
AcDb2dVertex
 10
18.96857501316928
 20
35.85542183333566
 30
0.0
  0
VERTEX
  5
E1
330
DE
100
AcDbEntity
  8
Layer 1
 62
     7
420
 16777215
370
    35
100
AcDbVertex
100
AcDb2dVertex
 10
18.84085245861168
 20
36.03423405935738
 30
0.0
  0
VERTEX
  5
E2
330
DE
100
AcDbEntity
  8
Layer 1
 62
     7
420
 16777215
370
    35
100
AcDbVertex
100
AcDb2dVertex
 10
18.66204348072107
 20
36.16195336581155
 30
0.0
  0
VERTEX
  5
E3
330
DE
100
AcDbEntity
  8
Layer 1
 62
     7
420
 16777215
370
    35
100
AcDbVertex
100
AcDb2dVertex
 10
18.43214483137659
 20
36.21304303727209
 30
0.0
  0
VERTEX
  5
E4
330
DE
100
AcDbEntity
  8
Layer 1
 62
     7
420
 16777215
370
    35
100
AcDbVertex
100
AcDb2dVertex
 10
-9.513262324216434
 20
36.21304303852674
 30
0.0
  0
SEQEND
  5
E5
330
DE
100
AcDbEntity
  8
Layer 1
 62
     7
420
 16777215
370
    35
  0
POLYLINE
  5
E6
330
1F
100
AcDbEntity
  8
Layer 1
 62
     7
420
 16777215
370
    35
100
AcDb2dPolyline
 66
     1
 10
0.0
 20
0.0
 30
0.0
  0
VERTEX
  5
E7
330
E6
100
AcDbEntity
  8
Layer 1
 62
     7
420
 16777215
370
    35
100
AcDbVertex
100
AcDb2dVertex
 10
-9.51326232493208
 20
20.27342933545136
 30
0.0
  0
VERTEX
  5
E8
330
E6
100
AcDbEntity
  8
Layer 1
 62
     7
420
 16777215
370
    35
100
AcDbVertex
100
AcDb2dVertex
 10
18.43214483066104
 20
20.27342933419671
 30
0.0
  0
VERTEX
  5
E9
330
E6
100
AcDbEntity
  8
Layer 1
 62
     7
420
 16777215
370
    35
100
AcDbVertex
100
AcDb2dVertex
 10
18.66204348000997
 20
20.32451900563665
 30
0.0
  0
VERTEX
  5
EA
330
E6
100
AcDbEntity
  8
Layer 1
 62
     7
420
 16777215
370
    35
100
AcDbVertex
100
AcDb2dVertex
 10
18.840852457912
 20
20.45223993613459
 30
0.0
  0
VERTEX
  5
EB
330
E6
100
AcDbEntity
  8
Layer 1
 62
     7
420
 16777215
370
    35
100
AcDbVertex
100
AcDb2dVertex
 10
18.96857501248587
 20
20.6310489140252
 30
0.0
  0
VERTEX
  5
EC
330
E6
100
AcDbEntity
  8
Layer 1
 62
     7
420
 16777215
370
    35
100
AcDbVertex
100
AcDb2dVertex
 10
19.0196646839463
 20
20.86094756336957
 30
0.0
  0
SEQEND
  5
ED
330
E6
100
AcDbEntity
  8
Layer 1
 62
     7
420
 16777215
370
    35
  0
POLYLINE
  5
EE
330
1F
100
AcDbEntity
  8
Layer 1
 62
     7
420
 16777215
370
    35
100
AcDb2dPolyline
 66
     1
 10
0.0
 20
0.0
 30
0.0
  0
VERTEX
  5
EF
330
EE
100
AcDbEntity
  8
Layer 1
 62
     7
420
 16777215
370
    35
100
AcDbVertex
100
AcDb2dVertex
 10
18.43214483181588
 20
3.362316936103121
 30
0.0
  0
VERTEX
  5
F0
330
EE
100
AcDbEntity
  8
Layer 1
 62
     7
420
 16777215
370
    35
100
AcDbVertex
100
AcDb2dVertex
 10
-9.51326232377725
 20
3.362316937357769
 30
0.0
  0
SEQEND
  5
F1
330
EE
100
AcDbEntity
  8
Layer 1
 62
     7
420
 16777215
370
    35
  0
POLYLINE
  5
F2
330
1F
100
AcDbEntity
  8
Layer 1
 62
     7
420
 16777215
370
    35
100
AcDb2dPolyline
 66
     1
 10
0.0
 20
0.0
 30
0.0
  0
VERTEX
  5
F3
330
F2
100
AcDbEntity
  8
Layer 1
 62
     7
420
 16777215
370
    35
100
AcDbVertex
100
AcDb2dVertex
 10
18.4321448318182
 20
3.413406607553295
 30
0.0
  0
VERTEX
  5
F4
330
F2
100
AcDbEntity
  8
Layer 1
 62
     7
420
 16777215
370
    35
100
AcDbVertex
100
AcDb2dVertex
 10
18.66204348116712
 20
3.464496278993137
 30
0.0
  0
VERTEX
  5
F5
330
F2
100
AcDbEntity
  8
Layer 1
 62
     7
420
 16777215
370
    35
100
AcDbVertex
100
AcDb2dVertex
 10
18.84085245906936
 20
3.592215585431429
 30
0.0
  0
VERTEX
  5
F6
330
F2
100
AcDbEntity
  8
Layer 1
 62
     7
420
 16777215
370
    35
100
AcDbVertex
100
AcDb2dVertex
 10
18.96857501364419
 20
3.796571023106885
 30
0.0
  0
VERTEX
  5
F7
330
F2
100
AcDbEntity
  8
Layer 1
 62
     7
420
 16777215
370
    35
100
AcDbVertex
100
AcDb2dVertex
 10
19.01966468510348
 20
4.00092321266642
 30
0.0
  0
SEQEND
  5
F8
330
F2
100
AcDbEntity
  8
Layer 1
 62
     7
420
 16777215
370
    35
  0
POLYLINE
  5
F9
330
1F
100
AcDbEntity
  8
Layer 1
 62
     7
420
 16777215
370
    35
100
AcDb2dPolyline
 66
     1
 10
0.0
 20
0.0
 30
0.0
  0
VERTEX
  5
FA
330
F9
100
AcDbEntity
  8
Layer 1
 62
     7
420
 16777215
370
    35
100
AcDbVertex
100
AcDb2dVertex
 10
18.43214483181588
 20
3.362316936103121
 30
0.0
  0
VERTEX
  5
FB
330
F9
100
AcDbEntity
  8
Layer 1
 62
     7
420
 16777215
370
    35
100
AcDbVertex
100
AcDb2dVertex
 10
18.6620434811648
 20
3.413406607542937
 30
0.0
  0
VERTEX
  5
FC
330
F9
100
AcDbEntity
  8
Layer 1
 62
     7
420
 16777215
370
    35
100
AcDbVertex
100
AcDb2dVertex
 10
18.86639891885304
 20
3.566672373764908
 30
0.0
  0
VERTEX
  5
FD
330
F9
100
AcDbEntity
  8
Layer 1
 62
     7
420
 16777215
370
    35
100
AcDbVertex
100
AcDb2dVertex
 10
19.0196646850932
 20
3.771027811439303
 30
0.0
  0
VERTEX
  5
FE
330
F9
100
AcDbEntity
  8
Layer 1
 62
     7
420
 16777215
370
    35
100
AcDbVertex
100
AcDb2dVertex
 10
19.07075110843417
 20
4.000923212664095
 30
0.0
  0
VERTEX
  5
FF
330
F9
100
AcDbEntity
  8
Layer 1
 62
     7
420
 16777215
370
    35
100
AcDbVertex
100
AcDb2dVertex
 10
19.07075110875768
 20
11.20440448116591
 30
0.0
  0
SEQEND
  5
100
330
F9
100
AcDbEntity
  8
Layer 1
 62
     7
420
 16777215
370
    35
  0
POLYLINE
  5
101
330
1F
100
AcDbEntity
  8
Layer 1
 62
     7
420
 16777215
370
    35
100
AcDb2dPolyline
 66
     1
 10
0.0
 20
0.0
 30
0.0
  0
VERTEX
  5
102
330
101
100
AcDbEntity
  8
Layer 1
 62
     7
420
 16777215
370
    35
100
AcDbVertex
100
AcDb2dVertex
 10
6.809512546756322
 20
3.362316936624969
 30
0.0
  0
VERTEX
  5
103
330
101
100
AcDbEntity
  8
Layer 1
 62
     7
420
 16777215
370
    35
100
AcDbVertex
100
AcDb2dVertex
 10
6.707333203850339
 20
3.234597630183291
 30
0.0
  0
VERTEX
  5
104
330
101
100
AcDbEntity
  8
Layer 1
 62
     7
420
 16777215
370
    35
100
AcDbVertex
100
AcDb2dVertex
 10
6.19644948181945
 20
3.081331863975164
 30
0.0
  0
SEQEND
  5
105
330
101
100
AcDbEntity
  8
Layer 1
 62
     7
420
 16777215
370
    35
  0
POLYLINE
  5
106
330
1F
100
AcDbEntity
  8
Layer 1
 62
     7
420
 16777215
370
    35
100
AcDb2dPolyline
 66
     1
 10
0.0
 20
0.0
 30
0.0
  0
VERTEX
  5
107
330
106
100
AcDbEntity
  8
Layer 1
 62
     7
420
 16777215
370
    35
100
AcDbVertex
100
AcDb2dVertex
 10
6.19644948181945
 20
3.081331863975164
 30
0.0
  0
VERTEX
  5
108
330
106
100
AcDbEntity
  8
Layer 1
 62
     7
420
 16777215
370
    35
100
AcDbVertex
100
AcDb2dVertex
 10
2.696886566409173
 20
3.081331864132254
 30
0.0
  0
SEQEND
  5
109
330
106
100
AcDbEntity
  8
Layer 1
 62
     7
420
 16777215
370
    35
  0
POLYLINE
  5
10A
330
1F
100
AcDbEntity
  8
Layer 1
 62
     7
420
 16777215
370
    35
100
AcDb2dPolyline
 66
     1
 10
0.0
 20
0.0
 30
0.0
  0
VERTEX
  5
10B
330
10A
100
AcDbEntity
  8
Layer 1
 62
     7
420
 16777215
370
    35
100
AcDbVertex
100
AcDb2dVertex
 10
6.707333203850339
 20
3.234597630183291
 30
0.0
  0
VERTEX
  5
10C
330
10A
100
AcDbEntity
  8
Layer 1
 62
     7
420
 16777215
370
    35
100
AcDbVertex
100
AcDb2dVertex
 10
2.237089267722935
 20
3.234597630383961
 30
0.0
  0
SEQEND
  5
10D
330
10A
100
AcDbEntity
  8
Layer 1
 62
     7
420
 16777215
370
    35
  0
POLYLINE
  5
10E
330
1F
100
AcDbEntity
  8
Layer 1
 62
     7
420
 16777215
370
    35
100
AcDb2dPolyline
 66
     1
 10
0.0
 20
0.0
 30
0.0
  0
VERTEX
  5
10F
330
10E
100
AcDbEntity
  8
Layer 1
 62
     7
420
 16777215
370
    35
100
AcDbVertex
100
AcDb2dVertex
 10
2.134916421067146
 20
3.362316936834834
 30
0.0
  0
VERTEX
  5
110
330
10E
100
AcDbEntity
  8
Layer 1
 62
     7
420
 16777215
370
    35
100
AcDbVertex
100
AcDb2dVertex
 10
2.237089267722935
 20
3.234597630383961
 30
0.0
  0
VERTEX
  5
111
330
10E
100
AcDbEntity
  8
Layer 1
 62
     7
420
 16777215
370
    35
100
AcDbVertex
100
AcDb2dVertex
 10
2.696886566409173
 20
3.081331864132254
 30
0.0
  0
SEQEND
  5
112
330
10E
100
AcDbEntity
  8
Layer 1
 62
     7
420
 16777215
370
    35
  0
POLYLINE
  5
113
330
1F
100
AcDbEntity
  8
Layer 1
 62
     7
420
 16777215
370
    35
100
AcDb2dPolyline
 66
     1
 10
0.0
 20
0.0
 30
0.0
  0
VERTEX
  5
114
330
113
100
AcDbEntity
  8
Layer 1
 62
     7
420
 16777215
370
    35
100
AcDbVertex
100
AcDb2dVertex
 10
6.809512546756322
 20
3.362316936624969
 30
0.0
  0
VERTEX
  5
115
330
113
100
AcDbEntity
  8
Layer 1
 62
     7
420
 16777215
370
    35
100
AcDbVertex
100
AcDb2dVertex
 10
2.134916421067146
 20
3.362316936834834
 30
0.0
  0
SEQEND
  5
116
330
113
100
AcDbEntity
  8
Layer 1
 62
     7
420
 16777215
370
    35
  0
POLYLINE
  5
117
330
1F
100
AcDbEntity
  8
Layer 1
 62
     7
420
 16777215
370
    25
100
AcDb2dPolyline
 66
     1
 10
0.0
 20
0.0
 30
0.0
  0
VERTEX
  5
118
330
117
100
AcDbEntity
  8
Layer 1
 62
     7
420
 16777215
370
    25
100
AcDbVertex
100
AcDb2dVertex
 10
19.01966468542931
 20
11.25549090449893
 30
0.0
  0
VERTEX
  5
119
330
117
100
AcDbEntity
  8
Layer 1
 62
     7
420
 16777215
370
    25
100
AcDbVertex
100
AcDb2dVertex
 10
20.19469789570818
 20
11.25549090444618
 30
0.0
  0
VERTEX
  5
11A
330
117
100
AcDbEntity
  8
Layer 1
 62
     7
420
 16777215
370
    25
100
AcDbVertex
100
AcDb2dVertex
 10
20.19469789570586
 20
11.20440448111549
 30
0.0
  0
VERTEX
  5
11B
330
117
100
AcDbEntity
  8
Layer 1
 62
     7
420
 16777215
370
    25
100
AcDbVertex
100
AcDb2dVertex
 10
19.07075110875768
 20
11.20440448116591
 30
0.0
  0
SEQEND
  5
11C
330
117
100
AcDbEntity
  8
Layer 1
 62
     7
420
 16777215
370
    25
  0
POLYLINE
  5
11D
330
1F
100
AcDbEntity
  8
Layer 1
 62
     7
420
 16777215
370
    35
100
AcDb2dPolyline
 66
     1
 10
0.0
 20
0.0
 30
0.0
  0
VERTEX
  5
11E
330
11D
100
AcDbEntity
  8
Layer 1
 62
     7
420
 16777215
370
    35
100
AcDbVertex
100
AcDb2dVertex
 10
19.22401687498642
 20
11.15331480970887
 30
0.0
  0
VERTEX
  5
11F
330
11D
100
AcDbEntity
  8
Layer 1
 62
     7
420
 16777215
370
    35
100
AcDbVertex
100
AcDb2dVertex
 10
19.60718129056411
 20
11.15331480969164
 30
0.0
  0
VERTEX
  5
120
330
11D
100
AcDbEntity
  8
Layer 1
 62
     7
420
 16777215
370
    35
100
AcDbVertex
100
AcDb2dVertex
 10
19.60718129053081
 20
10.41253243832112
 30
0.0
  0
SEQEND
  5
121
330
11D
100
AcDbEntity
  8
Layer 1
 62
     7
420
 16777215
370
    35
  0
POLYLINE
  5
122
330
1F
100
AcDbEntity
  8
Layer 1
 62
     7
420
 16777215
370
    35
100
AcDb2dPolyline
 66
     1
 10
0.0
 20
0.0
 30
0.0
  0
VERTEX
  5
123
330
122
100
AcDbEntity
  8
Layer 1
 62
     7
420
 16777215
370
    35
100
AcDbVertex
100
AcDb2dVertex
 10
19.65827096201661
 20
11.20440448113949
 30
0.0
  0
VERTEX
  5
124
330
122
100
AcDbEntity
  8
Layer 1
 62
     7
420
 16777215
370
    35
100
AcDbVertex
100
AcDb2dVertex
 10
19.65827096198099
 20
10.4125324383188
 30
0.0
  0
VERTEX
  5
125
330
122
100
AcDbEntity
  8
Layer 1
 62
     7
420
 16777215
370
    35
100
AcDbVertex
100
AcDb2dVertex
 10
19.60718129053081
 20
10.41253243832112
 30
0.0
  0
SEQEND
  5
126
330
122
100
AcDbEntity
  8
Layer 1
 62
     7
420
 16777215
370
    35
  0
POLYLINE
  5
127
330
1F
100
AcDbEntity
  8
Layer 1
 62
     7
420
 16777215
370
    35
100
AcDb2dPolyline
 66
     1
 10
0.0
 20
0.0
 30
0.0
  0
VERTEX
  5
128
330
127
100
AcDbEntity
  8
Layer 1
 62
     7
420
 16777215
370
    35
100
AcDbVertex
100
AcDb2dVertex
 10
-10.3051343662481
 20
11.15331481103466
 30
0.0
  0
VERTEX
  5
129
330
127
100
AcDbEntity
  8
Layer 1
 62
     7
420
 16777215
370
    35
100
AcDbVertex
100
AcDb2dVertex
 10
-10.71384524161062
 20
11.15331481105295
 30
0.0
  0
VERTEX
  5
12A
330
127
100
AcDbEntity
  8
Layer 1
 62
     7
420
 16777215
370
    35
100
AcDbVertex
100
AcDb2dVertex
 10
-10.71384524164392
 20
10.41253243968244
 30
0.0
  0
SEQEND
  5
12B
330
127
100
AcDbEntity
  8
Layer 1
 62
     7
420
 16777215
370
    35
  0
POLYLINE
  5
12C
330
1F
100
AcDbEntity
  8
Layer 1
 62
     7
420
 16777215
370
    35
100
AcDb2dPolyline
 66
     1
 10
0.0
 20
0.0
 30
0.0
  0
VERTEX
  5
12D
330
12C
100
AcDbEntity
  8
Layer 1
 62
     7
420
 16777215
370
    35
100
AcDbVertex
100
AcDb2dVertex
 10
-10.71384524164392
 20
10.41253243968244
 30
0.0
  0
VERTEX
  5
12E
330
12C
100
AcDbEntity
  8
Layer 1
 62
     7
420
 16777215
370
    35
100
AcDbVertex
100
AcDb2dVertex
 10
-10.73938845330926
 20
10.4125324396836
 30
0.0
  0
SEQEND
  5
12F
330
12C
100
AcDbEntity
  8
Layer 1
 62
     7
420
 16777215
370
    35
  0
POLYLINE
  5
130
330
1F
100
AcDbEntity
  8
Layer 1
 62
     7
420
 16777215
370
    35
100
AcDb2dPolyline
 66
     1
 10
0.0
 20
0.0
 30
0.0
  0
VERTEX
  5
131
330
130
100
AcDbEntity
  8
Layer 1
 62
     7
420
 16777215
370
    35
100
AcDbVertex
100
AcDb2dVertex
 10
-10.76493166493899
 20
11.20440448250545
 30
0.0
  0
VERTEX
  5
132
330
130
100
AcDbEntity
  8
Layer 1
 62
     7
420
 16777215
370
    35
100
AcDbVertex
100
AcDb2dVertex
 10
-10.76493166497461
 20
10.41253243968476
 30
0.0
  0
SEQEND
  5
133
330
130
100
AcDbEntity
  8
Layer 1
 62
     7
420
 16777215
370
    35
  0
POLYLINE
  5
134
330
1F
100
AcDbEntity
  8
Layer 1
 62
     7
420
 16777215
370
    25
100
AcDb2dPolyline
 66
     1
 10
0.0
 20
0.0
 30
0.0
  0
VERTEX
  5
135
330
134
100
AcDbEntity
  8
Layer 1
 62
     7
420
 16777215
370
    25
100
AcDbVertex
100
AcDb2dVertex
 10
18.61095705669534
 20
20.68213858549145
 30
0.0
  0
VERTEX
  5
136
330
134
100
AcDbEntity
  8
Layer 1
 62
     7
420
 16777215
370
    25
100
AcDbVertex
100
AcDb2dVertex
 10
6.221992692785332
 20
30.13351180438614
 30
0.0
  0
SEQEND
  5
137
330
134
100
AcDbEntity
  8
Layer 1
 62
     7
420
 16777215
370
    25
  0
POLYLINE
  5
138
330
1F
100
AcDbEntity
  8
Layer 1
 62
     7
420
 16777215
370
    25
100
AcDb2dPolyline
 66
     1
 10
0.0
 20
0.0
 30
0.0
  0
VERTEX
  5
139
330
138
100
AcDbEntity
  8
Layer 1
 62
     7
420
 16777215
370
    25
100
AcDbVertex
100
AcDb2dVertex
 10
18.61095705737547
 20
35.8298786216864
 30
0.0
  0
VERTEX
  5
13A
330
138
100
AcDbEntity
  8
Layer 1
 62
     7
420
 16777215
370
    25
100
AcDbVertex
100
AcDb2dVertex
 10
6.579610648668777
 20
32.15150672891983
 30
0.0
  0
SEQEND
  5
13B
330
138
100
AcDbEntity
  8
Layer 1
 62
     7
420
 16777215
370
    25
  0
MTEXT
  5
13C
330
1F
100
AcDbEntity
  8
Layer 1
 62
     7
420
 16777215
100
AcDbMText
 10
-14.98795021904839
 20
27.29775661892361
 30
0.0
 40
0.6968503990173339
 41
0.0
 46
0.0
 71
     7
 72
     1
  1
\fMyriad Pro|b0|i0|c0|p34;\W1;405
 11
6.123233995736766E-17
 21
1.0
 31
0.0
 73
     1
 44
1.0
  0
MTEXT
  5
13D
330
1F
100
AcDbEntity
  8
Layer 1
 62
     7
420
 16777215
100
AcDbMText
 10
-15.73095491197374
 20
6.378929985894096
 30
0.0
 40
0.6968503990173339
 41
0.0
 46
0.0
 71
     7
 72
     1
  1
\fMyriad Pro|b0|i0|c0|p34;\W1;200
 11
6.123233995736766E-17
 21
1.0
 31
0.0
 73
     1
 44
1.0
  0
MTEXT
  5
13E
330
1F
100
AcDbEntity
  8
Layer 1
 62
     7
420
 16777215
100
AcDbMText
 10
-13.25539059109158
 20
33.92830064561632
 30
0.0
 40
0.6968503990173339
 41
0.0
 46
0.0
 71
     7
 72
     1
  1
\fMyriad Pro|b0|i0|c0|p34;\W1;195
 11
6.123233995736766E-17
 21
1.0
 31
0.0
 73
     1
 44
1.0
  0
MTEXT
  5
13F
330
1F
100
AcDbEntity
  8
Layer 1
 62
     7
420
 16777215
100
AcDbMText
 10
-16.67619832356771
 20
27.29775661892361
 30
0.0
 40
0.6968503990173339
 41
0.0
 46
0.0
 71
     7
 72
     1
  1
\fMyriad Pro|b0|i0|c0|p34;\W1;510
 11
6.123233995736766E-17
 21
1.0
 31
0.0
 73
     1
 44
1.0
  0
POLYLINE
  5
140
330
1F
100
AcDbEntity
  8
Layer 1
 62
     7
420
 16777215
370
    20
100
AcDb2dPolyline
 66
     1
 10
0.0
 20
0.0
 30
0.0
  0
VERTEX
  5
141
330
140
100
AcDbEntity
  8
Layer 1
 62
     7
420
 16777215
370
    20
100
AcDbVertex
100
AcDb2dVertex
 10
-11.96444898723027
 20
39.17617582513785
 30
0.0
  0
VERTEX
  5
142
330
140
100
AcDbEntity
  8
Layer 1
 62
     7
420
 16777215
370
    20
100
AcDbVertex
100
AcDb2dVertex
 10
-17.36637374389037
 20
39.17617582544993
 30
0.0
  0
SEQEND
  5
143
330
140
100
AcDbEntity
  8
Layer 1
 62
     7
420
 16777215
370
    20
  0
POLYLINE
  5
144
330
1F
100
AcDbEntity
  8
Layer 1
 62
     7
420
 16777215
370
    20
100
AcDb2dPolyline
 66
     1
 10
0.0
 20
0.0
 30
0.0
  0
VERTEX
  5
145
330
144
100
AcDbEntity
  8
Layer 1
 62
     7
420
 16777215
370
    20
100
AcDbVertex
100
AcDb2dVertex
 10
-11.96444898723027
 20
19.08869134250088
 30
0.0
  0
VERTEX
  5
146
330
144
100
AcDbEntity
  8
Layer 1
 62
     7
420
 16777215
370
    20
100
AcDbVertex
100
AcDb2dVertex
 10
-17.36637374479217
 20
19.08869134275847
 30
0.0
  0
SEQEND
  5
147
330
144
100
AcDbEntity
  8
Layer 1
 62
     7
420
 16777215
370
    20
  0
POLYLINE
  5
148
330
1F
100
AcDbEntity
  8
Layer 1
 62
     7
420
 16777215
370
    20
100
AcDb2dPolyline
 66
     1
 10
0.0
 20
0.0
 30
0.0
  0
VERTEX
  5
149
330
148
100
AcDbEntity
  8
Layer 1
 62
     7
420
 16777215
370
    20
100
AcDbVertex
100
AcDb2dVertex
 10
-11.96444898723027
 20
36.23342377896341
 30
0.0
  0
VERTEX
  5
14A
330
148
100
AcDbEntity
  8
Layer 1
 62
     7
420
 16777215
370
    20
100
AcDbVertex
100
AcDb2dVertex
 10
-16.02294369786624
 20
36.2334237792334
 30
0.0
  0
SEQEND
  5
14B
330
148
100
AcDbEntity
  8
Layer 1
 62
     7
420
 16777215
370
    20
  0
POLYLINE
  5
14C
330
1F
100
AcDbEntity
  8
Layer 1
 62
     7
420
 16777215
370
    20
100
AcDb2dPolyline
 66
     1
 10
0.0
 20
0.0
 30
0.0
  0
VERTEX
  5
14D
330
14C
100
AcDbEntity
  8
Layer 1
 62
     7
420
 16777215
370
    20
100
AcDbVertex
100
AcDb2dVertex
 10
-11.96444898723027
 20
31.4994312149716
 30
0.0
  0
VERTEX
  5
14E
330
14C
100
AcDbEntity
  8
Layer 1
 62
     7
420
 16777215
370
    20
100
AcDbVertex
100
AcDb2dVertex
 10
-14.66313177967642
 20
31.49943121524159
 30
0.0
  0
SEQEND
  5
14F
330
14C
100
AcDbEntity
  8
Layer 1
 62
     7
420
 16777215
370
    20
  0
POLYLINE
  5
150
330
1F
100
AcDbEntity
  8
Layer 1
 62
     7
420
 16777215
370
    20
100
AcDb2dPolyline
 66
     1
 10
0.0
 20
0.0
 30
0.0
  0
VERTEX
  5
151
330
150
100
AcDbEntity
  8
Layer 1
 62
     7
420
 16777215
370
    20
100
AcDbVertex
100
AcDb2dVertex
 10
-11.96444898723027
 20
20.26152720457655
 30
0.0
  0
VERTEX
  5
152
330
150
100
AcDbEntity
  8
Layer 1
 62
     7
420
 16777215
370
    20
100
AcDbVertex
100
AcDb2dVertex
 10
-16.02294369858333
 20
20.26152720487901
 30
0.0
  0
SEQEND
  5
153
330
150
100
AcDbEntity
  8
Layer 1
 62
     7
420
 16777215
370
    20
  0
POLYLINE
  5
154
330
1F
100
AcDbEntity
  8
Layer 1
 62
     7
420
 16777215
370
    20
100
AcDb2dPolyline
 66
     1
 10
0.0
 20
0.0
 30
0.0
  0
VERTEX
  5
155
330
154
100
AcDbEntity
  8
Layer 1
 62
     7
420
 16777215
370
    20
100
AcDbVertex
100
AcDb2dVertex
 10
-11.96444898723027
 20
11.11340612192301
 30
0.0
  0
VERTEX
  5
156
330
154
100
AcDbEntity
  8
Layer 1
 62
     7
420
 16777215
370
    20
100
AcDbVertex
100
AcDb2dVertex
 10
-16.32564729556892
 20
11.11340612121643
 30
0.0
  0
SEQEND
  5
157
330
154
100
AcDbEntity
  8
Layer 1
 62
     7
420
 16777215
370
    20
  0
POLYLINE
  5
158
330
1F
100
AcDbEntity
  8
Layer 1
 62
     7
420
 16777215
370
    20
100
AcDb2dPolyline
 66
     1
 10
0.0
 20
0.0
 30
0.0
  0
VERTEX
  5
159
330
158
100
AcDbEntity
  8
Layer 1
 62
     7
420
 16777215
370
    20
100
AcDbVertex
100
AcDb2dVertex
 10
-11.96444898723027
 20
3.223415961589126
 30
0.0
  0
VERTEX
  5
15A
330
158
100
AcDbEntity
  8
Layer 1
 62
     7
420
 16777215
370
    20
100
AcDbVertex
100
AcDb2dVertex
 10
-16.32564729450615
 20
3.223415960968648
 30
0.0
  0
SEQEND
  5
15B
330
158
100
AcDbEntity
  8
Layer 1
 62
     7
420
 16777215
370
    20
  0
INSERT
  5
15D
330
1F
100
AcDbEntity
  8
Layer 1
100
AcDbBlockReference
  2
block 2
 10
0.0
 20
0.0
 30
0.0
  0
INSERT
  5
170
330
1F
100
AcDbEntity
  8
Layer 1
100
AcDbBlockReference
  2
block 4
 10
0.0
 20
0.0
 30
0.0
  0
INSERT
  5
183
330
1F
100
AcDbEntity
  8
Layer 1
100
AcDbBlockReference
  2
block 6
 10
0.0
 20
0.0
 30
0.0
  0
INSERT
  5
196
330
1F
100
AcDbEntity
  8
Layer 1
100
AcDbBlockReference
  2
block 8
 10
0.0
 20
0.0
 30
0.0
  0
INSERT
  5
1A9
330
1F
100
AcDbEntity
  8
Layer 1
100
AcDbBlockReference
  2
block 10
 10
0.0
 20
0.0
 30
0.0
  0
INSERT
  5
1BC
330
1F
100
AcDbEntity
  8
Layer 1
100
AcDbBlockReference
  2
block 12
 10
0.0
 20
0.0
 30
0.0
  0
INSERT
  5
1CF
330
1F
100
AcDbEntity
  8
Layer 1
100
AcDbBlockReference
  2
block 14
 10
0.0
 20
0.0
 30
0.0
  0
INSERT
  5
1E2
330
1F
100
AcDbEntity
  8
Layer 1
100
AcDbBlockReference
  2
block 16
 10
0.0
 20
0.0
 30
0.0
  0
MTEXT
  5
1F4
330
1F
100
AcDbEntity
  8
Layer 1
 62
     7
420
 16777215
100
AcDbMText
 10
3.869814978705512
 20
15.34432220458984
 30
0.0
 40
0.6968503990173339
 41
0.0
 46
0.0
 71
     7
 72
     1
  1
\fMyriad Pro|b0|i0|c0|p34;\W1;800
 73
     1
 44
1.0
  0
MTEXT
  5
1F5
330
1F
100
AcDbEntity
  8
Layer 1
 62
     7
420
 16777215
100
AcDbMText
 10
3.869862874348958
 20
17.07159678141276
 30
0.0
 40
0.6968503990173339
 41
0.0
 46
0.0
 71
     7
 72
     1
  1
\fMyriad Pro|b0|i0|c0|p34;\W1;740
 73
     1
 44
1.0
  0
MTEXT
  5
1F6
330
1F
100
AcDbEntity
  8
Layer 1
 62
     7
420
 16777215
100
AcDbMText
 10
-8.209181255764431
 20
23.21477593315972
 30
0.0
 40
0.6968503990173339
 41
0.0
 46
0.0
 71
     7
 72
     1
  1
\fMyriad Pro|b0|i0|c0|p34;\W1;R18
 73
     1
 44
1.0
  0
POLYLINE
  5
1F7
330
1F
100
AcDbEntity
  8
Layer 1
 62
     7
420
 16777215
370
    20
100
AcDb2dPolyline
 66
     1
 10
0.0
 20
0.0
 30
0.0
  0
VERTEX
  5
1F8
330
1F7
100
AcDbEntity
  8
Layer 1
 62
     7
420
 16777215
370
    20
100
AcDbVertex
100
AcDb2dVertex
 10
20.25796973573741
 20
18.33889503832216
 30
0.0
  0
VERTEX
  5
1F9
330
1F7
100
AcDbEntity
  8
Layer 1
 62
     7
420
 16777215
370
    20
100
AcDbVertex
100
AcDb2dVertex
 10
20.25796973554977
 20
15.07552763365705
 30
0.0
  0
SEQEND
  5
1FA
330
1F7
100
AcDbEntity
  8
Layer 1
 62
     7
420
 16777215
370
    20
  0
POLYLINE
  5
1FB
330
1F
100
AcDbEntity
  8
Layer 1
 62
     7
420
 16777215
370
    20
100
AcDb2dPolyline
 66
     1
 10
0.0
 20
0.0
 30
0.0
  0
VERTEX
  5
1FC
330
1FB
100
AcDbEntity
  8
Layer 1
 62
     7
420
 16777215
370
    20
100
AcDbVertex
100
AcDb2dVertex
 10
-11.23801249374083
 20
18.3296357790629
 30
0.0
  0
VERTEX
  5
1FD
330
1FB
100
AcDbEntity
  8
Layer 1
 62
     7
420
 16777215
370
    20
100
AcDbVertex
100
AcDb2dVertex
 10
-11.23801249393232
 20
15.07552763507111
 30
0.0
  0
SEQEND
  5
1FE
330
1FB
100
AcDbEntity
  8
Layer 1
 62
     7
420
 16777215
370
    20
  0
POLYLINE
  5
1FF
330
1F
100
AcDbEntity
  8
Layer 1
 62
     7
420
 16777215
370
    20
100
AcDb2dPolyline
 66
     1
 10
0.0
 20
0.0
 30
0.0
  0
VERTEX
  5
200
330
1FF
100
AcDbEntity
  8
Layer 1
 62
     7
420
 16777215
370
    20
100
AcDbVertex
100
AcDb2dVertex
 10
-10.06517527571931
 20
18.33889503832216
 30
0.0
  0
VERTEX
  5
201
330
1FF
100
AcDbEntity
  8
Layer 1
 62
     7
420
 16777215
370
    20
100
AcDbVertex
100
AcDb2dVertex
 10
-10.06517527591657
 20
16.69617373854513
 30
0.0
  0
SEQEND
  5
202
330
1FF
100
AcDbEntity
  8
Layer 1
 62
     7
420
 16777215
370
    20
  0
POLYLINE
  5
203
330
1F
100
AcDbEntity
  8
Layer 1
 62
     7
420
 16777215
370
    20
100
AcDb2dPolyline
 66
     1
 10
0.0
 20
0.0
 30
0.0
  0
VERTEX
  5
204
330
203
100
AcDbEntity
  8
Layer 1
 62
     7
420
 16777215
370
    20
100
AcDbVertex
100
AcDb2dVertex
 10
19.08513522939115
 20
18.33889503832216
 30
0.0
  0
VERTEX
  5
205
330
203
100
AcDbEntity
  8
Layer 1
 62
     7
420
 16777215
370
    20
100
AcDbVertex
100
AcDb2dVertex
 10
19.08513522920935
 20
16.82411971415836
 30
0.0
  0
SEQEND
  5
206
330
203
100
AcDbEntity
  8
Layer 1
 62
     7
420
 16777215
370
    20
  0
INSERT
  5
208
330
1F
100
AcDbEntity
  8
Layer 1
100
AcDbBlockReference
  2
block 18
 10
0.0
 20
0.0
 30
0.0
  0
INSERT
  5
21B
330
1F
100
AcDbEntity
  8
Layer 1
100
AcDbBlockReference
  2
block 20
 10
0.0
 20
0.0
 30
0.0
  0
INSERT
  5
22E
330
1F
100
AcDbEntity
  8
Layer 1
100
AcDbBlockReference
  2
block 22
 10
0.0
 20
0.0
 30
0.0
  0
INSERT
  5
242
330
1F
100
AcDbEntity
  8
Layer 1
100
AcDbBlockReference
  2
block 24
 10
0.0
 20
0.0
 30
0.0
  0
INSERT
  5
255
330
1F
100
AcDbEntity
  8
Layer 1
100
AcDbBlockReference
  2
block 26
 10
0.0
 20
0.0
 30
0.0
  0
MTEXT
  5
267
330
1F
100
AcDbEntity
  8
Layer 1
 62
     7
420
 16777215
100
AcDbMText
 10
-9.032058503892687
 20
9.651791890462238
 30
0.0
 40
0.6968503990173339
 41
0.0
 46
0.0
 71
     7
 72
     1
  1
\fMyriad Pro|b0|i0|c0|p34;\W1;13
 73
     1
 44
1.0
  0
POLYLINE
  5
268
330
1F
100
AcDbEntity
  8
Layer 1
 62
     7
420
 16777215
370
    20
100
AcDb2dPolyline
 66
     1
 10
0.0
 20
0.0
 30
0.0
  0
VERTEX
  5
269
330
268
100
AcDbEntity
  8
Layer 1
 62
     7
420
 16777215
370
    20
100
AcDbVertex
100
AcDb2dVertex
 10
-10.70807301890697
 20
9.566480342266509
 30
0.0
  0
VERTEX
  5
26A
330
268
100
AcDbEntity
  8
Layer 1
 62
     7
420
 16777215
370
    20
100
AcDbVertex
100
AcDb2dVertex
 10
-10.15364225992804
 20
9.566480342341189
 30
0.0
  0
SEQEND
  5
26B
330
268
100
AcDbEntity
  8
Layer 1
 62
     7
420
 16777215
370
    20
  0
POLYLINE
  5
26C
330
1F
100
AcDbEntity
  8
Layer 1
 62
     7
420
 16777215
370
    20
100
AcDb2dPolyline
 66
     1
 10
0.0
 20
0.0
 30
0.0
  0
VERTEX
  5
26D
330
26C
100
AcDbEntity
  8
Layer 1
 62
     7
420
 16777215
370
    20
100
AcDbVertex
100
AcDb2dVertex
 10
-9.663187200934164
 20
9.566480342407278
 30
0.0
  0
VERTEX
  5
26E
330
26C
100
AcDbEntity
  8
Layer 1
 62
     7
420
 16777215
370
    20
100
AcDbVertex
100
AcDb2dVertex
 10
-8.063865200934135
 20
9.566480342622727
 30
0.0
  0
SEQEND
  5
26F
330
26C
100
AcDbEntity
  8
Layer 1
 62
     7
420
 16777215
370
    20
  0
POLYLINE
  5
270
330
1F
100
AcDbEntity
  8
Layer 1
 62
     7
420
 16777215
370
    20
100
AcDb2dPolyline
 66
     1
 10
0.0
 20
0.0
 30
0.0
  0
VERTEX
  5
271
330
270
100
AcDbEntity
  8
Layer 1
 62
     7
420
 16777215
370
    20
100
AcDbVertex
100
AcDb2dVertex
 10
-11.19853350094905
 20
9.56648034220042
 30
0.0
  0
VERTEX
  5
272
330
270
100
AcDbEntity
  8
Layer 1
 62
     7
420
 16777215
370
    20
100
AcDbVertex
100
AcDb2dVertex
 10
-11.68899398299113
 20
9.56648034213453
 30
0.0
  0
SEQEND
  5
273
330
270
100
AcDbEntity
  8
Layer 1
 62
     7
420
 16777215
370
    20
  0
POLYLINE
  5
274
330
1F
100
AcDbEntity
  8
Layer 1
 62
     7
420
 16777215
370
    20
100
AcDb2dPolyline
 66
     1
 10
0.0
 20
0.0
 30
0.0
  0
VERTEX
  5
275
330
274
100
AcDbEntity
  8
Layer 1
 62
     7
420
 16777215
370
    20
100
AcDbVertex
100
AcDb2dVertex
 10
-10.15364226006881
 20
10.61136887183814
 30
0.0
  0
VERTEX
  5
276
330
274
100
AcDbEntity
  8
Layer 1
 62
     7
420
 16777215
370
    20
100
AcDbVertex
100
AcDb2dVertex
 10
-10.15364225989641
 20
9.33191181414299
 30
0.0
  0
SEQEND
  5
277
330
274
100
AcDbEntity
  8
Layer 1
 62
     7
420
 16777215
370
    20
  0
POLYLINE
  5
278
330
1F
100
AcDbEntity
  8
Layer 1
 62
     7
420
 16777215
370
    20
100
AcDb2dPolyline
 66
     1
 10
0.0
 20
0.0
 30
0.0
  0
VERTEX
  5
279
330
278
100
AcDbEntity
  8
Layer 1
 62
     7
420
 16777215
370
    20
100
AcDbVertex
100
AcDb2dVertex
 10
-10.70807301905926
 20
10.69666799739419
 30
0.0
  0
VERTEX
  5
27A
330
278
100
AcDbEntity
  8
Layer 1
 62
     7
420
 16777215
370
    20
100
AcDbVertex
100
AcDb2dVertex
 10
-10.70807301887534
 20
9.33191181406831
 30
0.0
  0
SEQEND
  5
27B
330
278
100
AcDbEntity
  8
Layer 1
 62
     7
420
 16777215
370
    20
  0
POLYLINE
  5
27C
330
1F
100
AcDbEntity
  8
Layer 1
370
     0
100
AcDb2dPolyline
 66
     1
 10
0.0
 20
0.0
 30
0.0
  0
VERTEX
  5
27D
330
27C
100
AcDbEntity
  8
Layer 1
370
     0
100
AcDbVertex
100
AcDb2dVertex
 10
-11.19853350096067
 20
9.651776756306996
 30
0.0
  0
VERTEX
  5
27E
330
27C
100
AcDbEntity
  8
Layer 1
370
     0
100
AcDbVertex
100
AcDb2dVertex
 10
-11.19853350094056
 20
9.502507353739524
 30
0.0
  0
VERTEX
  5
27F
330
27C
100
AcDbEntity
  8
Layer 1
370
     0
100
AcDbVertex
100
AcDb2dVertex
 10
-10.70807301890697
 20
9.566480342266509
 30
0.0
  0
VERTEX
  5
280
330
27C
100
AcDbEntity
  8
Layer 1
370
     0
100
AcDbVertex
100
AcDb2dVertex
 10
-11.19853350096067
 20
9.651776756306996
 30
0.0
  0
SEQEND
  5
282
330
27C
100
AcDbEntity
  8
Layer 1
370
     0
  0
HATCH
  5
281
330
1F
100
AcDbEntity
  8
Layer 1
 62
     7
420
 16777215
100
AcDbHatch
 10
0.0
 20
0.0
 30
0.0
210
0.0
220
0.0
230
1.0
  2
SOLID
 70
     1
 71
     0
 91
        1
 92
        1
 93
        3
 72
     1
 10
-11.19853350096067
 20
9.651776756306996
 11
-11.19853350094056
 21
9.502507353739524
 72
     1
 10
-11.19853350094056
 20
9.502507353739524
 11
-10.70807301890697
 21
9.566480342266509
 72
     1
 10
-10.70807301890697
 20
9.566480342266509
 11
-11.19853350096067
 21
9.651776756306996
 97
        0
 75
     0
 76
     1
 98
        0
  0
POLYLINE
  5
283
330
1F
100
AcDbEntity
  8
Layer 1
370
     0
100
AcDb2dPolyline
 66
     1
 10
0.0
 20
0.0
 30
0.0
  0
VERTEX
  5
284
330
283
100
AcDbEntity
  8
Layer 1
370
     0
100
AcDbVertex
100
AcDb2dVertex
 10
-9.663187200945686
 20
9.651776756513856
 30
0.0
  0
VERTEX
  5
285
330
283
100
AcDbEntity
  8
Layer 1
370
     0
100
AcDbVertex
100
AcDb2dVertex
 10
-9.663187200925575
 20
9.502507353946385
 30
0.0
  0
VERTEX
  5
286
330
283
100
AcDbEntity
  8
Layer 1
370
     0
100
AcDbVertex
100
AcDb2dVertex
 10
-10.15364225992804
 20
9.566480342341189
 30
0.0
  0
VERTEX
  5
287
330
283
100
AcDbEntity
  8
Layer 1
370
     0
100
AcDbVertex
100
AcDb2dVertex
 10
-9.663187200945686
 20
9.651776756513856
 30
0.0
  0
SEQEND
  5
289
330
283
100
AcDbEntity
  8
Layer 1
370
     0
  0
HATCH
  5
288
330
1F
100
AcDbEntity
  8
Layer 1
 62
     7
420
 16777215
100
AcDbHatch
 10
0.0
 20
0.0
 30
0.0
210
0.0
220
0.0
230
1.0
  2
SOLID
 70
     1
 71
     0
 91
        1
 92
        1
 93
        3
 72
     1
 10
-9.663187200945686
 20
9.651776756513856
 11
-9.663187200925575
 21
9.502507353946385
 72
     1
 10
-9.663187200925575
 20
9.502507353946385
 11
-10.15364225992804
 21
9.566480342341189
 72
     1
 10
-10.15364225992804
 20
9.566480342341189
 11
-9.663187200945686
 21
9.651776756513856
 97
        0
 75
     0
 76
     1
 98
        0
  0
INSERT
  5
28B
330
1F
100
AcDbEntity
  8
Layer 1
100
AcDbBlockReference
  2
block 28
 10
0.0
 20
0.0
 30
0.0
  0
INSERT
  5
290
330
1F
100
AcDbEntity
  8
Layer 1
100
AcDbBlockReference
  2
block 29
 10
0.0
 20
0.0
 30
0.0
  0
INSERT
  5
295
330
1F
100
AcDbEntity
  8
Layer 1
100
AcDbBlockReference
  2
block 30
 10
0.0
 20
0.0
 30
0.0
  0
INSERT
  5
29B
330
1F
100
AcDbEntity
  8
Layer 1
100
AcDbBlockReference
  2
block 31
 10
0.0
 20
0.0
 30
0.0
  0
INSERT
  5
2A0
330
1F
100
AcDbEntity
  8
Layer 1
100
AcDbBlockReference
  2
block 32
 10
0.0
 20
0.0
 30
0.0
  0
INSERT
  5
2A5
330
1F
100
AcDbEntity
  8
Layer 1
100
AcDbBlockReference
  2
block 33
 10
0.0
 20
0.0
 30
0.0
  0
INSERT
  5
2AA
330
1F
100
AcDbEntity
  8
Layer 1
100
AcDbBlockReference
  2
block 34
 10
0.0
 20
0.0
 30
0.0
  0
INSERT
  5
2AF
330
1F
100
AcDbEntity
  8
Layer 1
100
AcDbBlockReference
  2
block 35
 10
0.0
 20
0.0
 30
0.0
  0
INSERT
  5
2B4
330
1F
100
AcDbEntity
  8
Layer 1
100
AcDbBlockReference
  2
block 36
 10
0.0
 20
0.0
 30
0.0
  0
INSERT
  5
2B9
330
1F
100
AcDbEntity
  8
Layer 1
100
AcDbBlockReference
  2
block 37
 10
0.0
 20
0.0
 30
0.0
  0
INSERT
  5
2BE
330
1F
100
AcDbEntity
  8
Layer 1
100
AcDbBlockReference
  2
block 38
 10
0.0
 20
0.0
 30
0.0
  0
INSERT
  5
2CA
330
1F
100
AcDbEntity
  8
Layer 1
100
AcDbBlockReference
  2
block 39
 10
0.0
 20
0.0
 30
0.0
  0
INSERT
  5
2CF
330
1F
100
AcDbEntity
  8
Layer 1
100
AcDbBlockReference
  2
block 40
 10
0.0
 20
0.0
 30
0.0
  0
INSERT
  5
2D4
330
1F
100
AcDbEntity
  8
Layer 1
100
AcDbBlockReference
  2
block 41
 10
0.0
 20
0.0
 30
0.0
  0
INSERT
  5
2D9
330
1F
100
AcDbEntity
  8
Layer 1
100
AcDbBlockReference
  2
block 42
 10
0.0
 20
0.0
 30
0.0
  0
INSERT
  5
2DE
330
1F
100
AcDbEntity
  8
Layer 1
100
AcDbBlockReference
  2
block 43
 10
0.0
 20
0.0
 30
0.0
  0
ENDSEC
  0
SECTION
  2
OBJECTS
  0
DICTIONARY
  5
C
330
0
100
AcDbDictionary
281
     1
  3
ACAD_GROUP
350
D
  3
ACAD_LAYOUT
350
1A
  3
ACAD_MATERIAL
350
3B
  3
ACAD_MLEADERSTYLE
350
2E7
  3
ACAD_MLINESTYLE
350
17
  3
ACAD_PLOTSETTINGS
350
19
  3
ACAD_PLOTSTYLENAME
350
E
  3
ACAD_TABLESTYLE
350
2E6
  3
ACAD_VISUALSTYLE
350
2A
  0
SUN
  5
3F
330
29
100
AcDbSun
 90
        1
290
     0
 63
     7
421
 16777215
 40
1.0
291
     1
 91
  2455826
 92
 54000000
292
     0
 70
     2
 71
   256
280
     1
  0
DICTIONARY
  5
D
102
{ACAD_REACTORS
330
C
102
}
330
C
100
AcDbDictionary
281
     1
  0
DICTIONARY
  5
1A
102
{ACAD_REACTORS
330
C
102
}
330
C
100
AcDbDictionary
281
     1
  3
Layout1
350
1E
  3
Layout2
350
26
  3
Model
350
22
  0
DICTIONARY
  5
3B
102
{ACAD_REACTORS
330
C
102
}
330
C
100
AcDbDictionary
281
     1
  3
ByBlock
350
3D
  3
ByLayer
350
3C
  3
Global
350
3E
  0
DICTIONARY
  5
2E7
102
{ACAD_REACTORS
330
C
102
}
330
C
100
AcDbDictionary
281
     1
  0
DICTIONARY
  5
17
102
{ACAD_REACTORS
330
C
102
}
330
C
100
AcDbDictionary
281
     1
  3
Standard
350
18
  0
DICTIONARY
  5
19
102
{ACAD_REACTORS
330
C
102
}
330
C
100
AcDbDictionary
281
     1
  0
ACDBDICTIONARYWDFLT
  5
E
102
{ACAD_REACTORS
330
C
102
}
330
C
100
AcDbDictionary
281
     1
  3
Normal
350
F
100
AcDbDictionaryWithDefault
340
F
  0
DICTIONARY
  5
2E6
102
{ACAD_REACTORS
330
C
102
}
330
C
100
AcDbDictionary
281
     1
  0
DICTIONARY
  5
2A
102
{ACAD_REACTORS
330
C
102
}
330
C
100
AcDbDictionary
281
     1
  3
2dWireframe
350
2F
  3
3D Hidden
350
31
  3
3dWireframe
350
30
  3
Basic
350
32
  3
Brighten
350
36
  3
ColorChange
350
3A
  3
Conceptual
350
34
  3
Dim
350
35
  3
Facepattern
350
39
  3
Flat
350
2B
  3
FlatWithEdges
350
2C
  3
Gouraud
350
2D
  3
GouraudWithEdges
350
2E
  3
Linepattern
350
38
  3
Realistic
350
33
  3
Thicken
350
37
  0
LAYOUT
  5
1E
102
{ACAD_REACTORS
330
1A
102
}
330
1A
100
AcDbPlotSettings
  1

  2
none_device
  4

  6

 40
0.0
 41
0.0
 42
0.0
 43
0.0
 44
0.0
 45
0.0
 46
0.0
 47
0.0
 48
0.0
 49
0.0
140
0.0
141
0.0
142
1.0
143
1.0
 70
   688
 72
     0
 73
     0
 74
     5
  7

 75
    16
 76
     0
 77
     2
 78
   300
147
1.0
148
0.0
149
0.0
100
AcDbLayout
  1
Layout1
 70
     1
 71
     1
 10
0.0
 20
0.0
 11
12.0
 21
9.0
 12
0.0
 22
0.0
 32
0.0
 14
1.000000000000000E+20
 24
1.000000000000000E+20
 34
1.000000000000000E+20
 15
-1.000000000000000E+20
 25
-1.000000000000000E+20
 35
-1.000000000000000E+20
146
0.0
 13
0.0
 23
0.0
 33
0.0
 16
1.0
 26
0.0
 36
0.0
 17
0.0
 27
1.0
 37
0.0
 76
     0
330
1B
  0
LAYOUT
  5
26
102
{ACAD_REACTORS
330
1A
102
}
330
1A
100
AcDbPlotSettings
  1

  2
none_device
  4

  6

 40
0.0
 41
0.0
 42
0.0
 43
0.0
 44
0.0
 45
0.0
 46
0.0
 47
0.0
 48
0.0
 49
0.0
140
0.0
141
0.0
142
1.0
143
1.0
 70
   688
 72
     0
 73
     0
 74
     5
  7

 75
    16
 76
     0
 77
     2
 78
   300
147
1.0
148
0.0
149
0.0
100
AcDbLayout
  1
Layout2
 70
     1
 71
     2
 10
0.0
 20
0.0
 11
0.0
 21
0.0
 12
0.0
 22
0.0
 32
0.0
 14
0.0
 24
0.0
 34
0.0
 15
0.0
 25
0.0
 35
0.0
146
0.0
 13
0.0
 23
0.0
 33
0.0
 16
1.0
 26
0.0
 36
0.0
 17
0.0
 27
1.0
 37
0.0
 76
     0
330
23
  0
LAYOUT
  5
22
102
{ACAD_REACTORS
330
1A
102
}
330
1A
100
AcDbPlotSettings
  1

  2
none_device
  4

  6

 40
0.0
 41
0.0
 42
0.0
 43
0.0
 44
0.0
 45
0.0
 46
0.0
 47
0.0
 48
0.0
 49
0.0
140
0.0
141
0.0
142
1.0
143
1.0
 70
  1712
 72
     0
 73
     0
 74
     0
  7

 75
     0
 76
     0
 77
     2
 78
   300
147
1.0
148
0.0
149
0.0
100
AcDbLayout
  1
Model
 70
     1
 71
     0
 10
0.0
 20
0.0
 11
12.0
 21
9.0
 12
0.0
 22
0.0
 32
0.0
 14
1.000000000000000E+20
 24
1.000000000000000E+20
 34
1.000000000000000E+20
 15
-1.000000000000000E+20
 25
-1.000000000000000E+20
 35
-1.000000000000000E+20
146
0.0
 13
0.0
 23
0.0
 33
0.0
 16
1.0
 26
0.0
 36
0.0
 17
0.0
 27
1.0
 37
0.0
 76
     0
330
1F
331
29
  0
MATERIAL
  5
3D
102
{ACAD_REACTORS
330
3B
102
}
330
3B
100
AcDbMaterial
  1
ByBlock
 72
     1
 94
      127
  0
MATERIAL
  5
3C
102
{ACAD_REACTORS
330
3B
102
}
330
3B
100
AcDbMaterial
  1
ByLayer
 72
     1
 94
      127
  0
MATERIAL
  5
3E
102
{ACAD_REACTORS
330
3B
102
}
330
3B
100
AcDbMaterial
  1
Global
 72
     1
 94
      127
  0
MLINESTYLE
  5
18
102
{ACAD_REACTORS
330
17
102
}
330
17
100
AcDbMlineStyle
  2
Standard
 70
     0
  3

 62
   256
 51
90.0
 52
90.0
 71
     2
 49
0.5
 62
   256
  6
BYLAYER
 49
-0.5
 62
   256
  6
BYLAYER
  0
ACDBPLACEHOLDER
  5
F
102
{ACAD_REACTORS
330
E
102
}
330
E
  0
VISUALSTYLE
  5
2F
102
{ACAD_REACTORS
330
2A
102
}
330
2A
100
AcDbVisualStyle
  2
2dWireframe
 70
     4
177
     2
291
     0
 71
     0
176
     1
 72
     2
176
     1
 73
     0
176
     1
 90
        0
176
     1
 40
-0.6
176
     1
 41
-30.0
176
     1
 62
     5
 63
     7
421
 16777215
176
     1
 74
     1
176
     1
 91
        4
176
     1
 64
     7
176
     1
 65
   257
176
     1
 75
     1
176
     1
175
     1
176
     1
 42
1.0
176
     1
 92
        0
176
     1
 66
   257
176
     1
 43
1.0
176
     1
 76
     1
176
     1
 77
     6
176
     1
 78
     2
176
     1
 67
     7
176
     1
 79
     5
176
     1
170
     0
176
     1
171
     0
176
     1
290
     0
176
     1
 93
        1
176
     1
 44
0.0
176
     1
173
     0
176
     1
  0
VISUALSTYLE
  5
31
102
{ACAD_REACTORS
330
2A
102
}
330
2A
100
AcDbVisualStyle
  2
3D Hidden
 70
     6
177
     2
291
     0
 71
     1
176
     1
 72
     2
176
     1
 73
     2
176
     1
 90
        0
176
     1
 40
-0.6
176
     1
 41
-30.0
176
     1
 62
     5
 63
     7
421
 16777215
176
     1
 74
     2
176
     1
 91
        2
176
     1
 64
     7
176
     1
 65
   257
176
     1
 75
     2
176
     1
175
     1
176
     1
 42
40.0
176
     1
 92
        0
176
     1
 66
   257
176
     1
 43
1.0
176
     1
 76
     1
176
     1
 77
     6
176
     1
 78
     2
176
     1
 67
     7
176
     1
 79
     3
176
     1
170
     0
176
     1
171
     0
176
     1
290
     0
176
     1
 93
        1
176
     1
 44
0.0
176
     1
173
     0
176
     1
  0
VISUALSTYLE
  5
30
102
{ACAD_REACTORS
330
2A
102
}
330
2A
100
AcDbVisualStyle
  2
3dWireframe
 70
     5
177
     2
291
     0
 71
     0
176
     1
 72
     2
176
     1
 73
     0
176
     1
 90
        0
176
     1
 40
-0.6
176
     1
 41
-30.0
176
     1
 62
     5
 63
     7
421
 16777215
176
     1
 74
     1
176
     1
 91
        4
176
     1
 64
     7
176
     1
 65
   257
176
     1
 75
     1
176
     1
175
     1
176
     1
 42
1.0
176
     1
 92
        0
176
     1
 66
   257
176
     1
 43
1.0
176
     1
 76
     1
176
     1
 77
     6
176
     1
 78
     2
176
     1
 67
     7
176
     1
 79
     5
176
     1
170
     0
176
     1
171
     0
176
     1
290
     0
176
     1
 93
        1
176
     1
 44
0.0
176
     1
173
     0
176
     1
  0
VISUALSTYLE
  5
32
102
{ACAD_REACTORS
330
2A
102
}
330
2A
100
AcDbVisualStyle
  2
Basic
 70
     7
177
     2
291
     1
 71
     1
176
     1
 72
     0
176
     1
 73
     1
176
     1
 90
        0
176
     1
 40
-0.6
176
     1
 41
-30.0
176
     1
 62
     5
 63
     7
421
 16777215
176
     1
 74
     0
176
     1
 91
        4
176
     1
 64
     7
176
     1
 65
   257
176
     1
 75
     1
176
     1
175
     1
176
     1
 42
1.0
176
     1
 92
        8
176
     1
 66
     7
176
     1
 43
1.0
176
     1
 76
     1
176
     1
 77
     6
176
     1
 78
     2
176
     1
 67
     7
176
     1
 79
     5
176
     1
170
     0
176
     1
171
     0
176
     1
290
     0
176
     1
 93
        1
176
     1
 44
0.0
176
     1
173
     0
176
     1
  0
VISUALSTYLE
  5
36
102
{ACAD_REACTORS
330
2A
102
}
330
2A
100
AcDbVisualStyle
  2
Brighten
 70
    12
177
     2
291
     1
 71
     2
176
     1
 72
     2
176
     1
 73
     0
176
     1
 90
        0
176
     1
 40
-0.6
176
     1
 41
-30.0
176
     1
 62
     5
 63
     7
421
 16777215
176
     1
 74
     1
176
     1
 91
        4
176
     1
 64
     7
176
     1
 65
   257
176
     1
 75
     1
176
     1
175
     1
176
     1
 42
1.0
176
     1
 92
        8
176
     1
 66
     7
176
     1
 43
1.0
176
     1
 76
     1
176
     1
 77
     6
176
     1
 78
     2
176
     1
 67
     7
176
     1
 79
     5
176
     1
170
     0
176
     1
171
     0
176
     1
290
     0
176
     1
 93
        1
176
     1
 44
50.0
176
     1
173
     0
176
     1
  0
VISUALSTYLE
  5
3A
102
{ACAD_REACTORS
330
2A
102
}
330
2A
100
AcDbVisualStyle
  2
ColorChange
 70
    16
177
     2
291
     1
 71
     2
176
     1
 72
     2
176
     1
 73
     3
176
     1
 90
        0
176
     1
 40
-0.6
176
     1
 41
-30.0
176
     1
 62
     5
 63
     8
421
  8421504
176
     1
 74
     1
176
     1
 91
        4
176
     1
 64
     7
176
     1
 65
   257
176
     1
 75
     1
176
     1
175
     1
176
     1
 42
1.0
176
     1
 92
        8
176
     1
 66
     8
424
  8421504
176
     1
 43
1.0
176
     1
 76
     1
176
     1
 77
     6
176
     1
 78
     2
176
     1
 67
     7
176
     1
 79
     5
176
     1
170
     0
176
     1
171
     0
176
     1
290
     0
176
     1
 93
        1
176
     1
 44
0.0
176
     1
173
     0
176
     1
  0
VISUALSTYLE
  5
34
102
{ACAD_REACTORS
330
2A
102
}
330
2A
100
AcDbVisualStyle
  2
Conceptual
 70
     9
177
     2
291
     0
 71
     3
176
     1
 72
     2
176
     1
 73
     0
176
     1
 90
        0
176
     1
 40
-0.6
176
     1
 41
-30.0
176
     1
 62
     5
 63
     7
421
 16777215
176
     1
 74
     2
176
     1
 91
        2
176
     1
 64
     7
176
     1
 65
   257
176
     1
 75
     1
176
     1
175
     1
176
     1
 42
40.0
176
     1
 92
        8
176
     1
 66
     7
176
     1
 43
1.0
176
     1
 76
     1
176
     1
 77
     6
176
     1
 78
     2
176
     1
 67
     7
176
     1
 79
     3
176
     1
170
     0
176
     1
171
     0
176
     1
290
     0
176
     1
 93
        1
176
     1
 44
0.0
176
     1
173
     0
176
     1
  0
VISUALSTYLE
  5
35
102
{ACAD_REACTORS
330
2A
102
}
330
2A
100
AcDbVisualStyle
  2
Dim
 70
    11
177
     2
291
     1
 71
     2
176
     1
 72
     2
176
     1
 73
     0
176
     1
 90
        0
176
     1
 40
-0.6
176
     1
 41
-30.0
176
     1
 62
     5
 63
     7
421
 16777215
176
     1
 74
     1
176
     1
 91
        4
176
     1
 64
     7
176
     1
 65
   257
176
     1
 75
     1
176
     1
175
     1
176
     1
 42
1.0
176
     1
 92
        8
176
     1
 66
     7
176
     1
 43
1.0
176
     1
 76
     1
176
     1
 77
     6
176
     1
 78
     2
176
     1
 67
     7
176
     1
 79
     5
176
     1
170
     0
176
     1
171
     0
176
     1
290
     0
176
     1
 93
        1
176
     1
 44
-50.0
176
     1
173
     0
176
     1
  0
VISUALSTYLE
  5
39
102
{ACAD_REACTORS
330
2A
102
}
330
2A
100
AcDbVisualStyle
  2
Facepattern
 70
    15
177
     2
291
     1
 71
     2
176
     1
 72
     2
176
     1
 73
     0
176
     1
 90
        0
176
     1
 40
-0.6
176
     1
 41
-30.0
176
     1
 62
     5
 63
     7
421
 16777215
176
     1
 74
     1
176
     1
 91
        4
176
     1
 64
     7
176
     1
 65
   257
176
     1
 75
     1
176
     1
175
     1
176
     1
 42
1.0
176
     1
 92
        8
176
     1
 66
     7
176
     1
 43
1.0
176
     1
 76
     1
176
     1
 77
     6
176
     1
 78
     2
176
     1
 67
     7
176
     1
 79
     5
176
     1
170
     0
176
     1
171
     0
176
     1
290
     0
176
     1
 93
        1
176
     1
 44
0.0
176
     1
173
     0
176
     1
  0
VISUALSTYLE
  5
2B
102
{ACAD_REACTORS
330
2A
102
}
330
2A
100
AcDbVisualStyle
  2
Flat
 70
     0
177
     2
291
     1
 71
     2
176
     1
 72
     1
176
     1
 73
     1
176
     1
 90
        2
176
     1
 40
-0.6
176
     1
 41
30.0
176
     1
 62
     5
 63
     7
421
 16777215
176
     1
 74
     0
176
     1
 91
        4
176
     1
 64
     7
176
     1
 65
   257
176
     1
 75
     1
176
     1
175
     1
176
     1
 42
1.0
176
     1
 92
        8
176
     1
 66
     7
176
     1
 43
1.0
176
     1
 76
     1
176
     1
 77
     6
176
     1
 78
     2
176
     1
 67
     7
176
     1
 79
     5
176
     1
170
     0
176
     1
171
     0
176
     1
290
     0
176
     1
 93
       13
176
     1
 44
0.0
176
     1
173
     0
176
     1
  0
VISUALSTYLE
  5
2C
102
{ACAD_REACTORS
330
2A
102
}
330
2A
100
AcDbVisualStyle
  2
FlatWithEdges
 70
     1
177
     2
291
     1
 71
     2
176
     1
 72
     1
176
     1
 73
     1
176
     1
 90
        2
176
     1
 40
-0.6
176
     1
 41
30.0
176
     1
 62
     5
 63
     7
421
 16777215
176
     1
 74
     1
176
     1
 91
        4
176
     1
 64
     7
176
     1
 65
   257
176
     1
 75
     1
176
     1
175
     1
176
     1
 42
1.0
176
     1
 92
        0
176
     1
 66
   257
176
     1
 43
1.0
176
     1
 76
     1
176
     1
 77
     6
176
     1
 78
     2
176
     1
 67
     7
176
     1
 79
     5
176
     1
170
     0
176
     1
171
     0
176
     1
290
     0
176
     1
 93
       13
176
     1
 44
0.0
176
     1
173
     0
176
     1
  0
VISUALSTYLE
  5
2D
102
{ACAD_REACTORS
330
2A
102
}
330
2A
100
AcDbVisualStyle
  2
Gouraud
 70
     2
177
     2
291
     1
 71
     2
176
     1
 72
     2
176
     1
 73
     1
176
     1
 90
        2
176
     1
 40
-0.6
176
     1
 41
30.0
176
     1
 62
     5
 63
     7
421
 16777215
176
     1
 74
     0
176
     1
 91
        4
176
     1
 64
     7
176
     1
 65
   257
176
     1
 75
     1
176
     1
175
     1
176
     1
 42
1.0
176
     1
 92
        0
176
     1
 66
     7
176
     1
 43
1.0
176
     1
 76
     1
176
     1
 77
     6
176
     1
 78
     2
176
     1
 67
     7
176
     1
 79
     5
176
     1
170
     0
176
     1
171
     0
176
     1
290
     0
176
     1
 93
       13
176
     1
 44
0.0
176
     1
173
     0
176
     1
  0
VISUALSTYLE
  5
2E
102
{ACAD_REACTORS
330
2A
102
}
330
2A
100
AcDbVisualStyle
  2
GouraudWithEdges
 70
     3
177
     2
291
     1
 71
     2
176
     1
 72
     2
176
     1
 73
     1
176
     1
 90
        2
176
     1
 40
-0.6
176
     1
 41
30.0
176
     1
 62
     5
 63
     7
421
 16777215
176
     1
 74
     1
176
     1
 91
        4
176
     1
 64
     7
176
     1
 65
   257
176
     1
 75
     1
176
     1
175
     1
176
     1
 42
1.0
176
     1
 92
        0
176
     1
 66
   257
176
     1
 43
1.0
176
     1
 76
     1
176
     1
 77
     6
176
     1
 78
     2
176
     1
 67
     7
176
     1
 79
     5
176
     1
170
     0
176
     1
171
     0
176
     1
290
     0
176
     1
 93
       13
176
     1
 44
0.0
176
     1
173
     0
176
     1
  0
VISUALSTYLE
  5
38
102
{ACAD_REACTORS
330
2A
102
}
330
2A
100
AcDbVisualStyle
  2
Linepattern
 70
    14
177
     2
291
     1
 71
     2
176
     1
 72
     2
176
     1
 73
     0
176
     1
 90
        0
176
     1
 40
-0.6
176
     1
 41
-30.0
176
     1
 62
     5
 63
     7
421
 16777215
176
     1
 74
     1
176
     1
 91
        4
176
     1
 64
     7
176
     1
 65
   257
176
     1
 75
     7
176
     1
175
     7
176
     1
 42
1.0
176
     1
 92
        8
176
     1
 66
     7
176
     1
 43
1.0
176
     1
 76
     1
176
     1
 77
     6
176
     1
 78
     2
176
     1
 67
     7
176
     1
 79
     5
176
     1
170
     0
176
     1
171
     0
176
     1
290
     0
176
     1
 93
        1
176
     1
 44
0.0
176
     1
173
     0
176
     1
  0
VISUALSTYLE
  5
33
102
{ACAD_REACTORS
330
2A
102
}
330
2A
100
AcDbVisualStyle
  2
Realistic
 70
     8
177
     2
291
     0
 71
     2
176
     1
 72
     2
176
     1
 73
     0
176
     1
 90
        0
176
     1
 40
-0.6
176
     1
 41
-30.0
176
     1
 62
     5
 63
     7
421
 16777215
176
     1
 74
     1
176
     1
 91
        0
176
     1
 64
     7
176
     1
 65
   257
176
     1
 75
     1
176
     1
175
     1
176
     1
 42
1.0
176
     1
 92
        8
176
     1
 66
     8
424
  7895160
176
     1
 43
1.0
176
     1
 76
     1
176
     1
 77
     6
176
     1
 78
     2
176
     1
 67
     7
176
     1
 79
     5
176
     1
170
     0
176
     1
171
     0
176
     1
290
     0
176
     1
 93
       13
176
     1
 44
0.0
176
     1
173
     0
176
     1
  0
VISUALSTYLE
  5
37
102
{ACAD_REACTORS
330
2A
102
}
330
2A
100
AcDbVisualStyle
  2
Thicken
 70
    13
177
     2
291
     1
 71
     2
176
     1
 72
     2
176
     1
 73
     0
176
     1
 90
        0
176
     1
 40
-0.6
176
     1
 41
-30.0
176
     1
 62
     5
 63
     7
421
 16777215
176
     1
 74
     1
176
     1
 91
        4
176
     1
 64
     7
176
     1
 65
   257
176
     1
 75
     1
176
     1
175
     1
176
     1
 42
1.0
176
     1
 92
       12
176
     1
 66
     7
176
     1
 43
1.0
176
     1
 76
     1
176
     1
 77
     6
176
     1
 78
     2
176
     1
 67
     7
176
     1
 79
     5
176
     1
170
     0
176
     1
171
     0
176
     1
290
     0
176
     1
 93
        1
176
     1
 44
0.0
176
     1
173
     0
176
     1
  0
ENDSEC
  0
EOF
