  0
SECTION
  2
HEADER
  9
$ACADVER
  1
AC1024
  9
$ACADMAINTVER
 70
     6
  9
$DWGCODEPAGE
  3
ANSI_1252
  9
$INSBASE
 10
0.0
 20
0.0
 30
0.0
  9
$EXTMIN
 10
1.000000000000000E+20
 20
1.000000000000000E+20
 30
1.000000000000000E+20
  9
$EXTMAX
 10
-1.000000000000000E+20
 20
-1.000000000000000E+20
 30
-1.000000000000000E+20
  9
$LIMMIN
 10
0.0
 20
0.0
  9
$LIMMAX
 10
12.0
 20
9.0
  9
$ORTHOMODE
 70
     0
  9
$REGENMODE
 70
     1
  9
$FILLMODE
 70
     1
  9
$QTEXTMODE
 70
     0
  9
$MIRRTEXT
 70
     1
  9
$LTSCALE
 40
1.0
  9
$ATTMODE
 70
     1
  9
$TEXTSIZE
 40
0.2
  9
$TRACEWID
 40
0.05
  9
$TEXTSTYLE
  7
Standard
  9
$CLAYER
  8
0
  9
$CELTYPE
  6
ByLayer
  9
$CECOLOR
 62
   256
  9
$CELTSCALE
 40
1.0
  9
$DISPSILH
 70
     0
  9
$DIMSCALE
 40
1.0
  9
$DIMASZ
 40
0.18
  9
$DIMEXO
 40
0.0625
  9
$DIMDLI
 40
0.38
  9
$DIMRND
 40
0.0
  9
$DIMDLE
 40
0.0
  9
$DIMEXE
 40
0.18
  9
$DIMTP
 40
0.0
  9
$DIMTM
 40
0.0
  9
$DIMTXT
 40
0.18
  9
$DIMCEN
 40
0.09
  9
$DIMTSZ
 40
0.0
  9
$DIMTOL
 70
     0
  9
$DIMLIM
 70
     0
  9
$DIMTIH
 70
     1
  9
$DIMTOH
 70
     1
  9
$DIMSE1
 70
     0
  9
$DIMSE2
 70
     0
  9
$DIMTAD
 70
     0
  9
$DIMZIN
 70
     0
  9
$DIMBLK
  1

  9
$DIMASO
 70
     1
  9
$DIMSHO
 70
     1
  9
$DIMPOST
  1

  9
$DIMAPOST
  1

  9
$DIMALT
 70
     0
  9
$DIMALTD
 70
     2
  9
$DIMALTF
 40
25.4
  9
$DIMLFAC
 40
1.0
  9
$DIMTOFL
 70
     0
  9
$DIMTVP
 40
0.0
  9
$DIMTIX
 70
     0
  9
$DIMSOXD
 70
     0
  9
$DIMSAH
 70
     0
  9
$DIMBLK1
  1

  9
$DIMBLK2
  1

  9
$DIMSTYLE
  2
Standard
  9
$DIMCLRD
 70
     0
  9
$DIMCLRE
 70
     0
  9
$DIMCLRT
 70
     0
  9
$DIMTFAC
 40
1.0
  9
$DIMGAP
 40
0.09
  9
$DIMJUST
 70
     0
  9
$DIMSD1
 70
     0
  9
$DIMSD2
 70
     0
  9
$DIMTOLJ
 70
     1
  9
$DIMTZIN
 70
     0
  9
$DIMALTZ
 70
     0
  9
$DIMALTTZ
 70
     0
  9
$DIMUPT
 70
     0
  9
$DIMDEC
 70
     4
  9
$DIMTDEC
 70
     4
  9
$DIMALTU
 70
     2
  9
$DIMALTTD
 70
     2
  9
$DIMTXSTY
  7
Standard
  9
$DIMAUNIT
 70
     0
  9
$DIMADEC
 70
     0
  9
$DIMALTRND
 40
0.0
  9
$DIMAZIN
 70
     0
  9
$DIMDSEP
 70
    46
  9
$DIMATFIT
 70
     3
  9
$DIMFRAC
 70
     0
  9
$DIMLDRBLK
  1

  9
$DIMLUNIT
 70
     2
  9
$DIMLWD
 70
    -2
  9
$DIMLWE
 70
    -2
  9
$DIMTMOVE
 70
     0
  9
$DIMFXL
 40
1.0
  9
$DIMFXLON
 70
     0
  9
$DIMJOGANG
 40
0.7853981633974483
  9
$DIMTFILL
 70
     0
  9
$DIMTFILLCLR
 70
     0
  9
$DIMARCSYM
 70
     0
  9
$DIMLTYPE
  6

  9
$DIMLTEX1
  6

  9
$DIMLTEX2
  6

  9
$DIMTXTDIRECTION
 70
     0
  9
$LUNITS
 70
     2
  9
$LUPREC
 70
     4
  9
$SKETCHINC
 40
0.1
  9
$FILLETRAD
 40
0.5
  9
$AUNITS
 70
     0
  9
$AUPREC
 70
     0
  9
$MENU
  1
.
  9
$ELEVATION
 40
0.0
  9
$PELEVATION
 40
0.0
  9
$THICKNESS
 40
0.0
  9
$LIMCHECK
 70
     0
  9
$CHAMFERA
 40
0.5
  9
$CHAMFERB
 40
0.5
  9
$CHAMFERC
 40
1.0
  9
$CHAMFERD
 40
0.0
  9
$SKPOLY
 70
     0
  9
$TDCREATE
 40
2456993.578889039
  9
$TDUCREATE
 40
2456993.141389039
  9
$TDUPDATE
 40
2456993.578889398
  9
$TDUUPDATE
 40
2456993.141389398
  9
$TDINDWG
 40
0.0000000116
  9
$TDUSRTIMER
 40
0.0000000116
  9
$USRTIMER
 70
     1
  9
$ANGBASE
 50
0.0
  9
$ANGDIR
 70
     0
  9
$PDMODE
 70
     0
  9
$PDSIZE
 40
0.0
  9
$PLINEWID
 40
0.0
  9
$SPLFRAME
 70
     0
  9
$SPLINETYPE
 70
     6
  9
$SPLINESEGS
 70
     8
  9
$HANDSEED
  5
4E3
  9
$SURFTAB1
 70
     6
  9
$SURFTAB2
 70
     6
  9
$SURFTYPE
 70
     6
  9
$SURFU
 70
     6
  9
$SURFV
 70
     6
  9
$UCSBASE
  2

  9
$UCSNAME
  2

  9
$UCSORG
 10
0.0
 20
0.0
 30
0.0
  9
$UCSXDIR
 10
1.0
 20
0.0
 30
0.0
  9
$UCSYDIR
 10
0.0
 20
1.0
 30
0.0
  9
$UCSORTHOREF
  2

  9
$UCSORTHOVIEW
 70
     0
  9
$UCSORGTOP
 10
0.0
 20
0.0
 30
0.0
  9
$UCSORGBOTTOM
 10
0.0
 20
0.0
 30
0.0
  9
$UCSORGLEFT
 10
0.0
 20
0.0
 30
0.0
  9
$UCSORGRIGHT
 10
0.0
 20
0.0
 30
0.0
  9
$UCSORGFRONT
 10
0.0
 20
0.0
 30
0.0
  9
$UCSORGBACK
 10
0.0
 20
0.0
 30
0.0
  9
$PUCSBASE
  2

  9
$PUCSNAME
  2

  9
$PUCSORG
 10
0.0
 20
0.0
 30
0.0
  9
$PUCSXDIR
 10
1.0
 20
0.0
 30
0.0
  9
$PUCSYDIR
 10
0.0
 20
1.0
 30
0.0
  9
$PUCSORTHOREF
  2

  9
$PUCSORTHOVIEW
 70
     0
  9
$PUCSORGTOP
 10
0.0
 20
0.0
 30
0.0
  9
$PUCSORGBOTTOM
 10
0.0
 20
0.0
 30
0.0
  9
$PUCSORGLEFT
 10
0.0
 20
0.0
 30
0.0
  9
$PUCSORGRIGHT
 10
0.0
 20
0.0
 30
0.0
  9
$PUCSORGFRONT
 10
0.0
 20
0.0
 30
0.0
  9
$PUCSORGBACK
 10
0.0
 20
0.0
 30
0.0
  9
$USERI1
 70
     0
  9
$USERI2
 70
     0
  9
$USERI3
 70
     0
  9
$USERI4
 70
     0
  9
$USERI5
 70
     0
  9
$USERR1
 40
0.0
  9
$USERR2
 40
0.0
  9
$USERR3
 40
0.0
  9
$USERR4
 40
0.0
  9
$USERR5
 40
0.0
  9
$WORLDVIEW
 70
     1
  9
$SHADEDGE
 70
     3
  9
$SHADEDIF
 70
    70
  9
$TILEMODE
 70
     1
  9
$MAXACTVP
 70
    64
  9
$PINSBASE
 10
0.0
 20
0.0
 30
0.0
  9
$PLIMCHECK
 70
     0
  9
$PEXTMIN
 10
1.000000000000000E+20
 20
1.000000000000000E+20
 30
1.000000000000000E+20
  9
$PEXTMAX
 10
-1.000000000000000E+20
 20
-1.000000000000000E+20
 30
-1.000000000000000E+20
  9
$PLIMMIN
 10
0.0
 20
0.0
  9
$PLIMMAX
 10
12.0
 20
9.0
  9
$UNITMODE
 70
     0
  9
$VISRETAIN
 70
     1
  9
$PLINEGEN
 70
     0
  9
$PSLTSCALE
 70
     1
  9
$TREEDEPTH
 70
  3020
  9
$CMLSTYLE
  2
Standard
  9
$CMLJUST
 70
     0
  9
$CMLSCALE
 40
1.0
  9
$PROXYGRAPHICS
 70
     1
  9
$MEASUREMENT
 70
     0
  9
$CELWEIGHT
370
    -1
  9
$ENDCAPS
280
     0
  9
$JOINSTYLE
280
     0
  9
$LWDISPLAY
290
     1
  9
$INSUNITS
 70
     1
  9
$HYPERLINKBASE
  1

  9
$STYLESHEET
  1

  9
$XEDIT
290
     1
  9
$CEPSNTYPE
380
     0
  9
$PSTYLEMODE
290
     1
  9
$FINGERPRINTGUID
  2
{99FFFD4A-EE1A-471B-921D-D9CB77EC445A}
  9
$VERSIONGUID
  2
{FAEB1C32-E019-11D5-929B-00C0DF256EC4}
  9
$EXTNAMES
290
     1
  9
$PSVPSCALE
 40
0.0
  9
$OLESTARTUP
290
     0
  9
$SORTENTS
280
   127
  9
$INDEXCTL
280
     0
  9
$HIDETEXT
280
     1
  9
$XCLIPFRAME
280
     2
  9
$HALOGAP
280
     0
  9
$OBSCOLOR
 70
   257
  9
$OBSLTYPE
280
     0
  9
$INTERSECTIONDISPLAY
280
     0
  9
$INTERSECTIONCOLOR
 70
   257
  9
$DIMASSOC
280
     2
  9
$PROJECTNAME
  1

  9
$CAMERADISPLAY
290
     0
  9
$LENSLENGTH
 40
50.0
  9
$CAMERAHEIGHT
 40
0.0
  9
$STEPSPERSEC
 40
2.0
  9
$STEPSIZE
 40
6.0
  9
$3DDWFPREC
 40
2.0
  9
$PSOLWIDTH
 40
0.25
  9
$PSOLHEIGHT
 40
4.0
  9
$LOFTANG1
 40
1.570796326794897
  9
$LOFTANG2
 40
1.570796326794897
  9
$LOFTMAG1
 40
0.0
  9
$LOFTMAG2
 40
0.0
  9
$LOFTPARAM
 70
     7
  9
$LOFTNORMALS
280
     1
  9
$LATITUDE
 40
37.795
  9
$LONGITUDE
 40
-122.394
  9
$NORTHDIRECTION
 40
0.0
  9
$TIMEZONE
 70
 -8000
  9
$LIGHTGLYPHDISPLAY
280
     1
  9
$TILEMODELIGHTSYNCH
280
     1
  9
$CMATERIAL
347
3C
  9
$SOLIDHIST
280
     1
  9
$SHOWHIST
280
     1
  9
$DWFFRAME
280
     2
  9
$DGNFRAME
280
     2
  9
$REALWORLDSCALE
290
     1
  9
$INTERFERECOLOR
 62
   256
  9
$CSHADOW
280
     0
  9
$SHADOWPLANELOCATION
 40
0.0
  0
ENDSEC
  0
SECTION
  2
CLASSES
  0
CLASS
  1
ACDBDICTIONARYWDFLT
  2
AcDbDictionaryWithDefault
  3
ObjectDBX Classes
 90
        0
 91
        4
280
     0
281
     0
  0
CLASS
  1
VISUALSTYLE
  2
AcDbVisualStyle
  3
ObjectDBX Classes
 90
     4095
 91
        4
280
     0
281
     0
  0
CLASS
  1
MATERIAL
  2
AcDbMaterial
  3
ObjectDBX Classes
 90
     1153
 91
        4
280
     0
281
     0
  0
CLASS
  1
SUN
  2
AcDbSun
  3
SCENEOE
 90
     1024
 91
        4
280
     0
281
     0
  0
ENDSEC
  0
SECTION
  2
TABLES
  0
TABLE
  2
VPORT
  5
8
330
0
100
AcDbSymbolTable
 70
     1
  0
VPORT
  5
29
330
8
100
AcDbSymbolTableRecord
100
AcDbViewportTableRecord
  2
*Active
 70
     0
 10
0.0
 20
0.0
 11
1.0
 21
1.0
 12
0.0
 22
0.0
 13
0.0
 23
0.0
 14
0.5
 24
0.5
 15
0.5
 25
0.5
 16
0.0
 26
0.0
 36
1.0
 17
130.3062070593395
 27
44.33445309829312
 37
0.0
 40
1333.233352996027
 41
0.914285714285714
 42
50.0
 43
0.0
 44
0.0
 50
0.0
 51
0.0
 71
     0
 72
   100
 73
     1
 74
     3
 75
     0
 76
     0
 77
     0
 78
     0
281
     0
 65
     1
110
0.0
120
0.0
130
0.0
111
1.0
121
0.0
131
0.0
112
0.0
122
1.0
132
0.0
 79
     0
146
0.0
 60
     3
 61
     5
292
     1
282
     1
141
0.0
142
0.0
 63
   250
361
3F
  0
ENDTAB
  0
TABLE
  2
LTYPE
  5
5
330
0
100
AcDbSymbolTable
 70
     1
  0
LTYPE
  5
14
330
5
100
AcDbSymbolTableRecord
100
AcDbLinetypeTableRecord
  2
ByBlock
 70
     0
  3

 72
    65
 73
     0
 40
0.0
  0
LTYPE
  5
15
330
5
100
AcDbSymbolTableRecord
100
AcDbLinetypeTableRecord
  2
ByLayer
 70
     0
  3

 72
    65
 73
     0
 40
0.0
  0
LTYPE
  5
16
330
5
100
AcDbSymbolTableRecord
100
AcDbLinetypeTableRecord
  2
Continuous
 70
     0
  3
Solid line
 72
    65
 73
     0
 40
0.0
  0
ENDTAB
  0
TABLE
  2
LAYER
  5
2
330
0
100
AcDbSymbolTable
 70
     2
  0
LAYER
  5
10
330
2
100
AcDbSymbolTableRecord
100
AcDbLayerTableRecord
  2
0
 70
     0
 62
     7
  6
Continuous
370
    -3
390
F
347
3E
  0
LAYER
  5
40
330
2
100
AcDbSymbolTableRecord
100
AcDbLayerTableRecord
  2
Layer 1
 70
     0
 62
     7
  6
Continuous
370
    -3
390
F
347
3E
  0
ENDTAB
  0
TABLE
  2
STYLE
  5
3
330
0
100
AcDbSymbolTable
 70
     1
  0
STYLE
  5
11
330
3
100
AcDbSymbolTableRecord
100
AcDbTextStyleTableRecord
  2
Standard
 70
     0
 40
0.0
 41
1.0
 50
0.0
 71
     0
 42
0.2
  3
txt
  4

  0
ENDTAB
  0
TABLE
  2
VIEW
  5
6
330
0
100
AcDbSymbolTable
 70
     0
  0
ENDTAB
  0
TABLE
  2
UCS
  5
7
330
0
100
AcDbSymbolTable
 70
     0
  0
ENDTAB
  0
TABLE
  2
APPID
  5
9
330
0
100
AcDbSymbolTable
 70
     1
  0
APPID
  5
12
330
9
100
AcDbSymbolTableRecord
100
AcDbRegAppTableRecord
  2
ACAD
 70
     0
  0
ENDTAB
  0
TABLE
  2
DIMSTYLE
  5
A
330
0
100
AcDbSymbolTable
 70
     1
100
AcDbDimStyleTable
  0
DIMSTYLE
105
27
330
A
100
AcDbSymbolTableRecord
100
AcDbDimStyleTableRecord
  2
Standard
 70
     0
178
     0
340
11
  0
ENDTAB
  0
TABLE
  2
BLOCK_RECORD
  5
1
330
0
100
AcDbSymbolTable
 70
    51
  0
BLOCK_RECORD
  5
1F
330
1
100
AcDbSymbolTableRecord
100
AcDbBlockTableRecord
  2
*Model_Space
340
22
 70
     0
280
     1
281
     0
  0
BLOCK_RECORD
  5
1B
330
1
100
AcDbSymbolTableRecord
100
AcDbBlockTableRecord
  2
*Paper_Space
340
1E
 70
     0
280
     1
281
     0
  0
BLOCK_RECORD
  5
23
330
1
100
AcDbSymbolTableRecord
100
AcDbBlockTableRecord
  2
*Paper_Space0
340
26
 70
     0
280
     1
281
     0
  0
BLOCK_RECORD
  5
319
330
1
100
AcDbSymbolTableRecord
100
AcDbBlockTableRecord
  2
block 2
340
0
102
{BLKREFS
331
31A
102
}
 70
     0
280
     1
281
     0
  0
BLOCK_RECORD
  5
321
330
1
100
AcDbSymbolTableRecord
100
AcDbBlockTableRecord
  2
block 3
340
0
102
{BLKREFS
331
322
102
}
 70
     0
280
     1
281
     0
  0
BLOCK_RECORD
  5
32C
330
1
100
AcDbSymbolTableRecord
100
AcDbBlockTableRecord
  2
block 4
340
0
102
{BLKREFS
331
32D
102
}
 70
     0
280
     1
281
     0
  0
BLOCK_RECORD
  5
334
330
1
100
AcDbSymbolTableRecord
100
AcDbBlockTableRecord
  2
block 5
340
0
102
{BLKREFS
331
335
102
}
 70
     0
280
     1
281
     0
  0
BLOCK_RECORD
  5
33F
330
1
100
AcDbSymbolTableRecord
100
AcDbBlockTableRecord
  2
block 6
340
0
102
{BLKREFS
331
340
102
}
 70
     0
280
     1
281
     0
  0
BLOCK_RECORD
  5
347
330
1
100
AcDbSymbolTableRecord
100
AcDbBlockTableRecord
  2
block 7
340
0
102
{BLKREFS
331
348
102
}
 70
     0
280
     1
281
     0
  0
BLOCK_RECORD
  5
352
330
1
100
AcDbSymbolTableRecord
100
AcDbBlockTableRecord
  2
block 8
340
0
102
{BLKREFS
331
353
102
}
 70
     0
280
     1
281
     0
  0
BLOCK_RECORD
  5
35A
330
1
100
AcDbSymbolTableRecord
100
AcDbBlockTableRecord
  2
block 9
340
0
102
{BLKREFS
331
35B
102
}
 70
     0
280
     1
281
     0
  0
BLOCK_RECORD
  5
365
330
1
100
AcDbSymbolTableRecord
100
AcDbBlockTableRecord
  2
block 10
340
0
102
{BLKREFS
331
366
102
}
 70
     0
280
     1
281
     0
  0
BLOCK_RECORD
  5
36D
330
1
100
AcDbSymbolTableRecord
100
AcDbBlockTableRecord
  2
block 11
340
0
102
{BLKREFS
331
36E
102
}
 70
     0
280
     1
281
     0
  0
BLOCK_RECORD
  5
378
330
1
100
AcDbSymbolTableRecord
100
AcDbBlockTableRecord
  2
block 12
340
0
102
{BLKREFS
331
379
102
}
 70
     0
280
     1
281
     0
  0
BLOCK_RECORD
  5
380
330
1
100
AcDbSymbolTableRecord
100
AcDbBlockTableRecord
  2
block 13
340
0
102
{BLKREFS
331
381
102
}
 70
     0
280
     1
281
     0
  0
BLOCK_RECORD
  5
38C
330
1
100
AcDbSymbolTableRecord
100
AcDbBlockTableRecord
  2
block 14
340
0
102
{BLKREFS
331
38D
102
}
 70
     0
280
     1
281
     0
  0
BLOCK_RECORD
  5
395
330
1
100
AcDbSymbolTableRecord
100
AcDbBlockTableRecord
  2
block 15
340
0
102
{BLKREFS
331
396
102
}
 70
     0
280
     1
281
     0
  0
BLOCK_RECORD
  5
3BC
330
1
100
AcDbSymbolTableRecord
100
AcDbBlockTableRecord
  2
block 16
340
0
102
{BLKREFS
331
3BD
102
}
 70
     0
280
     1
281
     0
  0
BLOCK_RECORD
  5
3C4
330
1
100
AcDbSymbolTableRecord
100
AcDbBlockTableRecord
  2
block 17
340
0
102
{BLKREFS
331
3C5
102
}
 70
     0
280
     1
281
     0
  0
BLOCK_RECORD
  5
3CF
330
1
100
AcDbSymbolTableRecord
100
AcDbBlockTableRecord
  2
block 18
340
0
102
{BLKREFS
331
3D0
102
}
 70
     0
280
     1
281
     0
  0
BLOCK_RECORD
  5
3D7
330
1
100
AcDbSymbolTableRecord
100
AcDbBlockTableRecord
  2
block 19
340
0
102
{BLKREFS
331
3D8
102
}
 70
     0
280
     1
281
     0
  0
BLOCK_RECORD
  5
3E2
330
1
100
AcDbSymbolTableRecord
100
AcDbBlockTableRecord
  2
block 20
340
0
102
{BLKREFS
331
3E3
102
}
 70
     0
280
     1
281
     0
  0
BLOCK_RECORD
  5
3EA
330
1
100
AcDbSymbolTableRecord
100
AcDbBlockTableRecord
  2
block 21
340
0
102
{BLKREFS
331
3EB
102
}
 70
     0
280
     1
281
     0
  0
BLOCK_RECORD
  5
3F5
330
1
100
AcDbSymbolTableRecord
100
AcDbBlockTableRecord
  2
block 22
340
0
102
{BLKREFS
331
3F6
102
}
 70
     0
280
     1
281
     0
  0
BLOCK_RECORD
  5
3FD
330
1
100
AcDbSymbolTableRecord
100
AcDbBlockTableRecord
  2
block 23
340
0
102
{BLKREFS
331
3FE
102
}
 70
     0
280
     1
281
     0
  0
BLOCK_RECORD
  5
408
330
1
100
AcDbSymbolTableRecord
100
AcDbBlockTableRecord
  2
block 24
340
0
102
{BLKREFS
331
409
102
}
 70
     0
280
     1
281
     0
  0
BLOCK_RECORD
  5
410
330
1
100
AcDbSymbolTableRecord
100
AcDbBlockTableRecord
  2
block 25
340
0
102
{BLKREFS
331
411
102
}
 70
     0
280
     1
281
     0
  0
BLOCK_RECORD
  5
41B
330
1
100
AcDbSymbolTableRecord
100
AcDbBlockTableRecord
  2
block 26
340
0
102
{BLKREFS
331
41C
102
}
 70
     0
280
     1
281
     0
  0
BLOCK_RECORD
  5
423
330
1
100
AcDbSymbolTableRecord
100
AcDbBlockTableRecord
  2
block 27
340
0
102
{BLKREFS
331
424
102
}
 70
     0
280
     1
281
     0
  0
BLOCK_RECORD
  5
42E
330
1
100
AcDbSymbolTableRecord
100
AcDbBlockTableRecord
  2
block 28
340
0
102
{BLKREFS
331
42F
102
}
 70
     0
280
     1
281
     0
  0
BLOCK_RECORD
  5
436
330
1
100
AcDbSymbolTableRecord
100
AcDbBlockTableRecord
  2
block 29
340
0
102
{BLKREFS
331
437
102
}
 70
     0
280
     1
281
     0
  0
BLOCK_RECORD
  5
441
330
1
100
AcDbSymbolTableRecord
100
AcDbBlockTableRecord
  2
block 30
340
0
102
{BLKREFS
331
442
102
}
 70
     0
280
     1
281
     0
  0
BLOCK_RECORD
  5
449
330
1
100
AcDbSymbolTableRecord
100
AcDbBlockTableRecord
  2
block 31
340
0
102
{BLKREFS
331
44A
102
}
 70
     0
280
     1
281
     0
  0
BLOCK_RECORD
  5
45D
330
1
100
AcDbSymbolTableRecord
100
AcDbBlockTableRecord
  2
block 32
340
0
102
{BLKREFS
331
45E
102
}
 70
     0
280
     1
281
     0
  0
BLOCK_RECORD
  5
465
330
1
100
AcDbSymbolTableRecord
100
AcDbBlockTableRecord
  2
block 33
340
0
102
{BLKREFS
331
466
102
}
 70
     0
280
     1
281
     0
  0
BLOCK_RECORD
  5
470
330
1
100
AcDbSymbolTableRecord
100
AcDbBlockTableRecord
  2
block 34
340
0
102
{BLKREFS
331
471
102
}
 70
     0
280
     1
281
     0
  0
BLOCK_RECORD
  5
478
330
1
100
AcDbSymbolTableRecord
100
AcDbBlockTableRecord
  2
block 35
340
0
102
{BLKREFS
331
479
102
}
 70
     0
280
     1
281
     0
  0
BLOCK_RECORD
  5
483
330
1
100
AcDbSymbolTableRecord
100
AcDbBlockTableRecord
  2
block 36
340
0
102
{BLKREFS
331
484
102
}
 70
     0
280
     1
281
     0
  0
BLOCK_RECORD
  5
488
330
1
100
AcDbSymbolTableRecord
100
AcDbBlockTableRecord
  2
block 37
340
0
102
{BLKREFS
331
489
102
}
 70
     0
280
     1
281
     0
  0
BLOCK_RECORD
  5
48D
330
1
100
AcDbSymbolTableRecord
100
AcDbBlockTableRecord
  2
block 38
340
0
102
{BLKREFS
331
48E
102
}
 70
     0
280
     1
281
     0
  0
BLOCK_RECORD
  5
493
330
1
100
AcDbSymbolTableRecord
100
AcDbBlockTableRecord
  2
block 39
340
0
102
{BLKREFS
331
494
102
}
 70
     0
280
     1
281
     0
  0
BLOCK_RECORD
  5
498
330
1
100
AcDbSymbolTableRecord
100
AcDbBlockTableRecord
  2
block 40
340
0
102
{BLKREFS
331
499
102
}
 70
     0
280
     1
281
     0
  0
BLOCK_RECORD
  5
49D
330
1
100
AcDbSymbolTableRecord
100
AcDbBlockTableRecord
  2
block 41
340
0
102
{BLKREFS
331
49E
102
}
 70
     0
280
     1
281
     0
  0
BLOCK_RECORD
  5
4A2
330
1
100
AcDbSymbolTableRecord
100
AcDbBlockTableRecord
  2
block 42
340
0
102
{BLKREFS
331
4A3
102
}
 70
     0
280
     1
281
     0
  0
BLOCK_RECORD
  5
4A7
330
1
100
AcDbSymbolTableRecord
100
AcDbBlockTableRecord
  2
block 43
340
0
102
{BLKREFS
331
4A8
102
}
 70
     0
280
     1
281
     0
  0
BLOCK_RECORD
  5
4AC
330
1
100
AcDbSymbolTableRecord
100
AcDbBlockTableRecord
  2
block 44
340
0
102
{BLKREFS
331
4AD
102
}
 70
     0
280
     1
281
     0
  0
BLOCK_RECORD
  5
4B1
330
1
100
AcDbSymbolTableRecord
100
AcDbBlockTableRecord
  2
block 45
340
0
102
{BLKREFS
331
4B2
102
}
 70
     0
280
     1
281
     0
  0
BLOCK_RECORD
  5
4B6
330
1
100
AcDbSymbolTableRecord
100
AcDbBlockTableRecord
  2
block 46
340
0
102
{BLKREFS
331
4B7
102
}
 70
     0
280
     1
281
     0
  0
BLOCK_RECORD
  5
4C2
330
1
100
AcDbSymbolTableRecord
100
AcDbBlockTableRecord
  2
block 47
340
0
102
{BLKREFS
331
4C3
102
}
 70
     0
280
     1
281
     0
  0
BLOCK_RECORD
  5
4C7
330
1
100
AcDbSymbolTableRecord
100
AcDbBlockTableRecord
  2
block 48
340
0
102
{BLKREFS
331
4C8
102
}
 70
     0
280
     1
281
     0
  0
BLOCK_RECORD
  5
4CC
330
1
100
AcDbSymbolTableRecord
100
AcDbBlockTableRecord
  2
block 49
340
0
102
{BLKREFS
331
4CD
102
}
 70
     0
280
     1
281
     0
  0
BLOCK_RECORD
  5
4D1
330
1
100
AcDbSymbolTableRecord
100
AcDbBlockTableRecord
  2
block 50
340
0
102
{BLKREFS
331
4D2
102
}
 70
     0
280
     1
281
     0
  0
BLOCK_RECORD
  5
4D6
330
1
100
AcDbSymbolTableRecord
100
AcDbBlockTableRecord
  2
block 51
340
0
102
{BLKREFS
331
4D7
102
}
 70
     0
280
     1
281
     0
  0
ENDTAB
  0
ENDSEC
  0
SECTION
  2
BLOCKS
  0
BLOCK
  5
20
330
1F
100
AcDbEntity
  8
0
100
AcDbBlockBegin
  2
*Model_Space
 70
     0
 10
0.0
 20
0.0
 30
0.0
  3
*Model_Space
  1

  0
ENDBLK
  5
21
330
1F
100
AcDbEntity
  8
0
100
AcDbBlockEnd
  0
BLOCK
  5
1C
330
1B
100
AcDbEntity
 67
     1
  8
0
100
AcDbBlockBegin
  2
*Paper_Space
 70
     0
 10
0.0
 20
0.0
 30
0.0
  3
*Paper_Space
  1

  0
ENDBLK
  5
1D
330
1B
100
AcDbEntity
 67
     1
  8
0
100
AcDbBlockEnd
  0
BLOCK
  5
24
330
23
100
AcDbEntity
  8
0
100
AcDbBlockBegin
  2
*Paper_Space0
 70
     0
 10
0.0
 20
0.0
 30
0.0
  3
*Paper_Space0
  1

  0
ENDBLK
  5
25
330
23
100
AcDbEntity
  8
0
100
AcDbBlockEnd
  0
BLOCK
  5
31B
330
319
100
AcDbEntity
  8
0
100
AcDbBlockBegin
  2
block 2
 70
     0
 10
0.0
 20
0.0
 30
0.0
  3
block 2
  1

  0
POLYLINE
  5
31D
330
319
100
AcDbEntity
  8
Layer 1
 62
     7
420
 16777215
370
    20
100
AcDb2dPolyline
 66
     1
 10
0.0
 20
0.0
 30
0.0
  0
VERTEX
  5
31E
330
31D
100
AcDbEntity
  8
Layer 1
 62
     7
420
 16777215
370
    20
100
AcDbVertex
100
AcDb2dVertex
 10
-276.0322799111921
 20
554.5630527857861
 30
0.0
  0
VERTEX
  5
31F
330
31D
100
AcDbEntity
  8
Layer 1
 62
     7
420
 16777215
370
    20
100
AcDbVertex
100
AcDb2dVertex
 10
-276.0322799111921
 20
400.4007491117611
 30
0.0
  0
SEQEND
  5
320
330
31D
100
AcDbEntity
  8
Layer 1
 62
     7
420
 16777215
370
    20
  0
INSERT
  5
322
330
319
100
AcDbEntity
  8
Layer 1
100
AcDbBlockReference
  2
block 3
 10
0.0
 20
0.0
 30
0.0
  0
ENDBLK
  5
31C
330
319
100
AcDbEntity
  8
0
100
AcDbBlockEnd
  0
BLOCK
  5
323
330
321
100
AcDbEntity
  8
0
100
AcDbBlockBegin
  2
block 3
 70
     0
 10
0.0
 20
0.0
 30
0.0
  3
block 3
  1

  0
POLYLINE
  5
325
330
321
100
AcDbEntity
  8
Layer 1
370
     0
100
AcDb2dPolyline
 66
     1
 10
0.0
 20
0.0
 30
0.0
  0
VERTEX
  5
326
330
325
100
AcDbEntity
  8
Layer 1
370
     0
100
AcDbVertex
100
AcDb2dVertex
 10
-280.0603609908868
 20
551.8158069665652
 30
0.0
  0
VERTEX
  5
327
330
325
100
AcDbEntity
  8
Layer 1
370
     0
100
AcDbVertex
100
AcDb2dVertex
 10
-276.0322799111921
 20
566.8463239463154
 30
0.0
  0
VERTEX
  5
328
330
325
100
AcDbEntity
  8
Layer 1
370
     0
100
AcDbVertex
100
AcDb2dVertex
 10
-272.0042174897819
 20
551.8158069665652
 30
0.0
  0
VERTEX
  5
329
330
325
100
AcDbEntity
  8
Layer 1
370
     0
100
AcDbVertex
100
AcDb2dVertex
 10
-280.0603609908868
 20
551.8158069665652
 30
0.0
  0
SEQEND
  5
32B
330
325
100
AcDbEntity
  8
Layer 1
370
     0
  0
HATCH
  5
32A
330
321
100
AcDbEntity
  8
Layer 1
 62
     7
420
 16777215
100
AcDbHatch
 10
0.0
 20
0.0
 30
0.0
210
0.0
220
0.0
230
1.0
  2
SOLID
 70
     1
 71
     0
 91
        1
 92
        1
 93
        3
 72
     1
 10
-280.0603609908868
 20
551.8158069665652
 11
-276.0322799111921
 21
566.8463239463154
 72
     1
 10
-276.0322799111921
 20
566.8463239463154
 11
-272.0042174897819
 21
551.8158069665652
 72
     1
 10
-272.0042174897819
 20
551.8158069665652
 11
-280.0603609908868
 21
551.8158069665652
 97
        0
 75
     2
 76
     1
 98
        0
  0
ENDBLK
  5
324
330
321
100
AcDbEntity
  8
0
100
AcDbBlockEnd
  0
BLOCK
  5
32E
330
32C
100
AcDbEntity
  8
0
100
AcDbBlockBegin
  2
block 4
 70
     0
 10
0.0
 20
0.0
 30
0.0
  3
block 4
  1

  0
POLYLINE
  5
330
330
32C
100
AcDbEntity
  8
Layer 1
 62
     7
420
 16777215
370
    20
100
AcDb2dPolyline
 66
     1
 10
0.0
 20
0.0
 30
0.0
  0
VERTEX
  5
331
330
330
100
AcDbEntity
  8
Layer 1
 62
     7
420
 16777215
370
    20
100
AcDbVertex
100
AcDb2dVertex
 10
-228.5675071250911
 20
601.2313593786979
 30
0.0
  0
VERTEX
  5
332
330
330
100
AcDbEntity
  8
Layer 1
 62
     7
420
 16777215
370
    20
100
AcDbVertex
100
AcDb2dVertex
 10
-228.5675071250911
 20
566.7551721341277
 30
0.0
  0
SEQEND
  5
333
330
330
100
AcDbEntity
  8
Layer 1
 62
     7
420
 16777215
370
    20
  0
INSERT
  5
335
330
32C
100
AcDbEntity
  8
Layer 1
100
AcDbBlockReference
  2
block 5
 10
0.0
 20
0.0
 30
0.0
  0
ENDBLK
  5
32F
330
32C
100
AcDbEntity
  8
0
100
AcDbBlockEnd
  0
BLOCK
  5
336
330
334
100
AcDbEntity
  8
0
100
AcDbBlockBegin
  2
block 5
 70
     0
 10
0.0
 20
0.0
 30
0.0
  3
block 5
  1

  0
POLYLINE
  5
338
330
334
100
AcDbEntity
  8
Layer 1
370
     0
100
AcDb2dPolyline
 66
     1
 10
0.0
 20
0.0
 30
0.0
  0
VERTEX
  5
339
330
338
100
AcDbEntity
  8
Layer 1
370
     0
100
AcDbVertex
100
AcDb2dVertex
 10
-232.5955882047858
 20
598.484113559477
 30
0.0
  0
VERTEX
  5
33A
330
338
100
AcDbEntity
  8
Layer 1
370
     0
100
AcDbVertex
100
AcDb2dVertex
 10
-228.5675071250911
 20
613.5146305392271
 30
0.0
  0
VERTEX
  5
33B
330
338
100
AcDbEntity
  8
Layer 1
370
     0
100
AcDbVertex
100
AcDb2dVertex
 10
-224.5394447036812
 20
598.484113559477
 30
0.0
  0
VERTEX
  5
33C
330
338
100
AcDbEntity
  8
Layer 1
370
     0
100
AcDbVertex
100
AcDb2dVertex
 10
-232.5955882047858
 20
598.484113559477
 30
0.0
  0
SEQEND
  5
33E
330
338
100
AcDbEntity
  8
Layer 1
370
     0
  0
HATCH
  5
33D
330
334
100
AcDbEntity
  8
Layer 1
 62
     7
420
 16777215
100
AcDbHatch
 10
0.0
 20
0.0
 30
0.0
210
0.0
220
0.0
230
1.0
  2
SOLID
 70
     1
 71
     0
 91
        1
 92
        1
 93
        3
 72
     1
 10
-232.5955882047858
 20
598.484113559477
 11
-228.5675071250911
 21
613.5146305392271
 72
     1
 10
-228.5675071250911
 20
613.5146305392271
 11
-224.5394447036812
 21
598.484113559477
 72
     1
 10
-224.5394447036812
 20
598.484113559477
 11
-232.5955882047858
 21
598.484113559477
 97
        0
 75
     2
 76
     1
 98
        0
  0
ENDBLK
  5
337
330
334
100
AcDbEntity
  8
0
100
AcDbBlockEnd
  0
BLOCK
  5
341
330
33F
100
AcDbEntity
  8
0
100
AcDbBlockBegin
  2
block 6
 70
     0
 10
0.0
 20
0.0
 30
0.0
  3
block 6
  1

  0
POLYLINE
  5
343
330
33F
100
AcDbEntity
  8
Layer 1
 62
     7
420
 16777215
370
    20
100
AcDb2dPolyline
 66
     1
 10
0.0
 20
0.0
 30
0.0
  0
VERTEX
  5
344
330
343
100
AcDbEntity
  8
Layer 1
 62
     7
420
 16777215
370
    20
100
AcDbVertex
100
AcDb2dVertex
 10
-228.5675071250911
 20
457.2912021442596
 30
0.0
  0
VERTEX
  5
345
330
343
100
AcDbEntity
  8
Layer 1
 62
     7
420
 16777215
370
    20
100
AcDbVertex
100
AcDb2dVertex
 10
-228.5675071250911
 20
484.7307037138403
 30
0.0
  0
SEQEND
  5
346
330
343
100
AcDbEntity
  8
Layer 1
 62
     7
420
 16777215
370
    20
  0
INSERT
  5
348
330
33F
100
AcDbEntity
  8
Layer 1
100
AcDbBlockReference
  2
block 7
 10
0.0
 20
0.0
 30
0.0
  0
ENDBLK
  5
342
330
33F
100
AcDbEntity
  8
0
100
AcDbBlockEnd
  0
BLOCK
  5
349
330
347
100
AcDbEntity
  8
0
100
AcDbBlockBegin
  2
block 7
 70
     0
 10
0.0
 20
0.0
 30
0.0
  3
block 7
  1

  0
POLYLINE
  5
34B
330
347
100
AcDbEntity
  8
Layer 1
370
     0
100
AcDb2dPolyline
 66
     1
 10
0.0
 20
0.0
 30
0.0
  0
VERTEX
  5
34C
330
34B
100
AcDbEntity
  8
Layer 1
370
     0
100
AcDbVertex
100
AcDb2dVertex
 10
-224.5394260453964
 20
460.0384479634805
 30
0.0
  0
VERTEX
  5
34D
330
34B
100
AcDbEntity
  8
Layer 1
370
     0
100
AcDbVertex
100
AcDb2dVertex
 10
-228.5675071250911
 20
445.0079309837304
 30
0.0
  0
VERTEX
  5
34E
330
34B
100
AcDbEntity
  8
Layer 1
370
     0
100
AcDbVertex
100
AcDb2dVertex
 10
-232.5955695465013
 20
460.0384479634805
 30
0.0
  0
VERTEX
  5
34F
330
34B
100
AcDbEntity
  8
Layer 1
370
     0
100
AcDbVertex
100
AcDb2dVertex
 10
-224.5394260453964
 20
460.0384479634805
 30
0.0
  0
SEQEND
  5
351
330
34B
100
AcDbEntity
  8
Layer 1
370
     0
  0
HATCH
  5
350
330
347
100
AcDbEntity
  8
Layer 1
 62
     7
420
 16777215
100
AcDbHatch
 10
0.0
 20
0.0
 30
0.0
210
0.0
220
0.0
230
1.0
  2
SOLID
 70
     1
 71
     0
 91
        1
 92
        1
 93
        3
 72
     1
 10
-224.5394260453964
 20
460.0384479634805
 11
-228.5675071250911
 21
445.0079309837304
 72
     1
 10
-228.5675071250911
 20
445.0079309837304
 11
-232.5955695465013
 21
460.0384479634805
 72
     1
 10
-232.5955695465013
 20
460.0384479634805
 11
-224.5394260453964
 21
460.0384479634805
 97
        0
 75
     2
 76
     1
 98
        0
  0
ENDBLK
  5
34A
330
347
100
AcDbEntity
  8
0
100
AcDbBlockEnd
  0
BLOCK
  5
354
330
352
100
AcDbEntity
  8
0
100
AcDbBlockBegin
  2
block 8
 70
     0
 10
0.0
 20
0.0
 30
0.0
  3
block 8
  1

  0
POLYLINE
  5
356
330
352
100
AcDbEntity
  8
Layer 1
 62
     7
420
 16777215
370
    20
100
AcDb2dPolyline
 66
     1
 10
0.0
 20
0.0
 30
0.0
  0
VERTEX
  5
357
330
356
100
AcDbEntity
  8
Layer 1
 62
     7
420
 16777215
370
    20
100
AcDbVertex
100
AcDb2dVertex
 10
-276.0322985694766
 20
173.1487438032491
 30
0.0
  0
VERTEX
  5
358
330
356
100
AcDbEntity
  8
Layer 1
 62
     7
420
 16777215
370
    20
100
AcDbVertex
100
AcDb2dVertex
 10
-276.0322985694766
 20
331.4744384366277
 30
0.0
  0
SEQEND
  5
359
330
356
100
AcDbEntity
  8
Layer 1
 62
     7
420
 16777215
370
    20
  0
INSERT
  5
35B
330
352
100
AcDbEntity
  8
Layer 1
100
AcDbBlockReference
  2
block 9
 10
0.0
 20
0.0
 30
0.0
  0
ENDBLK
  5
355
330
352
100
AcDbEntity
  8
0
100
AcDbBlockEnd
  0
BLOCK
  5
35C
330
35A
100
AcDbEntity
  8
0
100
AcDbBlockBegin
  2
block 9
 70
     0
 10
0.0
 20
0.0
 30
0.0
  3
block 9
  1

  0
POLYLINE
  5
35E
330
35A
100
AcDbEntity
  8
Layer 1
370
     0
100
AcDb2dPolyline
 66
     1
 10
0.0
 20
0.0
 30
0.0
  0
VERTEX
  5
35F
330
35E
100
AcDbEntity
  8
Layer 1
370
     0
100
AcDbVertex
100
AcDb2dVertex
 10
-272.0042361480667
 20
175.8959896224706
 30
0.0
  0
VERTEX
  5
360
330
35E
100
AcDbEntity
  8
Layer 1
370
     0
100
AcDbVertex
100
AcDb2dVertex
 10
-276.0322985694766
 20
160.8656219089962
 30
0.0
  0
VERTEX
  5
361
330
35E
100
AcDbEntity
  8
Layer 1
370
     0
100
AcDbVertex
100
AcDb2dVertex
 10
-280.0603796491712
 20
175.8959896224706
 30
0.0
  0
VERTEX
  5
362
330
35E
100
AcDbEntity
  8
Layer 1
370
     0
100
AcDbVertex
100
AcDb2dVertex
 10
-272.0042361480667
 20
175.8959896224706
 30
0.0
  0
SEQEND
  5
364
330
35E
100
AcDbEntity
  8
Layer 1
370
     0
  0
HATCH
  5
363
330
35A
100
AcDbEntity
  8
Layer 1
 62
     7
420
 16777215
100
AcDbHatch
 10
0.0
 20
0.0
 30
0.0
210
0.0
220
0.0
230
1.0
  2
SOLID
 70
     1
 71
     0
 91
        1
 92
        1
 93
        3
 72
     1
 10
-272.0042361480667
 20
175.8959896224706
 11
-276.0322985694766
 21
160.8656219089962
 72
     1
 10
-276.0322985694766
 20
160.8656219089962
 11
-280.0603796491712
 21
175.8959896224706
 72
     1
 10
-280.0603796491712
 20
175.8959896224706
 11
-272.0042361480667
 21
175.8959896224706
 97
        0
 75
     2
 76
     1
 98
        0
  0
ENDBLK
  5
35D
330
35A
100
AcDbEntity
  8
0
100
AcDbBlockEnd
  0
BLOCK
  5
367
330
365
100
AcDbEntity
  8
0
100
AcDbBlockBegin
  2
block 10
 70
     0
 10
0.0
 20
0.0
 30
0.0
  3
block 10
  1

  0
POLYLINE
  5
369
330
365
100
AcDbEntity
  8
Layer 1
 62
     7
420
 16777215
370
    20
100
AcDb2dPolyline
 66
     1
 10
0.0
 20
0.0
 30
0.0
  0
VERTEX
  5
36A
330
369
100
AcDbEntity
  8
Layer 1
 62
     7
420
 16777215
370
    20
100
AcDbVertex
100
AcDb2dVertex
 10
-322.4982187497218
 20
601.2313593786979
 30
0.0
  0
VERTEX
  5
36B
330
369
100
AcDbEntity
  8
Layer 1
 62
     7
420
 16777215
370
    20
100
AcDbVertex
100
AcDb2dVertex
 10
-322.4982187497218
 20
400.4007491117611
 30
0.0
  0
SEQEND
  5
36C
330
369
100
AcDbEntity
  8
Layer 1
 62
     7
420
 16777215
370
    20
  0
INSERT
  5
36E
330
365
100
AcDbEntity
  8
Layer 1
100
AcDbBlockReference
  2
block 11
 10
0.0
 20
0.0
 30
0.0
  0
ENDBLK
  5
368
330
365
100
AcDbEntity
  8
0
100
AcDbBlockEnd
  0
BLOCK
  5
36F
330
36D
100
AcDbEntity
  8
0
100
AcDbBlockBegin
  2
block 11
 70
     0
 10
0.0
 20
0.0
 30
0.0
  3
block 11
  1

  0
POLYLINE
  5
371
330
36D
100
AcDbEntity
  8
Layer 1
370
     0
100
AcDb2dPolyline
 66
     1
 10
0.0
 20
0.0
 30
0.0
  0
VERTEX
  5
372
330
371
100
AcDbEntity
  8
Layer 1
370
     0
100
AcDbVertex
100
AcDb2dVertex
 10
-326.526281171132
 20
598.484113559477
 30
0.0
  0
VERTEX
  5
373
330
371
100
AcDbEntity
  8
Layer 1
370
     0
100
AcDbVertex
100
AcDb2dVertex
 10
-322.4982187497218
 20
613.5146305392271
 30
0.0
  0
VERTEX
  5
374
330
371
100
AcDbEntity
  8
Layer 1
370
     0
100
AcDbVertex
100
AcDb2dVertex
 10
-318.4701563283123
 20
598.484113559477
 30
0.0
  0
VERTEX
  5
375
330
371
100
AcDbEntity
  8
Layer 1
370
     0
100
AcDbVertex
100
AcDb2dVertex
 10
-326.526281171132
 20
598.484113559477
 30
0.0
  0
SEQEND
  5
377
330
371
100
AcDbEntity
  8
Layer 1
370
     0
  0
HATCH
  5
376
330
36D
100
AcDbEntity
  8
Layer 1
 62
     7
420
 16777215
100
AcDbHatch
 10
0.0
 20
0.0
 30
0.0
210
0.0
220
0.0
230
1.0
  2
SOLID
 70
     1
 71
     0
 91
        1
 92
        1
 93
        3
 72
     1
 10
-326.526281171132
 20
598.484113559477
 11
-322.4982187497218
 21
613.5146305392271
 72
     1
 10
-322.4982187497218
 20
613.5146305392271
 11
-318.4701563283123
 21
598.484113559477
 72
     1
 10
-318.4701563283123
 20
598.484113559477
 11
-326.526281171132
 21
598.484113559477
 97
        0
 75
     2
 76
     1
 98
        0
  0
ENDBLK
  5
370
330
36D
100
AcDbEntity
  8
0
100
AcDbBlockEnd
  0
BLOCK
  5
37A
330
378
100
AcDbEntity
  8
0
100
AcDbBlockBegin
  2
block 12
 70
     0
 10
0.0
 20
0.0
 30
0.0
  3
block 12
  1

  0
POLYLINE
  5
37C
330
378
100
AcDbEntity
  8
Layer 1
 62
     7
420
 16777215
370
    20
100
AcDb2dPolyline
 66
     1
 10
0.0
 20
0.0
 30
0.0
  0
VERTEX
  5
37D
330
37C
100
AcDbEntity
  8
Layer 1
 62
     7
420
 16777215
370
    20
100
AcDbVertex
100
AcDb2dVertex
 10
-322.498256066291
 20
123.573854305509
 30
0.0
  0
VERTEX
  5
37E
330
37C
100
AcDbEntity
  8
Layer 1
 62
     7
420
 16777215
370
    20
100
AcDbVertex
100
AcDb2dVertex
 10
-322.498256066291
 20
331.474440118819
 30
0.0
  0
SEQEND
  5
37F
330
37C
100
AcDbEntity
  8
Layer 1
 62
     7
420
 16777215
370
    20
  0
INSERT
  5
381
330
378
100
AcDbEntity
  8
Layer 1
100
AcDbBlockReference
  2
block 13
 10
0.0
 20
0.0
 30
0.0
  0
ENDBLK
  5
37B
330
378
100
AcDbEntity
  8
0
100
AcDbBlockEnd
  0
BLOCK
  5
382
330
380
100
AcDbEntity
  8
0
100
AcDbBlockBegin
  2
block 13
 70
     0
 10
0.0
 20
0.0
 30
0.0
  3
block 13
  1

  0
POLYLINE
  5
384
330
380
100
AcDbEntity
  8
Layer 1
370
     0
100
AcDb2dPolyline
 66
     1
 10
0.0
 20
0.0
 30
0.0
  0
VERTEX
  5
385
330
384
100
AcDbEntity
  8
Layer 1
370
     0
100
AcDbVertex
100
AcDb2dVertex
 10
-318.4701936448812
 20
126.3210254915923
 30
0.0
  0
VERTEX
  5
386
330
384
100
AcDbEntity
  8
Layer 1
370
     0
100
AcDbVertex
100
AcDb2dVertex
 10
-322.498256066291
 20
111.2905831449797
 30
0.0
  0
VERTEX
  5
387
330
384
100
AcDbEntity
  8
Layer 1
370
     0
100
AcDbVertex
100
AcDb2dVertex
 10
-326.5263371459857
 20
126.3210254915923
 30
0.0
  0
VERTEX
  5
388
330
384
100
AcDbEntity
  8
Layer 1
370
     0
100
AcDbVertex
100
AcDb2dVertex
 10
-318.4701936448812
 20
126.3210254915923
 30
0.0
  0
SEQEND
  5
38A
330
384
100
AcDbEntity
  8
Layer 1
370
     0
  0
HATCH
  5
389
330
380
100
AcDbEntity
  8
Layer 1
 62
     7
420
 16777215
100
AcDbHatch
 10
0.0
 20
0.0
 30
0.0
210
0.0
220
0.0
230
1.0
  2
SOLID
 70
     1
 71
     0
 91
        1
 92
        1
 93
        3
 72
     1
 10
-318.4701936448812
 20
126.3210254915923
 11
-322.498256066291
 21
111.2905831449797
 72
     1
 10
-322.498256066291
 20
111.2905831449797
 11
-326.5263371459857
 21
126.3210254915923
 72
     1
 10
-326.5263371459857
 20
126.3210254915923
 11
-318.4701936448812
 21
126.3210254915923
 97
        0
 75
     2
 76
     1
 98
        0
  0
ENDBLK
  5
383
330
380
100
AcDbEntity
  8
0
100
AcDbBlockEnd
  0
BLOCK
  5
38E
330
38C
100
AcDbEntity
  8
0
100
AcDbBlockBegin
  2
block 14
 70
     0
 10
0.0
 20
0.0
 30
0.0
  3
block 14
  1

  0
POLYLINE
  5
390
330
38C
100
AcDbEntity
  8
Layer 1
 62
     7
420
 16777215
370
    20
100
AcDb2dPolyline
 66
     1
 10
0.0
 20
0.0
 30
0.0
  0
VERTEX
  5
391
330
390
100
AcDbEntity
  8
Layer 1
 62
     7
420
 16777215
370
    20
100
AcDbVertex
100
AcDb2dVertex
 10
-120.1140030956977
 20
177.0728594938305
 30
0.0
  0
VERTEX
  5
392
330
390
100
AcDbEntity
  8
Layer 1
 62
     7
420
 16777215
370
    20
100
AcDbVertex
100
AcDb2dVertex
 10
-79.28180267331238
 20
231.5914713925361
 30
0.0
  0
VERTEX
  5
393
330
390
100
AcDbEntity
  8
Layer 1
 62
     7
420
 16777215
370
    20
100
AcDbVertex
100
AcDb2dVertex
 10
-39.08230468049667
 20
231.5914713925361
 30
0.0
  0
SEQEND
  5
394
330
390
100
AcDbEntity
  8
Layer 1
 62
     7
420
 16777215
370
    20
  0
INSERT
  5
396
330
38C
100
AcDbEntity
  8
Layer 1
100
AcDbBlockReference
  2
block 15
 10
0.0
 20
0.0
 30
0.0
  0
ENDBLK
  5
38F
330
38C
100
AcDbEntity
  8
0
100
AcDbBlockEnd
  0
BLOCK
  5
397
330
395
100
AcDbEntity
  8
0
100
AcDbBlockBegin
  2
block 15
 70
     0
 10
0.0
 20
0.0
 30
0.0
  3
block 15
  1

  0
POLYLINE
  5
399
330
395
100
AcDbEntity
  8
Layer 1
370
     0
100
AcDb2dPolyline
 66
     1
 10
0.0
 20
0.0
 30
0.0
  0
VERTEX
  5
39A
330
399
100
AcDbEntity
  8
Layer 1
370
     0
100
AcDbVertex
100
AcDb2dVertex
 10
-115.2430713273877
 20
176.8570204579925
 30
0.0
  0
VERTEX
  5
39B
330
399
100
AcDbEntity
  8
Layer 1
370
     0
100
AcDbVertex
100
AcDb2dVertex
 10
-127.4773831492211
 20
167.2412869250264
 30
0.0
  0
VERTEX
  5
39C
330
399
100
AcDbEntity
  8
Layer 1
370
     0
100
AcDbVertex
100
AcDb2dVertex
 10
-121.6911878899027
 20
181.6863815682934
 30
0.0
  0
VERTEX
  5
39D
330
399
100
AcDbEntity
  8
Layer 1
370
     0
100
AcDbVertex
100
AcDb2dVertex
 10
-115.2430713273877
 20
176.8570204579925
 30
0.0
  0
SEQEND
  5
39F
330
399
100
AcDbEntity
  8
Layer 1
370
     0
  0
HATCH
  5
39E
330
395
100
AcDbEntity
  8
Layer 1
 62
     7
420
 16777215
100
AcDbHatch
 10
0.0
 20
0.0
 30
0.0
210
0.0
220
0.0
230
1.0
  2
SOLID
 70
     1
 71
     0
 91
        1
 92
        1
 93
        3
 72
     1
 10
-115.2430713273877
 20
176.8570204579925
 11
-127.4773831492211
 21
167.2412869250264
 72
     1
 10
-127.4773831492211
 20
167.2412869250264
 11
-121.6911878899027
 21
181.6863815682934
 72
     1
 10
-121.6911878899027
 20
181.6863815682934
 11
-115.2430713273877
 21
176.8570204579925
 97
        0
 75
     2
 76
     1
 98
        0
  0
ENDBLK
  5
398
330
395
100
AcDbEntity
  8
0
100
AcDbBlockEnd
  0
BLOCK
  5
3BE
330
3BC
100
AcDbEntity
  8
0
100
AcDbBlockBegin
  2
block 16
 70
     0
 10
0.0
 20
0.0
 30
0.0
  3
block 16
  1

  0
POLYLINE
  5
3C0
330
3BC
100
AcDbEntity
  8
Layer 1
 62
     7
420
 16777215
370
    20
100
AcDb2dPolyline
 66
     1
 10
0.0
 20
0.0
 30
0.0
  0
VERTEX
  5
3C1
330
3C0
100
AcDbEntity
  8
Layer 1
 62
     7
420
 16777215
370
    20
100
AcDbVertex
100
AcDb2dVertex
 10
-177.9965824224647
 20
10.46683274116726
 30
0.0
  0
VERTEX
  5
3C2
330
3C0
100
AcDbEntity
  8
Layer 1
 62
     7
420
 16777215
370
    20
100
AcDbVertex
100
AcDb2dVertex
 10
187.4315711163733
 20
10.46683274116726
 30
0.0
  0
SEQEND
  5
3C3
330
3C0
100
AcDbEntity
  8
Layer 1
 62
     7
420
 16777215
370
    20
  0
INSERT
  5
3C5
330
3BC
100
AcDbEntity
  8
Layer 1
100
AcDbBlockReference
  2
block 17
 10
0.0
 20
0.0
 30
0.0
  0
ENDBLK
  5
3BF
330
3BC
100
AcDbEntity
  8
0
100
AcDbBlockEnd
  0
BLOCK
  5
3C6
330
3C4
100
AcDbEntity
  8
0
100
AcDbBlockBegin
  2
block 17
 70
     0
 10
0.0
 20
0.0
 30
0.0
  3
block 17
  1

  0
POLYLINE
  5
3C8
330
3C4
100
AcDbEntity
  8
Layer 1
370
     0
100
AcDb2dPolyline
 66
     1
 10
0.0
 20
0.0
 30
0.0
  0
VERTEX
  5
3C9
330
3C8
100
AcDbEntity
  8
Layer 1
370
     0
100
AcDbVertex
100
AcDb2dVertex
 10
-175.2493739198125
 20
6.438733003188111
 30
0.0
  0
VERTEX
  5
3CA
330
3C8
100
AcDbEntity
  8
Layer 1
370
     0
100
AcDbVertex
100
AcDb2dVertex
 10
-190.2798162664247
 20
10.46683274116726
 30
0.0
  0
VERTEX
  5
3CB
330
3C8
100
AcDbEntity
  8
Layer 1
370
     0
100
AcDbVertex
100
AcDb2dVertex
 10
-175.2493739198125
 20
14.49485784600788
 30
0.0
  0
VERTEX
  5
3CC
330
3C8
100
AcDbEntity
  8
Layer 1
370
     0
100
AcDbVertex
100
AcDb2dVertex
 10
-175.2493739198125
 20
6.438733003188111
 30
0.0
  0
SEQEND
  5
3CE
330
3C8
100
AcDbEntity
  8
Layer 1
370
     0
  0
HATCH
  5
3CD
330
3C4
100
AcDbEntity
  8
Layer 1
 62
     7
420
 16777215
100
AcDbHatch
 10
0.0
 20
0.0
 30
0.0
210
0.0
220
0.0
230
1.0
  2
SOLID
 70
     1
 71
     0
 91
        1
 92
        1
 93
        3
 72
     1
 10
-175.2493739198125
 20
6.438733003188111
 11
-190.2798162664247
 21
10.46683274116726
 72
     1
 10
-190.2798162664247
 20
10.46683274116726
 11
-175.2493739198125
 21
14.49485784600788
 72
     1
 10
-175.2493739198125
 20
14.49485784600788
 11
-175.2493739198125
 21
6.43873300318811
 97
        0
 75
     2
 76
     1
 98
        0
  0
ENDBLK
  5
3C7
330
3C4
100
AcDbEntity
  8
0
100
AcDbBlockEnd
  0
BLOCK
  5
3D1
330
3CF
100
AcDbEntity
  8
0
100
AcDbBlockBegin
  2
block 18
 70
     0
 10
0.0
 20
0.0
 30
0.0
  3
block 18
  1

  0
POLYLINE
  5
3D3
330
3CF
100
AcDbEntity
  8
Layer 1
 62
     7
420
 16777215
370
    20
100
AcDb2dPolyline
 66
     1
 10
0.0
 20
0.0
 30
0.0
  0
VERTEX
  5
3D4
330
3D3
100
AcDbEntity
  8
Layer 1
 62
     7
420
 16777215
370
    20
100
AcDbVertex
100
AcDb2dVertex
 10
-131.0278354669296
 20
79.84694088432806
 30
0.0
  0
VERTEX
  5
3D5
330
3D3
100
AcDbEntity
  8
Layer 1
 62
     7
420
 16777215
370
    20
100
AcDbVertex
100
AcDb2dVertex
 10
1.075916522292183
 20
79.84694088432806
 30
0.0
  0
SEQEND
  5
3D6
330
3D3
100
AcDbEntity
  8
Layer 1
 62
     7
420
 16777215
370
    20
  0
INSERT
  5
3D8
330
3CF
100
AcDbEntity
  8
Layer 1
100
AcDbBlockReference
  2
block 19
 10
0.0
 20
0.0
 30
0.0
  0
ENDBLK
  5
3D2
330
3CF
100
AcDbEntity
  8
0
100
AcDbBlockEnd
  0
BLOCK
  5
3D9
330
3D7
100
AcDbEntity
  8
0
100
AcDbBlockBegin
  2
block 19
 70
     0
 10
0.0
 20
0.0
 30
0.0
  3
block 19
  1

  0
POLYLINE
  5
3DB
330
3D7
100
AcDbEntity
  8
Layer 1
370
     0
100
AcDb2dPolyline
 66
     1
 10
0.0
 20
0.0
 30
0.0
  0
VERTEX
  5
3DC
330
3DB
100
AcDbEntity
  8
Layer 1
370
     0
100
AcDbVertex
100
AcDb2dVertex
 10
-128.2806269642777
 20
75.8188411463489
 30
0.0
  0
VERTEX
  5
3DD
330
3DB
100
AcDbEntity
  8
Layer 1
370
     0
100
AcDbVertex
100
AcDb2dVertex
 10
-143.3110693108899
 20
79.84694088432806
 30
0.0
  0
VERTEX
  5
3DE
330
3DB
100
AcDbEntity
  8
Layer 1
370
     0
100
AcDbVertex
100
AcDb2dVertex
 10
-128.2806269642777
 20
83.87496598916867
 30
0.0
  0
VERTEX
  5
3DF
330
3DB
100
AcDbEntity
  8
Layer 1
370
     0
100
AcDbVertex
100
AcDb2dVertex
 10
-128.2806269642777
 20
75.8188411463489
 30
0.0
  0
SEQEND
  5
3E1
330
3DB
100
AcDbEntity
  8
Layer 1
370
     0
  0
HATCH
  5
3E0
330
3D7
100
AcDbEntity
  8
Layer 1
 62
     7
420
 16777215
100
AcDbHatch
 10
0.0
 20
0.0
 30
0.0
210
0.0
220
0.0
230
1.0
  2
SOLID
 70
     1
 71
     0
 91
        1
 92
        1
 93
        3
 72
     1
 10
-128.2806269642777
 20
75.8188411463489
 11
-143.3110693108899
 21
79.84694088432806
 72
     1
 10
-143.3110693108899
 20
79.84694088432806
 11
-128.2806269642777
 21
83.87496598916867
 72
     1
 10
-128.2806269642777
 20
83.87496598916867
 11
-128.2806269642777
 21
75.8188411463489
 97
        0
 75
     2
 76
     1
 98
        0
  0
ENDBLK
  5
3DA
330
3D7
100
AcDbEntity
  8
0
100
AcDbBlockEnd
  0
BLOCK
  5
3E4
330
3E2
100
AcDbEntity
  8
0
100
AcDbBlockBegin
  2
block 20
 70
     0
 10
0.0
 20
0.0
 30
0.0
  3
block 20
  1

  0
POLYLINE
  5
3E6
330
3E2
100
AcDbEntity
  8
Layer 1
 62
     7
420
 16777215
370
    20
100
AcDb2dPolyline
 66
     1
 10
0.0
 20
0.0
 30
0.0
  0
VERTEX
  5
3E7
330
3E6
100
AcDbEntity
  8
Layer 1
 62
     7
420
 16777215
370
    20
100
AcDbVertex
100
AcDb2dVertex
 10
198.9031540332252
 20
79.8469315551855
 30
0.0
  0
VERTEX
  5
3E8
330
3E6
100
AcDbEntity
  8
Layer 1
 62
     7
420
 16777215
370
    20
100
AcDbVertex
100
AcDb2dVertex
 10
66.79943936057232
 20
79.8469315551855
 30
0.0
  0
SEQEND
  5
3E9
330
3E6
100
AcDbEntity
  8
Layer 1
 62
     7
420
 16777215
370
    20
  0
INSERT
  5
3EB
330
3E2
100
AcDbEntity
  8
Layer 1
100
AcDbBlockReference
  2
block 21
 10
0.0
 20
0.0
 30
0.0
  0
ENDBLK
  5
3E5
330
3E2
100
AcDbEntity
  8
0
100
AcDbBlockEnd
  0
BLOCK
  5
3EC
330
3EA
100
AcDbEntity
  8
0
100
AcDbBlockBegin
  2
block 21
 70
     0
 10
0.0
 20
0.0
 30
0.0
  3
block 21
  1

  0
POLYLINE
  5
3EE
330
3EA
100
AcDbEntity
  8
Layer 1
370
     0
100
AcDb2dPolyline
 66
     1
 10
0.0
 20
0.0
 30
0.0
  0
VERTEX
  5
3EF
330
3EE
100
AcDbEntity
  8
Layer 1
370
     0
100
AcDbVertex
100
AcDb2dVertex
 10
196.1559828471416
 20
83.87495666002675
 30
0.0
  0
VERTEX
  5
3F0
330
3EE
100
AcDbEntity
  8
Layer 1
370
     0
100
AcDbVertex
100
AcDb2dVertex
 10
211.1864251937544
 20
79.8469315551855
 30
0.0
  0
VERTEX
  5
3F1
330
3EE
100
AcDbEntity
  8
Layer 1
370
     0
100
AcDbVertex
100
AcDb2dVertex
 10
196.1559828471416
 20
75.81883181720634
 30
0.0
  0
VERTEX
  5
3F2
330
3EE
100
AcDbEntity
  8
Layer 1
370
     0
100
AcDbVertex
100
AcDb2dVertex
 10
196.1559828471416
 20
83.87495666002675
 30
0.0
  0
SEQEND
  5
3F4
330
3EE
100
AcDbEntity
  8
Layer 1
370
     0
  0
HATCH
  5
3F3
330
3EA
100
AcDbEntity
  8
Layer 1
 62
     7
420
 16777215
100
AcDbHatch
 10
0.0
 20
0.0
 30
0.0
210
0.0
220
0.0
230
1.0
  2
SOLID
 70
     1
 71
     0
 91
        1
 92
        1
 93
        3
 72
     1
 10
196.1559828471416
 20
83.87495666002675
 11
211.1864251937544
 21
79.8469315551855
 72
     1
 10
211.1864251937544
 20
79.8469315551855
 11
196.1559828471416
 21
75.81883181720634
 72
     1
 10
196.1559828471416
 20
75.81883181720634
 11
196.1559828471416
 21
83.87495666002675
 97
        0
 75
     2
 76
     1
 98
        0
  0
ENDBLK
  5
3ED
330
3EA
100
AcDbEntity
  8
0
100
AcDbBlockEnd
  0
BLOCK
  5
3F7
330
3F5
100
AcDbEntity
  8
0
100
AcDbBlockBegin
  2
block 22
 70
     0
 10
0.0
 20
0.0
 30
0.0
  3
block 22
  1

  0
POLYLINE
  5
3F9
330
3F5
100
AcDbEntity
  8
Layer 1
 62
     7
420
 16777215
370
    20
100
AcDb2dPolyline
 66
     1
 10
0.0
 20
0.0
 30
0.0
  0
VERTEX
  5
3FA
330
3F9
100
AcDbEntity
  8
Layer 1
 62
     7
420
 16777215
370
    20
100
AcDbVertex
100
AcDb2dVertex
 10
598.6085665333759
 20
10.28844088244934
 30
0.0
  0
VERTEX
  5
3FB
330
3F9
100
AcDbEntity
  8
Layer 1
 62
     7
420
 16777215
370
    20
100
AcDbVertex
100
AcDb2dVertex
 10
257.9457562279124
 20
10.28844088244934
 30
0.0
  0
SEQEND
  5
3FC
330
3F9
100
AcDbEntity
  8
Layer 1
 62
     7
420
 16777215
370
    20
  0
INSERT
  5
3FE
330
3F5
100
AcDbEntity
  8
Layer 1
100
AcDbBlockReference
  2
block 23
 10
0.0
 20
0.0
 30
0.0
  0
ENDBLK
  5
3F8
330
3F5
100
AcDbEntity
  8
0
100
AcDbBlockEnd
  0
BLOCK
  5
3FF
330
3FD
100
AcDbEntity
  8
0
100
AcDbBlockBegin
  2
block 23
 70
     0
 10
0.0
 20
0.0
 30
0.0
  3
block 23
  1

  0
POLYLINE
  5
401
330
3FD
100
AcDbEntity
  8
Layer 1
370
     0
100
AcDb2dPolyline
 66
     1
 10
0.0
 20
0.0
 30
0.0
  0
VERTEX
  5
402
330
401
100
AcDbEntity
  8
Layer 1
370
     0
100
AcDbVertex
100
AcDb2dVertex
 10
595.8613953472923
 20
14.3164659872906
 30
0.0
  0
VERTEX
  5
403
330
401
100
AcDbEntity
  8
Layer 1
370
     0
100
AcDbVertex
100
AcDb2dVertex
 10
610.8918376939051
 20
10.28844088244934
 30
0.0
  0
VERTEX
  5
404
330
401
100
AcDbEntity
  8
Layer 1
370
     0
100
AcDbVertex
100
AcDb2dVertex
 10
595.8613953472923
 20
6.260341144470192
 30
0.0
  0
VERTEX
  5
405
330
401
100
AcDbEntity
  8
Layer 1
370
     0
100
AcDbVertex
100
AcDb2dVertex
 10
595.8613953472923
 20
14.3164659872906
 30
0.0
  0
SEQEND
  5
407
330
401
100
AcDbEntity
  8
Layer 1
370
     0
  0
HATCH
  5
406
330
3FD
100
AcDbEntity
  8
Layer 1
 62
     7
420
 16777215
100
AcDbHatch
 10
0.0
 20
0.0
 30
0.0
210
0.0
220
0.0
230
1.0
  2
SOLID
 70
     1
 71
     0
 91
        1
 92
        1
 93
        3
 72
     1
 10
595.8613953472923
 20
14.3164659872906
 11
610.8918376939051
 21
10.28844088244934
 72
     1
 10
610.8918376939051
 20
10.28844088244934
 11
595.8613953472923
 21
6.260341144470192
 72
     1
 10
595.8613953472923
 20
6.260341144470192
 11
595.8613953472923
 21
14.3164659872906
 97
        0
 75
     2
 76
     1
 98
        0
  0
ENDBLK
  5
400
330
3FD
100
AcDbEntity
  8
0
100
AcDbBlockEnd
  0
BLOCK
  5
40A
330
408
100
AcDbEntity
  8
0
100
AcDbBlockBegin
  2
block 24
 70
     0
 10
0.0
 20
0.0
 30
0.0
  3
block 24
  1

  0
POLYLINE
  5
40C
330
408
100
AcDbEntity
  8
Layer 1
 62
     7
420
 16777215
370
    20
100
AcDb2dPolyline
 66
     1
 10
0.0
 20
0.0
 30
0.0
  0
VERTEX
  5
40D
330
40C
100
AcDbEntity
  8
Layer 1
 62
     7
420
 16777215
370
    20
100
AcDbVertex
100
AcDb2dVertex
 10
608.3518587417416
 20
-118.5527248887287
 30
0.0
  0
VERTEX
  5
40E
330
40C
100
AcDbEntity
  8
Layer 1
 62
     7
420
 16777215
370
    20
100
AcDbVertex
100
AcDb2dVertex
 10
605.4548609597474
 20
-118.5527248887287
 30
0.0
  0
SEQEND
  5
40F
330
40C
100
AcDbEntity
  8
Layer 1
 62
     7
420
 16777215
370
    20
  0
INSERT
  5
411
330
408
100
AcDbEntity
  8
Layer 1
100
AcDbBlockReference
  2
block 25
 10
0.0
 20
0.0
 30
0.0
  0
ENDBLK
  5
40B
330
408
100
AcDbEntity
  8
0
100
AcDbBlockEnd
  0
BLOCK
  5
412
330
410
100
AcDbEntity
  8
0
100
AcDbBlockBegin
  2
block 25
 70
     0
 10
0.0
 20
0.0
 30
0.0
  3
block 25
  1

  0
POLYLINE
  5
414
330
410
100
AcDbEntity
  8
Layer 1
370
     0
100
AcDb2dPolyline
 66
     1
 10
0.0
 20
0.0
 30
0.0
  0
VERTEX
  5
415
330
414
100
AcDbEntity
  8
Layer 1
370
     0
100
AcDbVertex
100
AcDb2dVertex
 10
608.0463507891661
 20
-118.1047754821007
 30
0.0
  0
VERTEX
  5
416
330
414
100
AcDbEntity
  8
Layer 1
370
     0
100
AcDbVertex
100
AcDb2dVertex
 10
609.7178591723739
 20
-118.5527248887287
 30
0.0
  0
VERTEX
  5
417
330
414
100
AcDbEntity
  8
Layer 1
370
     0
100
AcDbVertex
100
AcDb2dVertex
 10
608.0463507891661
 20
-119.0006825951734
 30
0.0
  0
VERTEX
  5
418
330
414
100
AcDbEntity
  8
Layer 1
370
     0
100
AcDbVertex
100
AcDb2dVertex
 10
608.0463507891661
 20
-118.1047754821007
 30
0.0
  0
SEQEND
  5
41A
330
414
100
AcDbEntity
  8
Layer 1
370
     0
  0
HATCH
  5
419
330
410
100
AcDbEntity
  8
Layer 1
 62
     7
420
 16777215
100
AcDbHatch
 10
0.0
 20
0.0
 30
0.0
210
0.0
220
0.0
230
1.0
  2
SOLID
 70
     1
 71
     0
 91
        1
 92
        1
 93
        3
 72
     1
 10
608.0463507891661
 20
-118.1047754821007
 11
609.7178591723739
 21
-118.5527248887287
 72
     1
 10
609.7178591723739
 20
-118.5527248887287
 11
608.0463507891661
 21
-119.0006825951734
 72
     1
 10
608.0463507891661
 20
-119.0006825951734
 11
608.0463507891661
 21
-118.1047754821007
 97
        0
 75
     2
 76
     1
 98
        0
  0
ENDBLK
  5
413
330
410
100
AcDbEntity
  8
0
100
AcDbBlockEnd
  0
BLOCK
  5
41D
330
41B
100
AcDbEntity
  8
0
100
AcDbBlockBegin
  2
block 26
 70
     0
 10
0.0
 20
0.0
 30
0.0
  3
block 26
  1

  0
POLYLINE
  5
41F
330
41B
100
AcDbEntity
  8
Layer 1
 62
     7
420
 16777215
370
    20
100
AcDb2dPolyline
 66
     1
 10
0.0
 20
0.0
 30
0.0
  0
VERTEX
  5
420
330
41F
100
AcDbEntity
  8
Layer 1
 62
     7
420
 16777215
370
    20
100
AcDbVertex
100
AcDb2dVertex
 10
604.1309308354967
 20
-118.5527331884769
 30
0.0
  0
VERTEX
  5
421
330
41F
100
AcDbEntity
  8
Layer 1
 62
     7
420
 16777215
370
    20
100
AcDbVertex
100
AcDb2dVertex
 10
607.0279286174908
 20
-118.5527331887368
 30
0.0
  0
SEQEND
  5
422
330
41F
100
AcDbEntity
  8
Layer 1
 62
     7
420
 16777215
370
    20
  0
INSERT
  5
424
330
41B
100
AcDbEntity
  8
Layer 1
100
AcDbBlockReference
  2
block 27
 10
0.0
 20
0.0
 30
0.0
  0
ENDBLK
  5
41E
330
41B
100
AcDbEntity
  8
0
100
AcDbBlockEnd
  0
BLOCK
  5
425
330
423
100
AcDbEntity
  8
0
100
AcDbBlockBegin
  2
block 27
 70
     0
 10
0.0
 20
0.0
 30
0.0
  3
block 27
  1

  0
POLYLINE
  5
427
330
423
100
AcDbEntity
  8
Layer 1
370
     0
100
AcDb2dPolyline
 66
     1
 10
0.0
 20
0.0
 30
0.0
  0
VERTEX
  5
428
330
427
100
AcDbEntity
  8
Layer 1
370
     0
100
AcDbVertex
100
AcDb2dVertex
 10
604.4364387880337
 20
-119.0006825951324
 30
0.0
  0
VERTEX
  5
429
330
427
100
AcDbEntity
  8
Layer 1
370
     0
100
AcDbVertex
100
AcDb2dVertex
 10
602.7649304048643
 20
-118.5527331883543
 30
0.0
  0
VERTEX
  5
42A
330
427
100
AcDbEntity
  8
Layer 1
370
     0
100
AcDbVertex
100
AcDb2dVertex
 10
604.4364387881152
 20
-118.1047754820597
 30
0.0
  0
VERTEX
  5
42B
330
427
100
AcDbEntity
  8
Layer 1
370
     0
100
AcDbVertex
100
AcDb2dVertex
 10
604.4364387880337
 20
-119.0006825951324
 30
0.0
  0
SEQEND
  5
42D
330
427
100
AcDbEntity
  8
Layer 1
370
     0
  0
HATCH
  5
42C
330
423
100
AcDbEntity
  8
Layer 1
 62
     7
420
 16777215
100
AcDbHatch
 10
0.0
 20
0.0
 30
0.0
210
0.0
220
0.0
230
1.0
  2
SOLID
 70
     1
 71
     0
 91
        1
 92
        1
 93
        3
 72
     1
 10
604.4364387880337
 20
-119.0006825951324
 11
602.7649304048643
 21
-118.5527331883543
 72
     1
 10
602.7649304048643
 20
-118.5527331883543
 11
604.4364387881152
 21
-118.1047754820597
 72
     1
 10
604.4364387881152
 20
-118.1047754820597
 11
604.4364387880337
 21
-119.0006825951324
 97
        0
 75
     2
 76
     1
 98
        0
  0
ENDBLK
  5
426
330
423
100
AcDbEntity
  8
0
100
AcDbBlockEnd
  0
BLOCK
  5
430
330
42E
100
AcDbEntity
  8
0
100
AcDbBlockBegin
  2
block 28
 70
     0
 10
0.0
 20
0.0
 30
0.0
  3
block 28
  1

  0
POLYLINE
  5
432
330
42E
100
AcDbEntity
  8
Layer 1
 62
     7
420
 16777215
370
    20
100
AcDb2dPolyline
 66
     1
 10
0.0
 20
0.0
 30
0.0
  0
VERTEX
  5
433
330
432
100
AcDbEntity
  8
Layer 1
 62
     7
420
 16777215
370
    20
100
AcDbVertex
100
AcDb2dVertex
 10
245.7732872902675
 20
79.95288262408285
 30
0.0
  0
VERTEX
  5
434
330
432
100
AcDbEntity
  8
Layer 1
 62
     7
420
 16777215
370
    20
100
AcDbVertex
100
AcDb2dVertex
 10
377.8770019629191
 20
79.95288262408285
 30
0.0
  0
SEQEND
  5
435
330
432
100
AcDbEntity
  8
Layer 1
 62
     7
420
 16777215
370
    20
  0
INSERT
  5
437
330
42E
100
AcDbEntity
  8
Layer 1
100
AcDbBlockReference
  2
block 29
 10
0.0
 20
0.0
 30
0.0
  0
ENDBLK
  5
431
330
42E
100
AcDbEntity
  8
0
100
AcDbBlockEnd
  0
BLOCK
  5
438
330
436
100
AcDbEntity
  8
0
100
AcDbBlockBegin
  2
block 29
 70
     0
 10
0.0
 20
0.0
 30
0.0
  3
block 29
  1

  0
POLYLINE
  5
43A
330
436
100
AcDbEntity
  8
Layer 1
370
     0
100
AcDb2dPolyline
 66
     1
 10
0.0
 20
0.0
 30
0.0
  0
VERTEX
  5
43B
330
43A
100
AcDbEntity
  8
Layer 1
370
     0
100
AcDbVertex
100
AcDb2dVertex
 10
248.5205331094884
 20
75.9247828861037
 30
0.0
  0
VERTEX
  5
43C
330
43A
100
AcDbEntity
  8
Layer 1
370
     0
100
AcDbVertex
100
AcDb2dVertex
 10
233.4900161297383
 20
79.95288262408285
 30
0.0
  0
VERTEX
  5
43D
330
43A
100
AcDbEntity
  8
Layer 1
370
     0
100
AcDbVertex
100
AcDb2dVertex
 10
248.5205331094884
 20
83.9809077289241
 30
0.0
  0
VERTEX
  5
43E
330
43A
100
AcDbEntity
  8
Layer 1
370
     0
100
AcDbVertex
100
AcDb2dVertex
 10
248.5205331094884
 20
75.9247828861037
 30
0.0
  0
SEQEND
  5
440
330
43A
100
AcDbEntity
  8
Layer 1
370
     0
  0
HATCH
  5
43F
330
436
100
AcDbEntity
  8
Layer 1
 62
     7
420
 16777215
100
AcDbHatch
 10
0.0
 20
0.0
 30
0.0
210
0.0
220
0.0
230
1.0
  2
SOLID
 70
     1
 71
     0
 91
        1
 92
        1
 93
        3
 72
     1
 10
248.5205331094884
 20
75.9247828861037
 11
233.4900161297383
 21
79.95288262408285
 72
     1
 10
233.4900161297383
 20
79.95288262408285
 11
248.5205331094884
 21
83.9809077289241
 72
     1
 10
248.5205331094884
 20
83.9809077289241
 11
248.5205331094884
 21
75.9247828861037
 97
        0
 75
     2
 76
     1
 98
        0
  0
ENDBLK
  5
439
330
436
100
AcDbEntity
  8
0
100
AcDbBlockEnd
  0
BLOCK
  5
443
330
441
100
AcDbEntity
  8
0
100
AcDbBlockBegin
  2
block 30
 70
     0
 10
0.0
 20
0.0
 30
0.0
  3
block 30
  1

  0
POLYLINE
  5
445
330
441
100
AcDbEntity
  8
Layer 1
 62
     7
420
 16777215
370
    20
100
AcDb2dPolyline
 66
     1
 10
0.0
 20
0.0
 30
0.0
  0
VERTEX
  5
446
330
445
100
AcDbEntity
  8
Layer 1
 62
     7
420
 16777215
370
    20
100
AcDbVertex
100
AcDb2dVertex
 10
569.261669086426
 20
83.76798871462076
 30
0.0
  0
VERTEX
  5
447
330
445
100
AcDbEntity
  8
Layer 1
 62
     7
420
 16777215
370
    20
100
AcDbVertex
100
AcDb2dVertex
 10
437.1578797806321
 20
83.76798871462076
 30
0.0
  0
SEQEND
  5
448
330
445
100
AcDbEntity
  8
Layer 1
 62
     7
420
 16777215
370
    20
  0
INSERT
  5
44A
330
441
100
AcDbEntity
  8
Layer 1
100
AcDbBlockReference
  2
block 31
 10
0.0
 20
0.0
 30
0.0
  0
ENDBLK
  5
444
330
441
100
AcDbEntity
  8
0
100
AcDbBlockEnd
  0
BLOCK
  5
44B
330
449
100
AcDbEntity
  8
0
100
AcDbBlockBegin
  2
block 31
 70
     0
 10
0.0
 20
0.0
 30
0.0
  3
block 31
  1

  0
POLYLINE
  5
44D
330
449
100
AcDbEntity
  8
Layer 1
370
     0
100
AcDb2dPolyline
 66
     1
 10
0.0
 20
0.0
 30
0.0
  0
VERTEX
  5
44E
330
44D
100
AcDbEntity
  8
Layer 1
370
     0
100
AcDbVertex
100
AcDb2dVertex
 10
566.5144232672013
 20
87.79601381946136
 30
0.0
  0
VERTEX
  5
44F
330
44D
100
AcDbEntity
  8
Layer 1
370
     0
100
AcDbVertex
100
AcDb2dVertex
 10
581.5448656138142
 20
83.76798871462076
 30
0.0
  0
VERTEX
  5
450
330
44D
100
AcDbEntity
  8
Layer 1
370
     0
100
AcDbVertex
100
AcDb2dVertex
 10
566.5144232672013
 20
79.7398889766416
 30
0.0
  0
VERTEX
  5
451
330
44D
100
AcDbEntity
  8
Layer 1
370
     0
100
AcDbVertex
100
AcDb2dVertex
 10
566.5144232672013
 20
87.79601381946136
 30
0.0
  0
SEQEND
  5
453
330
44D
100
AcDbEntity
  8
Layer 1
370
     0
  0
HATCH
  5
452
330
449
100
AcDbEntity
  8
Layer 1
 62
     7
420
 16777215
100
AcDbHatch
 10
0.0
 20
0.0
 30
0.0
210
0.0
220
0.0
230
1.0
  2
SOLID
 70
     1
 71
     0
 91
        1
 92
        1
 93
        3
 72
     1
 10
566.5144232672013
 20
87.79601381946136
 11
581.5448656138142
 21
83.76798871462076
 72
     1
 10
581.5448656138142
 20
83.76798871462076
 11
566.5144232672013
 21
79.7398889766416
 72
     1
 10
566.5144232672013
 20
79.7398889766416
 11
566.5144232672013
 21
87.79601381946136
 97
        0
 75
     2
 76
     1
 98
        0
  0
ENDBLK
  5
44C
330
449
100
AcDbEntity
  8
0
100
AcDbBlockEnd
  0
BLOCK
  5
45F
330
45D
100
AcDbEntity
  8
0
100
AcDbBlockBegin
  2
block 32
 70
     0
 10
0.0
 20
0.0
 30
0.0
  3
block 32
  1

  0
POLYLINE
  5
461
330
45D
100
AcDbEntity
  8
Layer 1
 62
     7
420
 16777215
370
    20
100
AcDb2dPolyline
 66
     1
 10
0.0
 20
0.0
 30
0.0
  0
VERTEX
  5
462
330
461
100
AcDbEntity
  8
Layer 1
 62
     7
420
 16777215
370
    20
100
AcDbVertex
100
AcDb2dVertex
 10
-322.4982420725776
 20
-148.8486372426265
 30
0.0
  0
VERTEX
  5
463
330
461
100
AcDbEntity
  8
Layer 1
 62
     7
420
 16777215
370
    20
100
AcDbVertex
100
AcDb2dVertex
 10
-322.4982420725776
 20
-224.8947083045867
 30
0.0
  0
SEQEND
  5
464
330
461
100
AcDbEntity
  8
Layer 1
 62
     7
420
 16777215
370
    20
  0
INSERT
  5
466
330
45D
100
AcDbEntity
  8
Layer 1
100
AcDbBlockReference
  2
block 33
 10
0.0
 20
0.0
 30
0.0
  0
ENDBLK
  5
460
330
45D
100
AcDbEntity
  8
0
100
AcDbBlockEnd
  0
BLOCK
  5
467
330
465
100
AcDbEntity
  8
0
100
AcDbBlockBegin
  2
block 33
 70
     0
 10
0.0
 20
0.0
 30
0.0
  3
block 33
  1

  0
POLYLINE
  5
469
330
465
100
AcDbEntity
  8
Layer 1
370
     0
100
AcDb2dPolyline
 66
     1
 10
0.0
 20
0.0
 30
0.0
  0
VERTEX
  5
46A
330
469
100
AcDbEntity
  8
Layer 1
370
     0
100
AcDbVertex
100
AcDb2dVertex
 10
-326.5263231522723
 20
-151.595883061848
 30
0.0
  0
VERTEX
  5
46B
330
469
100
AcDbEntity
  8
Layer 1
370
     0
100
AcDbVertex
100
AcDb2dVertex
 10
-322.4982420725776
 20
-136.5654407152358
 30
0.0
  0
VERTEX
  5
46C
330
469
100
AcDbEntity
  8
Layer 1
370
     0
100
AcDbVertex
100
AcDb2dVertex
 10
-318.470179651168
 20
-151.595883061848
 30
0.0
  0
VERTEX
  5
46D
330
469
100
AcDbEntity
  8
Layer 1
370
     0
100
AcDbVertex
100
AcDb2dVertex
 10
-326.5263231522723
 20
-151.595883061848
 30
0.0
  0
SEQEND
  5
46F
330
469
100
AcDbEntity
  8
Layer 1
370
     0
  0
HATCH
  5
46E
330
465
100
AcDbEntity
  8
Layer 1
 62
     7
420
 16777215
100
AcDbHatch
 10
0.0
 20
0.0
 30
0.0
210
0.0
220
0.0
230
1.0
  2
SOLID
 70
     1
 71
     0
 91
        1
 92
        1
 93
        3
 72
     1
 10
-326.5263231522723
 20
-151.595883061848
 11
-322.4982420725776
 21
-136.5654407152358
 72
     1
 10
-322.4982420725776
 20
-136.5654407152358
 11
-318.470179651168
 21
-151.595883061848
 72
     1
 10
-318.470179651168
 20
-151.595883061848
 11
-326.5263231522723
 21
-151.595883061848
 97
        0
 75
     2
 76
     1
 98
        0
  0
ENDBLK
  5
468
330
465
100
AcDbEntity
  8
0
100
AcDbBlockEnd
  0
BLOCK
  5
472
330
470
100
AcDbEntity
  8
0
100
AcDbBlockBegin
  2
block 34
 70
     0
 10
0.0
 20
0.0
 30
0.0
  3
block 34
  1

  0
POLYLINE
  5
474
330
470
100
AcDbEntity
  8
Layer 1
 62
     7
420
 16777215
370
    20
100
AcDb2dPolyline
 66
     1
 10
0.0
 20
0.0
 30
0.0
  0
VERTEX
  5
475
330
474
100
AcDbEntity
  8
Layer 1
 62
     7
420
 16777215
370
    20
100
AcDbVertex
100
AcDb2dVertex
 10
-322.4982420725776
 20
-370.2266087526662
 30
0.0
  0
VERTEX
  5
476
330
474
100
AcDbEntity
  8
Layer 1
 62
     7
420
 16777215
370
    20
100
AcDbVertex
100
AcDb2dVertex
 10
-322.4982420725776
 20
-287.6645609472303
 30
0.0
  0
SEQEND
  5
477
330
474
100
AcDbEntity
  8
Layer 1
 62
     7
420
 16777215
370
    20
  0
INSERT
  5
479
330
470
100
AcDbEntity
  8
Layer 1
100
AcDbBlockReference
  2
block 35
 10
0.0
 20
0.0
 30
0.0
  0
ENDBLK
  5
473
330
470
100
AcDbEntity
  8
0
100
AcDbBlockEnd
  0
BLOCK
  5
47A
330
478
100
AcDbEntity
  8
0
100
AcDbBlockBegin
  2
block 35
 70
     0
 10
0.0
 20
0.0
 30
0.0
  3
block 35
  1

  0
POLYLINE
  5
47C
330
478
100
AcDbEntity
  8
Layer 1
370
     0
100
AcDb2dPolyline
 66
     1
 10
0.0
 20
0.0
 30
0.0
  0
VERTEX
  5
47D
330
47C
100
AcDbEntity
  8
Layer 1
370
     0
100
AcDbVertex
100
AcDb2dVertex
 10
-318.470179651168
 20
-367.4794375665833
 30
0.0
  0
VERTEX
  5
47E
330
47C
100
AcDbEntity
  8
Layer 1
370
     0
100
AcDbVertex
100
AcDb2dVertex
 10
-322.4982420725776
 20
-382.5098799131955
 30
0.0
  0
VERTEX
  5
47F
330
47C
100
AcDbEntity
  8
Layer 1
370
     0
100
AcDbVertex
100
AcDb2dVertex
 10
-326.5263231522723
 20
-367.4794375665833
 30
0.0
  0
VERTEX
  5
480
330
47C
100
AcDbEntity
  8
Layer 1
370
     0
100
AcDbVertex
100
AcDb2dVertex
 10
-318.470179651168
 20
-367.4794375665833
 30
0.0
  0
SEQEND
  5
482
330
47C
100
AcDbEntity
  8
Layer 1
370
     0
  0
HATCH
  5
481
330
478
100
AcDbEntity
  8
Layer 1
 62
     7
420
 16777215
100
AcDbHatch
 10
0.0
 20
0.0
 30
0.0
210
0.0
220
0.0
230
1.0
  2
SOLID
 70
     1
 71
     0
 91
        1
 92
        1
 93
        3
 72
     1
 10
-318.470179651168
 20
-367.4794375665833
 11
-322.4982420725776
 21
-382.5098799131955
 72
     1
 10
-322.4982420725776
 20
-382.5098799131955
 11
-326.5263231522723
 21
-367.4794375665833
 72
     1
 10
-326.5263231522723
 20
-367.4794375665833
 11
-318.470179651168
 21
-367.4794375665833
 97
        0
 75
     2
 76
     1
 98
        0
  0
ENDBLK
  5
47B
330
478
100
AcDbEntity
  8
0
100
AcDbBlockEnd
  0
BLOCK
  5
485
330
483
100
AcDbEntity
  8
0
100
AcDbBlockBegin
  2
block 36
 70
     0
 10
0.0
 20
0.0
 30
0.0
  3
block 36
  1

  0
MTEXT
  5
487
330
483
100
AcDbEntity
  8
Layer 1
 62
     7
420
 16777215
100
AcDbMText
 10
484.1497760833897
 20
-549.3255997026209
 30
0.0
 40
9.59555562313517
 41
0.0
 46
0.0
 71
     7
 72
     1
  1
\fFrutiger LT Std 55 Roman|b0|i0|c0|p34;\W1;CAD Drawing: AP1421
 73
     1
 44
1.0
  0
ENDBLK
  5
486
330
483
100
AcDbEntity
  8
0
100
AcDbBlockEnd
  0
BLOCK
  5
48A
330
488
100
AcDbEntity
  8
0
100
AcDbBlockBegin
  2
block 37
 70
     0
 10
0.0
 20
0.0
 30
0.0
  3
block 37
  1

  0
SPLINE
  5
48C
330
488
100
AcDbEntity
  8
Layer 1
370
     0
100
AcDbSpline
210
0.0
220
0.0
230
1.0
 70
    11
 71
     3
 72
    38
 73
    34
 74
     0
 42
0.0000000001
 43
0.0000000001
 12
1.0
 22
0.0
 32
0.0
 13
1.0
 23
0.0
 33
0.0
 40
0.0
 40
0.0
 40
0.0
 40
0.0
 40
1.0
 40
1.0
 40
1.0
 40
2.0
 40
2.0
 40
2.0
 40
3.0
 40
3.0
 40
3.0
 40
4.0
 40
4.0
 40
4.0
 40
5.0
 40
5.0
 40
5.0
 40
6.0
 40
6.0
 40
6.0
 40
7.0
 40
7.0
 40
7.0
 40
8.0
 40
8.0
 40
8.0
 40
9.0
 40
9.0
 40
9.0
 40
10.0
 40
10.0
 40
10.0
 40
11.0
 40
11.0
 40
11.0
 40
11.0
 10
577.3536812974827
 20
-519.9736283433864
 30
0.0
 10
577.3536812974827
 20
-519.9736283433864
 30
0.0
 10
577.3226754381154
 20
-519.8389251099131
 30
0.0
 10
577.3226754381154
 20
-519.8389251099131
 30
0.0
 10
577.7161053425309
 20
-519.099952128327
 30
0.0
 10
578.352069969108
 20
-518.7599212039329
 30
0.0
 10
579.1582223126566
 20
-519.2222530180534
 30
0.0
 10
579.8651559062298
 20
-519.581576477165
 30
0.0
 10
581.040622485797
 20
-518.7936831396883
 30
0.0
 10
581.7806289960287
 20
-518.6166052317465
 30
0.0
 10
584.4671144554266
 20
-517.6058142163741
 30
0.0
 10
587.2941598106225
 20
-516.9088713997081
 30
0.0
 10
590.0130291675817
 20
-515.9432111351925
 30
0.0
 10
590.0130291675817
 20
-515.9432111351925
 30
0.0
 10
590.1777047317767
 20
-515.8967023461418
 30
0.0
 10
590.3726971362418
 20
-515.8960133270447
 30
0.0
 10
591.1168377610558
 20
-515.8905011742683
 30
0.0
 10
591.6480714848813
 20
-516.5674624371198
 30
0.0
 10
590.9990154954602
 20
-517.1951588345323
 30
0.0
 10
590.3079293411191
 20
-517.8628183395738
 30
0.0
 10
588.375919792991
 20
-518.5311668637122
 30
0.0
 10
587.4836400623113
 20
-518.9611147802715
 30
0.0
 10
587.4836400623113
 20
-518.9611147802715
 30
0.0
 10
581.1212377201518
 20
-521.4047210079591
 30
0.0
 10
580.572089499803
 20
-521.6517343542515
 30
0.0
 10
580.4652915397603
 20
-521.6989321623995
 30
0.0
 10
580.3757190571438
 20
-521.7554317283576
 30
0.0
 10
580.2895916700126
 20
-521.8188214852862
 30
0.0
 10
580.2895916700126
 20
-521.8188214852862
 30
0.0
 10
580.0208742221631
 20
-522.0224266284645
 30
0.0
 10
580.0208742221631
 20
-522.0224266284645
 30
0.0
 10
578.7620363318528
 20
-522.9281422315366
 30
0.0
 10
577.5707223130534
 20
-520.9523799707458
 30
0.0
 10
577.3536812974827
 20
-519.9736283433864
 30
0.0
  0
ENDBLK
  5
48B
330
488
100
AcDbEntity
  8
0
100
AcDbBlockEnd
  0
BLOCK
  5
48F
330
48D
100
AcDbEntity
  8
0
100
AcDbBlockBegin
  2
block 38
 70
     0
 10
0.0
 20
0.0
 30
0.0
  3
block 38
  1

  0
SPLINE
  5
491
330
48D
100
AcDbEntity
  8
Layer 1
370
     0
100
AcDbSpline
210
0.0
220
0.0
230
1.0
 70
    11
 71
     3
 72
    41
 73
    37
 74
     0
 42
0.0000000001
 43
0.0000000001
 12
1.0
 22
0.0
 32
0.0
 13
1.0
 23
0.0
 33
0.0
 40
0.0
 40
0.0
 40
0.0
 40
0.0
 40
1.0
 40
1.0
 40
1.0
 40
2.0
 40
2.0
 40
2.0
 40
3.0
 40
3.0
 40
3.0
 40
4.0
 40
4.0
 40
4.0
 40
5.0
 40
5.0
 40
5.0
 40
6.0
 40
6.0
 40
6.0
 40
7.0
 40
7.0
 40
7.0
 40
8.0
 40
8.0
 40
8.0
 40
9.0
 40
9.0
 40
9.0
 40
10.0
 40
10.0
 40
10.0
 40
11.0
 40
11.0
 40
11.0
 40
12.0
 40
12.0
 40
12.0
 40
12.0
 10
577.3536812974827
 20
-519.9736283433864
 30
0.0
 10
577.3536812974827
 20
-519.9736283433864
 30
0.0
 10
577.3226754381122
 20
-519.8389251099131
 30
0.0
 10
577.3226754381122
 20
-519.8389251099131
 30
0.0
 10
577.7161053425309
 20
-519.099952128327
 30
0.0
 10
578.352069969108
 20
-518.7599212039329
 30
0.0
 10
579.1582223126566
 20
-519.2222530180534
 30
0.0
 10
579.8651559062298
 20
-519.581576477165
 30
0.0
 10
581.040622485797
 20
-518.7936831396883
 30
0.0
 10
581.7806289960287
 20
-518.6166052317465
 30
0.0
 10
584.4671144554234
 20
-517.6058142163741
 30
0.0
 10
587.2941598106194
 20
-516.9088713997081
 30
0.0
 10
590.0130291675817
 20
-515.9432111351925
 30
0.0
 10
590.0130291675817
 20
-515.9432111351925
 30
0.0
 10
590.1777047317767
 20
-515.8967023461418
 30
0.0
 10
590.3726971362418
 20
-515.8960133270447
 30
0.0
 10
591.1168377610558
 20
-515.8905011742683
 30
0.0
 10
591.6480714848813
 20
-516.5674624371198
 30
0.0
 10
590.9990154954602
 20
-517.1951588345323
 30
0.0
 10
590.3079293411191
 20
-517.8628183395738
 30
0.0
 10
588.375919792991
 20
-518.5311668637122
 30
0.0
 10
587.483640062308
 20
-518.9611147802715
 30
0.0
 10
587.483640062308
 20
-518.9611147802715
 30
0.0
 10
581.1212377201487
 20
-521.4047210079591
 30
0.0
 10
580.572089499803
 20
-521.6517343542515
 30
0.0
 10
580.4652915397603
 20
-521.6989321623995
 30
0.0
 10
580.3757190571438
 20
-521.7554317283576
 30
0.0
 10
580.2895916700126
 20
-521.8188214852862
 30
0.0
 10
580.2895916700126
 20
-521.8188214852862
 30
0.0
 10
580.0208742221631
 20
-522.0224266284645
 30
0.0
 10
580.0208742221631
 20
-522.0224266284645
 30
0.0
 10
578.7620363318496
 20
-522.9281422315366
 30
0.0
 10
577.3536812974827
 20
-519.9736283433864
 30
0.0
 10
577.3536812974827
 20
-519.9736283433864
 30
0.0
 10
577.3536812974827
 20
-519.9736283433864
 30
0.0
 10
577.5707223130534
 20
-520.9523799707458
 30
0.0
 10
577.3536812974827
 20
-519.9736283433864
 30
0.0
  0
HATCH
  5
492
330
48D
100
AcDbEntity
  8
Layer 1
 62
   254
420
 14079702
100
AcDbHatch
 10
0.0
 20
0.0
 30
0.0
210
0.0
220
0.0
230
1.0
  2
SOLID
 70
     1
 71
     0
 91
        1
 92
        1
 93
        1
 72
     4
 94
        3
 73
     0
 74
     1
 95
       41
 96
       37
 40
0.0
 40
0.0
 40
0.0
 40
0.0
 40
1.0
 40
1.0
 40
1.0
 40
2.0
 40
2.0
 40
2.0
 40
3.0
 40
3.0
 40
3.0
 40
4.0
 40
4.0
 40
4.0
 40
5.0
 40
5.0
 40
5.0
 40
6.0
 40
6.0
 40
6.0
 40
7.0
 40
7.0
 40
7.0
 40
8.0
 40
8.0
 40
8.0
 40
9.0
 40
9.0
 40
9.0
 40
10.0
 40
10.0
 40
10.0
 40
11.0
 40
11.0
 40
11.0
 40
12.0
 40
12.0
 40
12.0
 40
12.0
 10
577.3536812974827
 20
-519.9736283433864
 10
577.3536812974827
 20
-519.9736283433864
 10
577.3226754381122
 20
-519.8389251099131
 10
577.3226754381122
 20
-519.8389251099131
 10
577.7161053425309
 20
-519.099952128327
 10
578.352069969108
 20
-518.7599212039329
 10
579.1582223126566
 20
-519.2222530180534
 10
579.8651559062298
 20
-519.581576477165
 10
581.040622485797
 20
-518.7936831396883
 10
581.7806289960287
 20
-518.6166052317465
 10
584.4671144554234
 20
-517.6058142163741
 10
587.2941598106194
 20
-516.9088713997081
 10
590.0130291675817
 20
-515.9432111351925
 10
590.0130291675817
 20
-515.9432111351925
 10
590.1777047317767
 20
-515.8967023461418
 10
590.3726971362418
 20
-515.8960133270447
 10
591.1168377610558
 20
-515.8905011742683
 10
591.6480714848813
 20
-516.5674624371198
 10
590.9990154954602
 20
-517.1951588345323
 10
590.3079293411191
 20
-517.8628183395738
 10
588.375919792991
 20
-518.5311668637122
 10
587.483640062308
 20
-518.9611147802715
 10
587.483640062308
 20
-518.9611147802715
 10
581.1212377201487
 20
-521.4047210079591
 10
580.572089499803
 20
-521.6517343542515
 10
580.4652915397603
 20
-521.6989321623995
 10
580.3757190571438
 20
-521.7554317283576
 10
580.2895916700126
 20
-521.8188214852862
 10
580.2895916700126
 20
-521.8188214852862
 10
580.0208742221631
 20
-522.0224266284645
 10
580.0208742221631
 20
-522.0224266284645
 10
578.7620363318496
 20
-522.9281422315366
 10
577.3536812974827
 20
-519.9736283433864
 10
577.3536812974827
 20
-519.9736283433864
 10
577.3536812974827
 20
-519.9736283433864
 10
577.5707223130534
 20
-520.9523799707458
 10
577.3536812974827
 20
-519.9736283433864
 97
        0
 97
        0
 75
     2
 76
     1
 98
        0
  0
ENDBLK
  5
490
330
48D
100
AcDbEntity
  8
0
100
AcDbBlockEnd
  0
BLOCK
  5
495
330
493
100
AcDbEntity
  8
0
100
AcDbBlockBegin
  2
block 39
 70
     0
 10
0.0
 20
0.0
 30
0.0
  3
block 39
  1

  0
SPLINE
  5
497
330
493
100
AcDbEntity
  8
Layer 1
370
     0
100
AcDbSpline
210
0.0
220
0.0
230
1.0
 70
    11
 71
     3
 72
    14
 73
    10
 74
     0
 42
0.0000000001
 43
0.0000000001
 12
1.0
 22
0.0
 32
0.0
 13
1.0
 23
0.0
 33
0.0
 40
0.0
 40
0.0
 40
0.0
 40
0.0
 40
1.0
 40
1.0
 40
1.0
 40
2.0
 40
2.0
 40
2.0
 40
3.0
 40
3.0
 40
3.0
 40
3.0
 10
550.8381593857088
 20
-514.4535518473706
 30
0.0
 10
550.6224964083322
 20
-517.3860171244152
 30
0.0
 10
549.4187800457859
 20
-519.3266394112565
 30
0.0
 10
547.9835532666308
 20
-521.748541537387
 30
0.0
 10
548.0014677631541
 20
-518.70686673346
 30
0.0
 10
548.414879221384
 20
-515.9852413001126
 30
0.0
 10
550.2834990125835
 20
-514.01223511571
 30
0.0
 10
550.523277658357
 20
-513.6852955541598
 30
0.0
 10
550.8987930662491
 20
-513.7421396296664
 30
0.0
 10
550.8381593857088
 20
-514.4535518473706
 30
0.0
  0
ENDBLK
  5
496
330
493
100
AcDbEntity
  8
0
100
AcDbBlockEnd
  0
BLOCK
  5
49A
330
498
100
AcDbEntity
  8
0
100
AcDbBlockBegin
  2
block 40
 70
     0
 10
0.0
 20
0.0
 30
0.0
  3
block 40
  1

  0
SPLINE
  5
49C
330
498
100
AcDbEntity
  8
Layer 1
370
     0
100
AcDbSpline
210
0.0
220
0.0
230
1.0
 70
    11
 71
     3
 72
    14
 73
    10
 74
     0
 42
0.0000000001
 43
0.0000000001
 12
1.0
 22
0.0
 32
0.0
 13
1.0
 23
0.0
 33
0.0
 40
0.0
 40
0.0
 40
0.0
 40
0.0
 40
1.0
 40
1.0
 40
1.0
 40
2.0
 40
2.0
 40
2.0
 40
3.0
 40
3.0
 40
3.0
 40
3.0
 10
580.0704835971507
 20
-526.7070674693072
 30
0.0
 10
580.060837329792
 20
-526.9533917965025
 30
0.0
 10
579.4737930591054
 20
-527.602103276375
 30
0.0
 10
578.4175267833278
 20
-527.7850378466419
 30
0.0
 10
578.2246014361539
 20
-526.5434254337578
 30
0.0
 10
578.8240480505873
 20
-525.8182328341127
 30
0.0
 10
579.4110923212738
 20
-525.8182328341127
 30
0.0
 10
579.896850784694
 20
-525.8182328341127
 30
0.0
 10
580.0973553419357
 20
-526.0004783852825
 30
0.0
 10
580.0704835971507
 20
-526.7070674693072
 30
0.0
  0
ENDBLK
  5
49B
330
498
100
AcDbEntity
  8
0
100
AcDbBlockEnd
  0
BLOCK
  5
49F
330
49D
100
AcDbEntity
  8
0
100
AcDbBlockBegin
  2
block 41
 70
     0
 10
0.0
 20
0.0
 30
0.0
  3
block 41
  1

  0
SPLINE
  5
4A1
330
49D
100
AcDbEntity
  8
Layer 1
370
     0
100
AcDbSpline
210
0.0
220
0.0
230
1.0
 70
    11
 71
     3
 72
   200
 73
   196
 74
     0
 42
0.0000000001
 43
0.0000000001
 12
1.0
 22
0.0
 32
0.0
 13
1.0
 23
0.0
 33
0.0
 40
0.0
 40
0.0
 40
0.0
 40
0.0
 40
1.0
 40
1.0
 40
1.0
 40
2.0
 40
2.0
 40
2.0
 40
3.0
 40
3.0
 40
3.0
 40
4.0
 40
4.0
 40
4.0
 40
5.0
 40
5.0
 40
5.0
 40
6.0
 40
6.0
 40
6.0
 40
7.0
 40
7.0
 40
7.0
 40
8.0
 40
8.0
 40
8.0
 40
9.0
 40
9.0
 40
9.0
 40
10.0
 40
10.0
 40
10.0
 40
11.0
 40
11.0
 40
11.0
 40
12.0
 40
12.0
 40
12.0
 40
13.0
 40
13.0
 40
13.0
 40
14.0
 40
14.0
 40
14.0
 40
15.0
 40
15.0
 40
15.0
 40
16.0
 40
16.0
 40
16.0
 40
17.0
 40
17.0
 40
17.0
 40
18.0
 40
18.0
 40
18.0
 40
19.0
 40
19.0
 40
19.0
 40
20.0
 40
20.0
 40
20.0
 40
21.0
 40
21.0
 40
21.0
 40
22.0
 40
22.0
 40
22.0
 40
23.0
 40
23.0
 40
23.0
 40
24.0
 40
24.0
 40
24.0
 40
25.0
 40
25.0
 40
25.0
 40
26.0
 40
26.0
 40
26.0
 40
27.0
 40
27.0
 40
27.0
 40
28.0
 40
28.0
 40
28.0
 40
29.0
 40
29.0
 40
29.0
 40
30.0
 40
30.0
 40
30.0
 40
31.0
 40
31.0
 40
31.0
 40
32.0
 40
32.0
 40
32.0
 40
33.0
 40
33.0
 40
33.0
 40
34.0
 40
34.0
 40
34.0
 40
35.0
 40
35.0
 40
35.0
 40
36.0
 40
36.0
 40
36.0
 40
37.0
 40
37.0
 40
37.0
 40
38.0
 40
38.0
 40
38.0
 40
39.0
 40
39.0
 40
39.0
 40
40.0
 40
40.0
 40
40.0
 40
41.0
 40
41.0
 40
41.0
 40
42.0
 40
42.0
 40
42.0
 40
43.0
 40
43.0
 40
43.0
 40
44.0
 40
44.0
 40
44.0
 40
45.0
 40
45.0
 40
45.0
 40
46.0
 40
46.0
 40
46.0
 40
47.0
 40
47.0
 40
47.0
 40
48.0
 40
48.0
 40
48.0
 40
49.0
 40
49.0
 40
49.0
 40
50.0
 40
50.0
 40
50.0
 40
51.0
 40
51.0
 40
51.0
 40
52.0
 40
52.0
 40
52.0
 40
53.0
 40
53.0
 40
53.0
 40
54.0
 40
54.0
 40
54.0
 40
55.0
 40
55.0
 40
55.0
 40
56.0
 40
56.0
 40
56.0
 40
57.0
 40
57.0
 40
57.0
 40
58.0
 40
58.0
 40
58.0
 40
59.0
 40
59.0
 40
59.0
 40
60.0
 40
60.0
 40
60.0
 40
61.0
 40
61.0
 40
61.0
 40
62.0
 40
62.0
 40
62.0
 40
63.0
 40
63.0
 40
63.0
 40
64.0
 40
64.0
 40
64.0
 40
65.0
 40
65.0
 40
65.0
 40
65.0
 10
587.8674236993681
 20
-529.2919226118901
 30
0.0
 10
587.8674236993681
 20
-529.2919226118901
 30
0.0
 10
588.0961780395887
 20
-530.2469030804014
 30
0.0
 10
588.0961780395887
 20
-530.2469030804014
 30
0.0
 10
588.2222685343488
 20
-530.7423078111804
 30
0.0
 10
588.3676515638264
 20
-531.2025725680097
 30
0.0
 10
588.6108753050851
 20
-531.6556026243201
 30
0.0
 10
590.1542780824769
 20
-533.7209373677273
 30
0.0
 10
594.0940892794086
 20
-533.4842593078906
 30
0.0
 10
596.1129152337651
 20
-532.8582854582207
 30
0.0
 10
597.2311932282772
 20
-532.5106753237591
 30
0.0
 10
598.3053740005781
 20
-531.9363779063679
 30
0.0
 10
599.3127199204652
 20
-531.3376203110315
 30
0.0
 10
601.8806940951704
 20
-533.0257170988039
 30
0.0
 10
605.1239069849845
 20
-533.5479935743678
 30
0.0
 10
608.3733210466722
 20
-533.5607404276632
 30
0.0
 10
611.6943930944531
 20
-533.5731427714101
 30
0.0
 10
615.085056071036
 20
-533.0505217862977
 30
0.0
 10
617.8721383186031
 20
-532.6446895381353
 30
0.0
 10
620.836298474112
 20
-532.4545202673495
 30
0.0
 10
623.1996339769934
 20
-531.0568450289836
 30
0.0
 10
626.3181344102416
 20
-531.7276051199617
 30
0.0
 10
626.9906170489623
 20
-531.5029848943235
 30
0.0
 10
627.5204727345938
 20
-531.1598533839926
 30
0.0
 10
627.4708633596061
 20
-530.3237287097224
 30
0.0
 10
627.1690729950983
 20
-529.5837221994908
 30
0.0
 10
626.7508384031889
 20
-529.0666133671548
 30
0.0
 10
625.8792292454207
 20
-528.9973669479012
 30
0.0
 10
624.4088624923161
 20
-529.6298864789932
 30
0.0
 10
622.7490154875227
 20
-529.4424732845955
 30
0.0
 10
621.2138809392954
 20
-529.8193667306818
 30
0.0
 10
617.3119657927015
 20
-530.7288719387878
 30
0.0
 10
613.1578696565872
 20
-531.0857838310598
 30
0.0
 10
608.742635282691
 20
-531.3248734577361
 30
0.0
 10
606.0051624101114
 20
-531.3017913179849
 30
0.0
 10
602.5449085047265
 20
-531.2594166435163
 30
0.0
 10
600.6363256058982
 20
-528.9522361970445
 30
0.0
 10
600.4254857622009
 20
-528.2570159281211
 30
0.0
 10
600.9959935745582
 20
-527.3340748476227
 30
0.0
 10
600.7686172725317
 20
-526.3456769529045
 30
0.0
 10
600.4123943993569
 20
-525.6559688367574
 30
0.0
 10
599.8287952241556
 20
-525.1994936849618
 30
0.0
 10
598.980612715687
 20
-525.423424891503
 30
0.0
 10
597.8175484798667
 20
-526.2636836803555
 30
0.0
 10
597.8333959190988
 20
-527.6503346131685
 30
0.0
 10
597.9374378027534
 20
-528.9108950512215
 30
0.0
 10
596.263121396922
 20
-531.0747595255069
 30
0.0
 10
592.4094375871215
 20
-531.9780635617394
 30
0.0
 10
590.7592368496869
 20
-530.3003020604227
 30
0.0
 10
590.6731094625555
 20
-530.0036793391428
 30
0.0
 10
590.5077448792636
 20
-529.4214582021356
 30
0.0
 10
590.6758655389438
 20
-528.993232833319
 30
0.0
 10
590.6910239590788
 20
-528.9415564010402
 30
0.0
 10
590.706871398311
 20
-528.8854013446306
 30
0.0
 10
590.7144506083786
 20
-528.8216670781535
 30
0.0
 10
590.8005779955098
 20
-528.1715775600869
 30
0.0
 10
590.5869820754243
 20
-527.6844410584725
 30
0.0
 10
589.9923585946702
 20
-527.4732567052267
 30
0.0
 10
588.8616782564112
 20
-527.0581226992541
 30
0.0
 10
588.9285131088251
 20
-526.5506601342769
 30
0.0
 10
588.127872918053
 20
-525.8440710502521
 30
0.0
 10
587.3044950970783
 20
-525.0858055339486
 30
0.0
 10
586.3453805139848
 20
-525.4509856553851
 30
0.0
 10
585.7734946634332
 20
-526.2106292098827
 30
0.0
 10
585.6329347676351
 20
-528.2446135843742
 30
0.0
 10
584.1963299502859
 20
-529.9116952896866
 30
0.0
 10
582.6164091607503
 20
-531.0068911444475
 30
0.0
 10
581.6069961835722
 20
-531.3558793171034
 30
0.0
 10
580.3419571213884
 20
-531.2404686183474
 30
0.0
 10
579.5158232240254
 20
-530.6799515828973
 30
0.0
 10
579.2415936233996
 20
-530.4904713312086
 30
0.0
 10
579.1451309498126
 20
-530.2810095257054
 30
0.0
 10
579.1396187970362
 20
-530.1332149293881
 30
0.0
 10
580.4570233105957
 20
-529.7625226551753
 30
0.0
 10
581.6380020429393
 20
-528.8667978290102
 30
0.0
 10
582.3125517389512
 20
-527.636209721679
 30
0.0
 10
583.1111248724322
 20
-525.4933603298537
 30
0.0
 10
581.5622099422638
 20
-523.2061614371963
 30
0.0
 10
579.1816489619562
 20
-523.5382686419744
 30
0.0
 10
576.986434118755
 20
-523.8455711592586
 30
0.0
 10
575.9039851172895
 20
-525.3951751085241
 30
0.0
 10
576.008027000944
 20
-528.0654686191411
 30
0.0
 10
574.8008655429126
 20
-528.0151702250565
 30
0.0
 10
573.7191055605441
 20
-527.6134720914764
 30
0.0
 10
572.5973824705468
 20
-527.1621645829086
 30
0.0
 10
571.6355118110649
 20
-526.7735578121725
 30
0.0
 10
571.4632570368025
 20
-525.8705982854885
 30
0.0
 10
570.0624812125
 20
-526.132081032819
 30
0.0
 10
568.960739676317
 20
-527.2972123259304
 30
0.0
 10
569.73313008411
 20
-528.0627125427529
 30
0.0
 10
570.4552220978184
 20
-528.9828975468632
 30
0.0
 10
571.1786921497209
 20
-529.9006709841337
 30
0.0
 10
571.1456192330625
 20
-531.2773311400396
 30
0.0
 10
569.9997804746683
 20
-531.9277651676548
 30
0.0
 10
568.3571589473013
 20
-532.317060957488
 30
0.0
 10
566.9832548677836
 20
-530.8790781019447
 30
0.0
 10
565.9841771770612
 20
-529.8131655588085
 30
0.0
 10
565.9972685399051
 20
-529.1775454417798
 30
0.0
 10
566.0158720555254
 20
-527.9438567485118
 30
0.0
 10
565.8525745295246
 20
-527.4002206809395
 30
0.0
 10
565.527357515717
 20
-526.3091589407608
 30
0.0
 10
564.8224909794349
 20
-525.3724374783213
 30
0.0
 10
563.5285131151751
 20
-525.8047969617203
 30
0.0
 10
562.7202937143354
 20
-526.8796667531182
 30
0.0
 10
563.0296632889109
 20
-528.167098935956
 30
0.0
 10
563.472702568314
 20
-529.2636728289111
 30
0.0
 10
563.1109675423628
 20
-530.3867739571025
 30
0.0
 10
562.576288723052
 20
-531.4819698118635
 30
0.0
 10
561.527601657342
 20
-532.0386972422798
 30
0.0
 10
560.3087268746606
 20
-532.3291187916864
 30
0.0
 10
558.1865480557467
 20
-532.0376637136343
 30
0.0
 10
557.308737726105
 20
-529.8617414051505
 30
0.0
 10
557.3590361201897
 20
-529.572697893938
 30
0.0
 10
557.4927058250173
 20
-528.7503536016088
 30
0.0
 10
557.4940838632115
 20
-527.9121618700476
 30
0.0
 10
557.4954619014055
 20
-527.394708528163
 30
0.0
 10
557.447230564612
 20
-526.83488051181
 30
0.0
 10
557.280487943126
 20
-526.3784053600143
 30
0.0
 10
556.7347848182624
 20
-524.8952917536143
 30
0.0
 10
554.5106311729851
 20
-524.9107946832979
 30
0.0
 10
554.5120092111792
 20
-527.4615433805769
 30
0.0
 10
554.5120092111792
 20
-528.0716697910146
 30
0.0
 10
554.6029597319898
 20
-528.6835187491951
 30
0.0
 10
554.7455866850792
 20
-529.2746971344638
 30
0.0
 10
553.8608861644669
 20
-531.0919850029331
 30
0.0
 10
552.0398086909639
 20
-531.4568206148211
 30
0.0
 10
550.7609892468391
 20
-531.2122188353684
 30
0.0
 10
548.883412207378
 20
-530.2541377809204
 30
0.0
 10
548.277075401974
 20
-528.2115406677158
 30
0.0
 10
548.0118030496099
 20
-526.1086543835193
 30
0.0
 10
549.3553902888573
 20
-524.256571050649
 30
0.0
 10
550.4881376844074
 20
-522.6339310770962
 30
0.0
 10
551.6601591684894
 20
-520.3798051010973
 30
0.0
 10
553.005124445931
 20
-517.8810773456456
 30
0.0
 10
553.5260228833007
 20
-516.8592620247205
 30
0.0
 10
553.6307537860523
 20
-513.7790021513587
 30
0.0
 10
553.309670886827
 20
-509.9838849648074
 30
0.0
 10
548.6415665043135
 20
-511.067712004467
 30
0.0
 10
547.6459339090762
 20
-513.0789587487559
 30
0.0
 10
545.2681290051569
 20
-516.8041404969565
 30
0.0
 10
544.8581626424121
 20
-521.8105532561216
 30
0.0
 10
545.2770862534185
 20
-526.0476761934303
 30
0.0
 10
544.8106203247156
 20
-526.9241084848779
 30
0.0
 10
544.1071318266277
 20
-527.5972801426957
 30
0.0
 10
543.4139786149954
 20
-528.290433354328
 30
0.0
 10
542.774568892933
 20
-528.840959612871
 30
0.0
 10
542.250914379175
 20
-528.9897877378337
 30
0.0
 10
541.877466028574
 20
-529.8441714181756
 30
0.0
 10
542.0635011847775
 20
-530.1890254762492
 30
0.0
 10
542.1179336934443
 20
-530.2438024944646
 30
0.0
 10
542.5595949346534
 20
-530.5101083754745
 30
0.0
 10
543.91971863223
 20
-530.9273094387382
 30
0.0
 10
544.7286270521668
 20
-530.0984194649872
 30
0.0
 10
545.5954130762556
 20
-529.2674624339448
 30
0.0
 10
545.5954130762556
 20
-529.2674624339448
 30
0.0
 10
545.972995541439
 20
-528.9160626944494
 30
0.0
 10
545.972995541439
 20
-528.9160626944494
 30
0.0
 10
546.8694093867009
 20
-530.792606205265
 30
0.0
 10
548.2384903325392
 20
-532.9461353930947
 30
0.0
 10
550.4447294812933
 20
-533.5597068990177
 30
0.0
 10
551.723548925418
 20
-533.7743363477487
 30
0.0
 10
553.2724638555864
 20
-533.7660681185841
 30
0.0
 10
554.4307049577272
 20
-533.0425980666816
 30
0.0
 10
554.4307049577272
 20
-533.0425980666816
 30
0.0
 10
556.136716242023
 20
-531.9470577023721
 30
0.0
 10
556.136716242023
 20
-531.9470577023721
 30
0.0
 10
557.37763963581
 20
-533.4105342645063
 30
0.0
 10
558.9885662847129
 20
-534.5866898631706
 30
0.0
 10
561.114879218209
 20
-534.3865298154776
 30
0.0
 10
562.5170330807057
 20
-534.3258961349372
 30
0.0
 10
563.6263538269561
 20
-533.3271629537633
 30
0.0
 10
564.5220786531211
 20
-532.3570240651169
 30
0.0
 10
564.5220786531211
 20
-532.3570240651169
 30
0.0
 10
565.0367759186174
 20
-531.7820376286287
 30
0.0
 10
565.0367759186174
 20
-531.7820376286287
 30
0.0
 10
566.4168811700085
 20
-533.2334563565645
 30
0.0
 10
568.0243627234261
 20
-534.586345353622
 30
0.0
 10
570.4297283912275
 20
-534.1408945073792
 30
0.0
 10
571.9042292589145
 20
-533.950380727045
 30
0.0
 10
572.6890220104544
 20
-533.1363046638804
 30
0.0
 10
573.2650419755881
 20
-531.8461164046544
 30
0.0
 10
573.5365154998259
 20
-531.2146304022081
 30
0.0
 10
573.4579673227621
 20
-530.5259558147067
 30
0.0
 10
573.3897544321542
 20
-529.8669090483784
 30
0.0
 10
574.3922772183619
 20
-530.1252912097721
 30
0.0
 10
575.4320070358103
 20
-530.3392316394061
 30
0.0
 10
576.4676027386764
 20
-530.378505727938
 30
0.0
 10
576.8217585545601
 20
-531.2942121079174
 30
0.0
 10
577.4480769137786
 20
-532.357713084214
 30
0.0
 10
578.3713625038255
 20
-532.7831823766423
 30
0.0
 10
580.3702069043674
 20
-533.7040563998496
 30
0.0
 10
580.4832060362836
 20
-533.5524721984985
 30
0.0
 10
582.362850133036
 20
-533.4529089389749
 30
0.0
 10
584.7620146289639
 20
-533.0074580927321
 30
0.0
 10
586.5245254792177
 20
-531.1336706583047
 30
0.0
 10
587.8674236993681
 20
-529.2919226118901
 30
0.0
  0
ENDBLK
  5
4A0
330
49D
100
AcDbEntity
  8
0
100
AcDbBlockEnd
  0
BLOCK
  5
4A4
330
4A2
100
AcDbEntity
  8
0
100
AcDbBlockBegin
  2
block 42
 70
     0
 10
0.0
 20
0.0
 30
0.0
  3
block 42
  1

  0
SPLINE
  5
4A6
330
4A2
100
AcDbEntity
  8
Layer 1
370
     0
100
AcDbSpline
210
0.0
220
0.0
230
1.0
 70
    11
 71
     3
 72
    53
 73
    49
 74
     0
 42
0.0000000001
 43
0.0000000001
 12
1.0
 22
0.0
 32
0.0
 13
1.0
 23
0.0
 33
0.0
 40
0.0
 40
0.0
 40
0.0
 40
0.0
 40
1.0
 40
1.0
 40
1.0
 40
2.0
 40
2.0
 40
2.0
 40
3.0
 40
3.0
 40
3.0
 40
4.0
 40
4.0
 40
4.0
 40
5.0
 40
5.0
 40
5.0
 40
6.0
 40
6.0
 40
6.0
 40
7.0
 40
7.0
 40
7.0
 40
8.0
 40
8.0
 40
8.0
 40
9.0
 40
9.0
 40
9.0
 40
10.0
 40
10.0
 40
10.0
 40
11.0
 40
11.0
 40
11.0
 40
12.0
 40
12.0
 40
12.0
 40
13.0
 40
13.0
 40
13.0
 40
14.0
 40
14.0
 40
14.0
 40
15.0
 40
15.0
 40
15.0
 40
16.0
 40
16.0
 40
16.0
 40
16.0
 10
529.2952882973444
 20
-515.9263301673149
 30
0.0
 10
529.2952882973444
 20
-515.9263301673149
 30
0.0
 10
528.7861031846246
 20
-515.4553856144812
 30
0.0
 10
528.7861031846246
 20
-515.4553856144812
 30
0.0
 10
528.7861031846246
 20
-515.4553856144812
 30
0.0
 10
529.2766847817242
 20
-515.218363045096
 30
0.0
 10
529.2766847817242
 20
-515.218363045096
 30
0.0
 10
530.0476971513231
 20
-514.971005189255
 30
0.0
 10
530.8841663351417
 20
-514.9093379800692
 30
0.0
 10
531.2762182013631
 20
-515.804373787137
 30
0.0
 10
531.3719918558531
 20
-516.5895110482254
 30
0.0
 10
531.0447077847543
 20
-517.0635561869958
 30
0.0
 10
530.4886693734351
 20
-517.5527597459013
 30
0.0
 10
529.2918432018593
 20
-517.6616247632352
 30
0.0
 10
528.4898249728931
 20
-518.7643998280637
 30
0.0
 10
527.7498184626614
 20
-519.5908782349751
 30
0.0
 10
526.8961238014165
 20
-521.6031585079095
 30
0.0
 10
527.5989232804075
 20
-524.0209265194578
 30
0.0
 10
528.0171578723168
 20
-526.0476761934303
 30
0.0
 10
528.0171578723168
 20
-526.0476761934303
 30
0.0
 10
528.2727839573223
 20
-526.2964120874653
 30
0.0
 10
528.2727839573223
 20
-526.2964120874653
 30
0.0
 10
528.7337377332487
 20
-526.752887239261
 30
0.0
 10
529.108564122044
 20
-527.2386457026812
 30
0.0
 10
529.0754912053856
 20
-527.9355885193472
 30
0.0
 10
528.6365860405647
 20
-529.1155337230454
 30
0.0
 10
526.2946101296918
 20
-529.6894866308879
 30
0.0
 10
526.0451852165597
 20
-527.8057084195533
 30
0.0
 10
525.6214384718741
 20
-527.0581226992541
 30
0.0
 10
525.4512507549027
 20
-526.5155201603272
 30
0.0
 10
525.3423857375689
 20
-525.9618933158476
 30
0.0
 10
525.3423857375689
 20
-525.9618933158476
 30
0.0
 10
525.2659046177963
 20
-525.525055208318
 30
0.0
 10
525.2659046177963
 20
-525.525055208318
 30
0.0
 10
525.1218996265128
 20
-526.6164614580451
 30
0.0
 10
525.2969104771635
 20
-527.8873571825537
 30
0.0
 10
525.4795005378818
 20
-528.959815407112
 30
0.0
 10
525.855704964871
 20
-530.379883766132
 30
0.0
 10
526.8354901208761
 20
-531.4643998248887
 30
0.0
 10
528.2397110406639
 20
-532.0345631276975
 30
0.0
 10
531.4581192429844
 20
-532.7976517776804
 30
0.0
 10
534.1129098239179
 20
-530.5989918389939
 30
0.0
 10
535.949145717556
 20
-528.220153406429
 30
0.0
 10
538.8409588678747
 20
-524.0905174482599
 30
0.0
 10
541.40893304258
 20
-518.912883443478
 30
0.0
 10
539.0724692844835
 20
-513.9102602893466
 30
0.0
 10
536.2840089987224
 20
-510.4210675818856
 30
0.0
 10
530.8138863872426
 20
-512.0416404981471
 30
0.0
 10
529.2952882973444
 20
-515.9263301673149
 30
0.0
  0
ENDBLK
  5
4A5
330
4A2
100
AcDbEntity
  8
0
100
AcDbBlockEnd
  0
BLOCK
  5
4A9
330
4A7
100
AcDbEntity
  8
0
100
AcDbBlockBegin
  2
block 43
 70
     0
 10
0.0
 20
0.0
 30
0.0
  3
block 43
  1

  0
SPLINE
  5
4AB
330
4A7
100
AcDbEntity
  8
Layer 1
370
     0
100
AcDbSpline
210
0.0
220
0.0
230
1.0
 70
    11
 71
     3
 72
    23
 73
    19
 74
     0
 42
0.0000000001
 43
0.0000000001
 12
1.0
 22
0.0
 32
0.0
 13
1.0
 23
0.0
 33
0.0
 40
0.0
 40
0.0
 40
0.0
 40
0.0
 40
1.0
 40
1.0
 40
1.0
 40
2.0
 40
2.0
 40
2.0
 40
3.0
 40
3.0
 40
3.0
 40
4.0
 40
4.0
 40
4.0
 40
5.0
 40
5.0
 40
5.0
 40
6.0
 40
6.0
 40
6.0
 40
6.0
 10
537.9548803090685
 20
-529.9268537098217
 30
0.0
 10
535.6900745370652
 20
-533.0022904495042
 30
0.0
 10
532.0003772723627
 20
-535.0517777536793
 30
0.0
 10
528.0516088271693
 20
-534.49573934236
 30
0.0
 10
525.2679716750874
 20
-533.7543547939342
 30
0.0
 10
523.4661867363018
 20
-531.0499548380132
 30
0.0
 10
523.0059219794724
 20
-528.3903411234003
 30
0.0
 10
522.4450604344737
 20
-524.9135507596861
 30
0.0
 10
523.3876385592381
 20
-521.747163499193
 30
0.0
 10
525.2238744528762
 20
-519.1299244590487
 30
0.0
 10
525.7744007114192
 20
-515.3282615910755
 30
0.0
 10
527.9365426379619
 20
-511.6774939053562
 30
0.0
 10
531.7096112134076
 20
-509.999387894491
 30
0.0
 10
534.0619224107362
 20
-509.1412146091153
 30
0.0
 10
539.3287843885861
 20
-508.7632876343834
 30
0.0
 10
541.1133438499455
 20
-512.6207610492177
 30
0.0
 10
544.3531116442745
 20
-518.5955901492864
 30
0.0
 10
541.1043866016839
 20
-525.1557409722992
 30
0.0
 10
537.9548803090685
 20
-529.9268537098217
 30
0.0
  0
ENDBLK
  5
4AA
330
4A7
100
AcDbEntity
  8
0
100
AcDbBlockEnd
  0
BLOCK
  5
4AE
330
4AC
100
AcDbEntity
  8
0
100
AcDbBlockBegin
  2
block 44
 70
     0
 10
0.0
 20
0.0
 30
0.0
  3
block 44
  1

  0
SPLINE
  5
4B0
330
4AC
100
AcDbEntity
  8
Layer 1
370
     0
100
AcDbSpline
210
0.0
220
0.0
230
1.0
 70
    11
 71
     3
 72
    17
 73
    13
 74
     0
 42
0.0000000001
 43
0.0000000001
 12
1.0
 22
0.0
 32
0.0
 13
1.0
 23
0.0
 33
0.0
 40
0.0
 40
0.0
 40
0.0
 40
0.0
 40
1.0
 40
1.0
 40
1.0
 40
2.0
 40
2.0
 40
2.0
 40
3.0
 40
3.0
 40
3.0
 40
4.0
 40
4.0
 40
4.0
 40
4.0
 10
600.5377958750199
 20
-522.8868010857136
 30
0.0
 10
600.690758114565
 20
-522.4217131952049
 30
0.0
 10
600.6411487395775
 20
-521.8026295365055
 30
0.0
 10
600.3627850243693
 20
-521.3744041676889
 30
0.0
 10
599.7605823335476
 20
-520.616483160934
 30
0.0
 10
598.6002741741155
 20
-520.0780147365895
 30
0.0
 10
597.8802492176983
 20
-521.0712357649869
 30
0.0
 10
597.51782517265
 20
-521.9576588333417
 30
0.0
 10
597.7892986968876
 20
-522.8399477871143
 30
0.0
 10
598.5010554241403
 20
-523.4483516498093
 30
0.0
 10
599.2575983927011
 20
-523.6295636723335
 30
0.0
 10
600.1195612831107
 20
-523.8107756948576
 30
0.0
 10
600.5377958750199
 20
-522.8868010857136
 30
0.0
  0
ENDBLK
  5
4AF
330
4AC
100
AcDbEntity
  8
0
100
AcDbBlockEnd
  0
BLOCK
  5
4B3
330
4B1
100
AcDbEntity
  8
0
100
AcDbBlockBegin
  2
block 45
 70
     0
 10
0.0
 20
0.0
 30
0.0
  3
block 45
  1

  0
SPLINE
  5
4B5
330
4B1
100
AcDbEntity
  8
Layer 1
370
     0
100
AcDbSpline
210
0.0
220
0.0
230
1.0
 70
    11
 71
     3
 72
    17
 73
    13
 74
     0
 42
0.0000000001
 43
0.0000000001
 12
1.0
 22
0.0
 32
0.0
 13
1.0
 23
0.0
 33
0.0
 40
0.0
 40
0.0
 40
0.0
 40
0.0
 40
1.0
 40
1.0
 40
1.0
 40
2.0
 40
2.0
 40
2.0
 40
3.0
 40
3.0
 40
3.0
 40
4.0
 40
4.0
 40
4.0
 40
4.0
 10
557.0992759206018
 20
-521.4670772362422
 30
0.0
 10
556.7099801307686
 20
-522.0251827048527
 30
0.0
 10
555.7487984903839
 20
-522.0265607430467
 30
0.0
 10
555.2520157214109
 20
-521.8236446189655
 30
0.0
 10
554.5333688031877
 20
-521.5304669931708
 30
0.0
 10
553.8505508780112
 20
-520.5823767156301
 30
0.0
 10
554.3769614681574
 20
-519.6656368070051
 30
0.0
 10
554.9646947579411
 20
-518.6424434478859
 30
0.0
 10
556.1842585597194
 20
-518.9235632394822
 30
0.0
 10
556.8140220144231
 20
-519.4365379572359
 30
0.0
 10
557.2088299570328
 20
-519.7576208564612
 30
0.0
 10
557.6249974916509
 20
-520.7153574013606
 30
0.0
 10
557.0992759206018
 20
-521.4670772362422
 30
0.0
  0
ENDBLK
  5
4B4
330
4B1
100
AcDbEntity
  8
0
100
AcDbBlockEnd
  0
BLOCK
  5
4B8
330
4B6
100
AcDbEntity
  8
0
100
AcDbBlockBegin
  2
block 46
 70
     0
 10
0.0
 20
0.0
 30
0.0
  3
block 46
  1

  0
SPLINE
  5
4BA
330
4B6
100
AcDbEntity
  8
Layer 1
370
     0
100
AcDbSpline
210
0.0
220
0.0
230
1.0
 70
    11
 71
     3
 72
    17
 73
    13
 74
     0
 42
0.0000000001
 43
0.0000000001
 12
1.0
 22
0.0
 32
0.0
 13
1.0
 23
0.0
 33
0.0
 40
0.0
 40
0.0
 40
0.0
 40
0.0
 40
1.0
 40
1.0
 40
1.0
 40
2.0
 40
2.0
 40
2.0
 40
3.0
 40
3.0
 40
3.0
 40
4.0
 40
4.0
 40
4.0
 40
4.0
 10
550.8381593857088
 20
-514.4535518473706
 30
0.0
 10
550.6224964083322
 20
-517.3860171244152
 30
0.0
 10
549.4187800457859
 20
-519.3266394112565
 30
0.0
 10
547.9835532666275
 20
-521.748541537387
 30
0.0
 10
548.0014677631541
 20
-518.70686673346
 30
0.0
 10
548.414879221384
 20
-515.9852413001126
 30
0.0
 10
550.2834990125835
 20
-514.01223511571
 30
0.0
 10
550.523277658357
 20
-513.6852955541598
 30
0.0
 10
550.8381593857088
 20
-514.4535518473706
 30
0.0
 10
550.8381593857088
 20
-514.4535518473706
 30
0.0
 10
550.8381593857088
 20
-514.4535518473706
 30
0.0
 10
550.8987930662491
 20
-513.7421396296664
 30
0.0
 10
550.8381593857088
 20
-514.4535518473706
 30
0.0
  0
SPLINE
  5
4BB
330
4B6
100
AcDbEntity
  8
Layer 1
370
     0
100
AcDbSpline
210
0.0
220
0.0
230
1.0
 70
    11
 71
     3
 72
    17
 73
    13
 74
     0
 42
0.0000000001
 43
0.0000000001
 12
1.0
 22
0.0
 32
0.0
 13
1.0
 23
0.0
 33
0.0
 40
0.0
 40
0.0
 40
0.0
 40
0.0
 40
1.0
 40
1.0
 40
1.0
 40
2.0
 40
2.0
 40
2.0
 40
3.0
 40
3.0
 40
3.0
 40
4.0
 40
4.0
 40
4.0
 40
4.0
 10
580.0704835971507
 20
-526.7070674693072
 30
0.0
 10
580.060837329792
 20
-526.9533917965025
 30
0.0
 10
579.4737930591054
 20
-527.602103276375
 30
0.0
 10
578.4175267833278
 20
-527.7850378466419
 30
0.0
 10
578.2246014361539
 20
-526.5434254337578
 30
0.0
 10
578.8240480505873
 20
-525.8182328341127
 30
0.0
 10
579.4110923212738
 20
-525.8182328341127
 30
0.0
 10
579.896850784694
 20
-525.8182328341127
 30
0.0
 10
580.0704835971507
 20
-526.7070674693072
 30
0.0
 10
580.0704835971507
 20
-526.7070674693072
 30
0.0
 10
580.0704835971507
 20
-526.7070674693072
 30
0.0
 10
580.0973553419357
 20
-526.0004783852825
 30
0.0
 10
580.0704835971507
 20
-526.7070674693072
 30
0.0
  0
SPLINE
  5
4BC
330
4B6
100
AcDbEntity
  8
Layer 1
370
     0
100
AcDbSpline
210
0.0
220
0.0
230
1.0
 70
    11
 71
     3
 72
   203
 73
   199
 74
     0
 42
0.0000000001
 43
0.0000000001
 12
1.0
 22
0.0
 32
0.0
 13
1.0
 23
0.0
 33
0.0
 40
0.0
 40
0.0
 40
0.0
 40
0.0
 40
1.0
 40
1.0
 40
1.0
 40
2.0
 40
2.0
 40
2.0
 40
3.0
 40
3.0
 40
3.0
 40
4.0
 40
4.0
 40
4.0
 40
5.0
 40
5.0
 40
5.0
 40
6.0
 40
6.0
 40
6.0
 40
7.0
 40
7.0
 40
7.0
 40
8.0
 40
8.0
 40
8.0
 40
9.0
 40
9.0
 40
9.0
 40
10.0
 40
10.0
 40
10.0
 40
11.0
 40
11.0
 40
11.0
 40
12.0
 40
12.0
 40
12.0
 40
13.0
 40
13.0
 40
13.0
 40
14.0
 40
14.0
 40
14.0
 40
15.0
 40
15.0
 40
15.0
 40
16.0
 40
16.0
 40
16.0
 40
17.0
 40
17.0
 40
17.0
 40
18.0
 40
18.0
 40
18.0
 40
19.0
 40
19.0
 40
19.0
 40
20.0
 40
20.0
 40
20.0
 40
21.0
 40
21.0
 40
21.0
 40
22.0
 40
22.0
 40
22.0
 40
23.0
 40
23.0
 40
23.0
 40
24.0
 40
24.0
 40
24.0
 40
25.0
 40
25.0
 40
25.0
 40
26.0
 40
26.0
 40
26.0
 40
27.0
 40
27.0
 40
27.0
 40
28.0
 40
28.0
 40
28.0
 40
29.0
 40
29.0
 40
29.0
 40
30.0
 40
30.0
 40
30.0
 40
31.0
 40
31.0
 40
31.0
 40
32.0
 40
32.0
 40
32.0
 40
33.0
 40
33.0
 40
33.0
 40
34.0
 40
34.0
 40
34.0
 40
35.0
 40
35.0
 40
35.0
 40
36.0
 40
36.0
 40
36.0
 40
37.0
 40
37.0
 40
37.0
 40
38.0
 40
38.0
 40
38.0
 40
39.0
 40
39.0
 40
39.0
 40
40.0
 40
40.0
 40
40.0
 40
41.0
 40
41.0
 40
41.0
 40
42.0
 40
42.0
 40
42.0
 40
43.0
 40
43.0
 40
43.0
 40
44.0
 40
44.0
 40
44.0
 40
45.0
 40
45.0
 40
45.0
 40
46.0
 40
46.0
 40
46.0
 40
47.0
 40
47.0
 40
47.0
 40
48.0
 40
48.0
 40
48.0
 40
49.0
 40
49.0
 40
49.0
 40
50.0
 40
50.0
 40
50.0
 40
51.0
 40
51.0
 40
51.0
 40
52.0
 40
52.0
 40
52.0
 40
53.0
 40
53.0
 40
53.0
 40
54.0
 40
54.0
 40
54.0
 40
55.0
 40
55.0
 40
55.0
 40
56.0
 40
56.0
 40
56.0
 40
57.0
 40
57.0
 40
57.0
 40
58.0
 40
58.0
 40
58.0
 40
59.0
 40
59.0
 40
59.0
 40
60.0
 40
60.0
 40
60.0
 40
61.0
 40
61.0
 40
61.0
 40
62.0
 40
62.0
 40
62.0
 40
63.0
 40
63.0
 40
63.0
 40
64.0
 40
64.0
 40
64.0
 40
65.0
 40
65.0
 40
65.0
 40
66.0
 40
66.0
 40
66.0
 40
66.0
 10
587.867423699365
 20
-529.2919226118901
 30
0.0
 10
587.867423699365
 20
-529.2919226118901
 30
0.0
 10
588.0961780395887
 20
-530.2469030804014
 30
0.0
 10
588.0961780395887
 20
-530.2469030804014
 30
0.0
 10
588.2222685343488
 20
-530.7423078111804
 30
0.0
 10
588.3676515638264
 20
-531.2025725680097
 30
0.0
 10
588.6108753050851
 20
-531.6556026243201
 30
0.0
 10
590.1542780824769
 20
-533.7209373677273
 30
0.0
 10
594.0940892794086
 20
-533.4842593078906
 30
0.0
 10
596.1129152337619
 20
-532.8582854582207
 30
0.0
 10
597.2311932282739
 20
-532.5106753237591
 30
0.0
 10
598.3053740005748
 20
-531.9363779063679
 30
0.0
 10
599.3127199204652
 20
-531.3376203110315
 30
0.0
 10
601.8806940951672
 20
-533.0257170988039
 30
0.0
 10
605.1239069849845
 20
-533.5479935743678
 30
0.0
 10
608.3733210466689
 20
-533.5607404276632
 30
0.0
 10
611.6943930944531
 20
-533.5731427714101
 30
0.0
 10
615.085056071036
 20
-533.0505217862977
 30
0.0
 10
617.8721383186031
 20
-532.6446895381353
 30
0.0
 10
620.8362984741088
 20
-532.4545202673495
 30
0.0
 10
623.1996339769934
 20
-531.0568450289836
 30
0.0
 10
626.3181344102416
 20
-531.7276051199617
 30
0.0
 10
626.9906170489623
 20
-531.5029848943235
 30
0.0
 10
627.5204727345938
 20
-531.1598533839926
 30
0.0
 10
627.4708633596061
 20
-530.3237287097224
 30
0.0
 10
627.1690729950983
 20
-529.5837221994908
 30
0.0
 10
626.7508384031889
 20
-529.0666133671548
 30
0.0
 10
625.8792292454207
 20
-528.9973669479012
 30
0.0
 10
624.4088624923161
 20
-529.6298864789932
 30
0.0
 10
622.7490154875195
 20
-529.4424732845955
 30
0.0
 10
621.2138809392954
 20
-529.8193667306818
 30
0.0
 10
617.3119657926982
 20
-530.7288719387878
 30
0.0
 10
613.1578696565872
 20
-531.0857838310598
 30
0.0
 10
608.742635282691
 20
-531.3248734577361
 30
0.0
 10
606.0051624101114
 20
-531.3017913179849
 30
0.0
 10
602.5449085047265
 20
-531.2594166435163
 30
0.0
 10
600.6363256058982
 20
-528.9522361970445
 30
0.0
 10
600.4254857622009
 20
-528.2570159281211
 30
0.0
 10
600.9959935745582
 20
-527.3340748476227
 30
0.0
 10
600.7686172725317
 20
-526.3456769529045
 30
0.0
 10
600.4123943993569
 20
-525.6559688367574
 30
0.0
 10
599.8287952241556
 20
-525.1994936849618
 30
0.0
 10
598.980612715687
 20
-525.423424891503
 30
0.0
 10
597.8175484798635
 20
-526.2636836803555
 30
0.0
 10
597.8333959190988
 20
-527.6503346131685
 30
0.0
 10
597.9374378027534
 20
-528.9108950512215
 30
0.0
 10
596.263121396922
 20
-531.0747595255069
 30
0.0
 10
592.4094375871215
 20
-531.9780635617394
 30
0.0
 10
590.7592368496869
 20
-530.3003020604227
 30
0.0
 10
590.6731094625555
 20
-530.0036793391428
 30
0.0
 10
590.5077448792636
 20
-529.4214582021356
 30
0.0
 10
590.6758655389406
 20
-528.993232833319
 30
0.0
 10
590.6910239590788
 20
-528.9415564010402
 30
0.0
 10
590.706871398311
 20
-528.8854013446306
 30
0.0
 10
590.7144506083754
 20
-528.8216670781535
 30
0.0
 10
590.8005779955098
 20
-528.1715775600869
 30
0.0
 10
590.5869820754243
 20
-527.6844410584725
 30
0.0
 10
589.9923585946702
 20
-527.4732567052267
 30
0.0
 10
588.8616782564112
 20
-527.0581226992541
 30
0.0
 10
588.9285131088219
 20
-526.5506601342769
 30
0.0
 10
588.127872918053
 20
-525.8440710502521
 30
0.0
 10
587.3044950970783
 20
-525.0858055339486
 30
0.0
 10
586.3453805139816
 20
-525.4509856553851
 30
0.0
 10
585.77349466343
 20
-526.2106292098827
 30
0.0
 10
585.6329347676351
 20
-528.2446135843742
 30
0.0
 10
584.1963299502827
 20
-529.9116952896866
 30
0.0
 10
582.6164091607503
 20
-531.0068911444475
 30
0.0
 10
581.6069961835722
 20
-531.3558793171034
 30
0.0
 10
580.3419571213884
 20
-531.2404686183474
 30
0.0
 10
579.5158232240254
 20
-530.6799515828973
 30
0.0
 10
579.2415936233996
 20
-530.4904713312086
 30
0.0
 10
579.1451309498126
 20
-530.2810095257054
 30
0.0
 10
579.1396187970362
 20
-530.1332149293881
 30
0.0
 10
580.4570233105957
 20
-529.7625226551753
 30
0.0
 10
581.6380020429393
 20
-528.8667978290102
 30
0.0
 10
582.3125517389512
 20
-527.636209721679
 30
0.0
 10
583.1111248724322
 20
-525.4933603298537
 30
0.0
 10
581.5622099422638
 20
-523.2061614371963
 30
0.0
 10
579.1816489619562
 20
-523.5382686419744
 30
0.0
 10
576.986434118755
 20
-523.8455711592586
 30
0.0
 10
575.9039851172895
 20
-525.3951751085241
 30
0.0
 10
576.008027000944
 20
-528.0654686191411
 30
0.0
 10
574.8008655429094
 20
-528.0151702250565
 30
0.0
 10
573.7191055605441
 20
-527.6134720914764
 30
0.0
 10
572.5973824705435
 20
-527.1621645829086
 30
0.0
 10
571.6355118110649
 20
-526.7735578121725
 30
0.0
 10
571.4632570368025
 20
-525.8705982854885
 30
0.0
 10
570.0624812125
 20
-526.132081032819
 30
0.0
 10
568.960739676317
 20
-527.2972123259304
 30
0.0
 10
569.73313008411
 20
-528.0627125427529
 30
0.0
 10
570.4552220978152
 20
-528.9828975468632
 30
0.0
 10
571.1786921497209
 20
-529.9006709841337
 30
0.0
 10
571.1456192330593
 20
-531.2773311400396
 30
0.0
 10
569.9997804746683
 20
-531.9277651676548
 30
0.0
 10
568.3571589473013
 20
-532.317060957488
 30
0.0
 10
566.9832548677836
 20
-530.8790781019447
 30
0.0
 10
565.9841771770612
 20
-529.8131655588085
 30
0.0
 10
565.9972685399051
 20
-529.1775454417798
 30
0.0
 10
566.0158720555254
 20
-527.9438567485118
 30
0.0
 10
565.8525745295246
 20
-527.4002206809395
 30
0.0
 10
565.527357515717
 20
-526.3091589407608
 30
0.0
 10
564.8224909794317
 20
-525.3724374783213
 30
0.0
 10
563.5285131151751
 20
-525.8047969617203
 30
0.0
 10
562.7202937143322
 20
-526.8796667531182
 30
0.0
 10
563.0296632889077
 20
-528.167098935956
 30
0.0
 10
563.472702568314
 20
-529.2636728289111
 30
0.0
 10
563.1109675423596
 20
-530.3867739571025
 30
0.0
 10
562.5762887230488
 20
-531.4819698118635
 30
0.0
 10
561.527601657342
 20
-532.0386972422798
 30
0.0
 10
560.3087268746606
 20
-532.3291187916864
 30
0.0
 10
558.1865480557467
 20
-532.0376637136343
 30
0.0
 10
557.3087377261018
 20
-529.8617414051505
 30
0.0
 10
557.3590361201897
 20
-529.572697893938
 30
0.0
 10
557.4927058250141
 20
-528.7503536016088
 30
0.0
 10
557.4940838632083
 20
-527.9121618700476
 30
0.0
 10
557.4954619014055
 20
-527.394708528163
 30
0.0
 10
557.4472305646088
 20
-526.83488051181
 30
0.0
 10
557.280487943126
 20
-526.3784053600143
 30
0.0
 10
556.7347848182624
 20
-524.8952917536143
 30
0.0
 10
554.5106311729851
 20
-524.9107946832979
 30
0.0
 10
554.512009211176
 20
-527.4615433805769
 30
0.0
 10
554.512009211176
 20
-528.0716697910146
 30
0.0
 10
554.6029597319866
 20
-528.6835187491951
 30
0.0
 10
554.745586685076
 20
-529.2746971344638
 30
0.0
 10
553.8608861644669
 20
-531.0919850029331
 30
0.0
 10
552.0398086909639
 20
-531.4568206148211
 30
0.0
 10
550.7609892468391
 20
-531.2122188353684
 30
0.0
 10
548.883412207378
 20
-530.2541377809204
 30
0.0
 10
548.277075401974
 20
-528.2115406677158
 30
0.0
 10
548.0118030496099
 20
-526.1086543835193
 30
0.0
 10
549.3553902888573
 20
-524.256571050649
 30
0.0
 10
550.4881376844041
 20
-522.6339310770962
 30
0.0
 10
551.6601591684894
 20
-520.3798051010973
 30
0.0
 10
553.005124445931
 20
-517.8810773456456
 30
0.0
 10
553.5260228833007
 20
-516.8592620247205
 30
0.0
 10
553.6307537860523
 20
-513.7790021513587
 30
0.0
 10
553.309670886827
 20
-509.9838849648074
 30
0.0
 10
548.6415665043135
 20
-511.067712004467
 30
0.0
 10
547.6459339090762
 20
-513.0789587487559
 30
0.0
 10
545.2681290051569
 20
-516.8041404969565
 30
0.0
 10
544.8581626424121
 20
-521.8105532561216
 30
0.0
 10
545.2770862534185
 20
-526.0476761934303
 30
0.0
 10
544.8106203247156
 20
-526.9241084848779
 30
0.0
 10
544.1071318266277
 20
-527.5972801426957
 30
0.0
 10
543.4139786149954
 20
-528.290433354328
 30
0.0
 10
542.774568892933
 20
-528.840959612871
 30
0.0
 10
542.250914379175
 20
-528.9897877378337
 30
0.0
 10
541.8774660285708
 20
-529.8441714181756
 30
0.0
 10
542.0635011847775
 20
-530.1890254762492
 30
0.0
 10
542.1179336934443
 20
-530.2438024944646
 30
0.0
 10
542.5595949346502
 20
-530.5101083754745
 30
0.0
 10
543.91971863223
 20
-530.9273094387382
 30
0.0
 10
544.7286270521668
 20
-530.0984194649872
 30
0.0
 10
545.5954130762556
 20
-529.2674624339448
 30
0.0
 10
545.5954130762556
 20
-529.2674624339448
 30
0.0
 10
545.972995541439
 20
-528.9160626944494
 30
0.0
 10
545.972995541439
 20
-528.9160626944494
 30
0.0
 10
546.8694093867009
 20
-530.792606205265
 30
0.0
 10
548.2384903325392
 20
-532.9461353930947
 30
0.0
 10
550.4447294812933
 20
-533.5597068990177
 30
0.0
 10
551.723548925418
 20
-533.7743363477487
 30
0.0
 10
553.272463855583
 20
-533.7660681185841
 30
0.0
 10
554.4307049577272
 20
-533.0425980666816
 30
0.0
 10
554.4307049577272
 20
-533.0425980666816
 30
0.0
 10
556.136716242023
 20
-531.9470577023721
 30
0.0
 10
556.136716242023
 20
-531.9470577023721
 30
0.0
 10
557.37763963581
 20
-533.4105342645063
 30
0.0
 10
558.9885662847129
 20
-534.5866898631706
 30
0.0
 10
561.114879218209
 20
-534.3865298154776
 30
0.0
 10
562.5170330807057
 20
-534.3258961349372
 30
0.0
 10
563.6263538269561
 20
-533.3271629537633
 30
0.0
 10
564.5220786531211
 20
-532.3570240651169
 30
0.0
 10
564.5220786531211
 20
-532.3570240651169
 30
0.0
 10
565.0367759186174
 20
-531.7820376286287
 30
0.0
 10
565.0367759186174
 20
-531.7820376286287
 30
0.0
 10
566.4168811700085
 20
-533.2334563565645
 30
0.0
 10
568.0243627234261
 20
-534.586345353622
 30
0.0
 10
570.4297283912275
 20
-534.1408945073792
 30
0.0
 10
571.9042292589113
 20
-533.950380727045
 30
0.0
 10
572.6890220104544
 20
-533.1363046638804
 30
0.0
 10
573.265041975585
 20
-531.8461164046544
 30
0.0
 10
573.5365154998259
 20
-531.2146304022081
 30
0.0
 10
573.4579673227621
 20
-530.5259558147067
 30
0.0
 10
573.3897544321542
 20
-529.8669090483784
 30
0.0
 10
574.3922772183619
 20
-530.1252912097721
 30
0.0
 10
575.4320070358103
 20
-530.3392316394061
 30
0.0
 10
576.4676027386764
 20
-530.378505727938
 30
0.0
 10
576.8217585545601
 20
-531.2942121079174
 30
0.0
 10
577.4480769137786
 20
-532.357713084214
 30
0.0
 10
578.3713625038255
 20
-532.7831823766423
 30
0.0
 10
580.3702069043674
 20
-533.7040563998496
 30
0.0
 10
580.4832060362836
 20
-533.5524721984985
 30
0.0
 10
582.362850133036
 20
-533.4529089389749
 30
0.0
 10
584.7620146289639
 20
-533.0074580927321
 30
0.0
 10
587.867423699365
 20
-529.2919226118901
 30
0.0
 10
587.867423699365
 20
-529.2919226118901
 30
0.0
 10
587.867423699365
 20
-529.2919226118901
 30
0.0
 10
586.5245254792177
 20
-531.1336706583047
 30
0.0
 10
587.867423699365
 20
-529.2919226118901
 30
0.0
  0
SPLINE
  5
4BD
330
4B6
100
AcDbEntity
  8
Layer 1
370
     0
100
AcDbSpline
210
0.0
220
0.0
230
1.0
 70
    11
 71
     3
 72
    56
 73
    52
 74
     0
 42
0.0000000001
 43
0.0000000001
 12
1.0
 22
0.0
 32
0.0
 13
1.0
 23
0.0
 33
0.0
 40
0.0
 40
0.0
 40
0.0
 40
0.0
 40
1.0
 40
1.0
 40
1.0
 40
2.0
 40
2.0
 40
2.0
 40
3.0
 40
3.0
 40
3.0
 40
4.0
 40
4.0
 40
4.0
 40
5.0
 40
5.0
 40
5.0
 40
6.0
 40
6.0
 40
6.0
 40
7.0
 40
7.0
 40
7.0
 40
8.0
 40
8.0
 40
8.0
 40
9.0
 40
9.0
 40
9.0
 40
10.0
 40
10.0
 40
10.0
 40
11.0
 40
11.0
 40
11.0
 40
12.0
 40
12.0
 40
12.0
 40
13.0
 40
13.0
 40
13.0
 40
14.0
 40
14.0
 40
14.0
 40
15.0
 40
15.0
 40
15.0
 40
16.0
 40
16.0
 40
16.0
 40
17.0
 40
17.0
 40
17.0
 40
17.0
 10
529.2952882973444
 20
-515.9263301673149
 30
0.0
 10
529.2952882973444
 20
-515.9263301673149
 30
0.0
 10
528.7861031846246
 20
-515.4553856144812
 30
0.0
 10
528.7861031846246
 20
-515.4553856144812
 30
0.0
 10
528.7861031846246
 20
-515.4553856144812
 30
0.0
 10
529.2766847817242
 20
-515.218363045096
 30
0.0
 10
529.2766847817242
 20
-515.218363045096
 30
0.0
 10
530.0476971513199
 20
-514.971005189255
 30
0.0
 10
530.8841663351417
 20
-514.9093379800692
 30
0.0
 10
531.2762182013631
 20
-515.804373787137
 30
0.0
 10
531.3719918558531
 20
-516.5895110482254
 30
0.0
 10
531.0447077847512
 20
-517.0635561869958
 30
0.0
 10
530.4886693734318
 20
-517.5527597459013
 30
0.0
 10
529.2918432018561
 20
-517.6616247632352
 30
0.0
 10
528.4898249728931
 20
-518.7643998280637
 30
0.0
 10
527.7498184626614
 20
-519.5908782349751
 30
0.0
 10
526.8961238014165
 20
-521.6031585079095
 30
0.0
 10
527.5989232804043
 20
-524.0209265194578
 30
0.0
 10
528.0171578723168
 20
-526.0476761934303
 30
0.0
 10
528.0171578723168
 20
-526.0476761934303
 30
0.0
 10
528.2727839573223
 20
-526.2964120874653
 30
0.0
 10
528.2727839573223
 20
-526.2964120874653
 30
0.0
 10
528.7337377332487
 20
-526.752887239261
 30
0.0
 10
529.108564122044
 20
-527.2386457026812
 30
0.0
 10
529.0754912053856
 20
-527.9355885193472
 30
0.0
 10
528.6365860405647
 20
-529.1155337230454
 30
0.0
 10
526.2946101296918
 20
-529.6894866308879
 30
0.0
 10
526.0451852165597
 20
-527.8057084195533
 30
0.0
 10
525.6214384718741
 20
-527.0581226992541
 30
0.0
 10
525.4512507549027
 20
-526.5155201603272
 30
0.0
 10
525.3423857375656
 20
-525.9618933158476
 30
0.0
 10
525.3423857375656
 20
-525.9618933158476
 30
0.0
 10
525.2659046177963
 20
-525.525055208318
 30
0.0
 10
525.2659046177963
 20
-525.525055208318
 30
0.0
 10
525.1218996265128
 20
-526.6164614580451
 30
0.0
 10
525.2969104771603
 20
-527.8873571825537
 30
0.0
 10
525.4795005378818
 20
-528.959815407112
 30
0.0
 10
525.855704964871
 20
-530.379883766132
 30
0.0
 10
526.8354901208761
 20
-531.4643998248887
 30
0.0
 10
528.2397110406639
 20
-532.0345631276975
 30
0.0
 10
531.4581192429844
 20
-532.7976517776804
 30
0.0
 10
534.1129098239146
 20
-530.5989918389939
 30
0.0
 10
535.949145717556
 20
-528.220153406429
 30
0.0
 10
538.8409588678716
 20
-524.0905174482599
 30
0.0
 10
541.40893304258
 20
-518.912883443478
 30
0.0
 10
539.0724692844835
 20
-513.9102602893466
 30
0.0
 10
536.2840089987224
 20
-510.4210675818856
 30
0.0
 10
529.2952882973444
 20
-515.9263301673149
 30
0.0
 10
529.2952882973444
 20
-515.9263301673149
 30
0.0
 10
529.2952882973444
 20
-515.9263301673149
 30
0.0
 10
530.8138863872426
 20
-512.0416404981471
 30
0.0
 10
529.2952882973444
 20
-515.9263301673149
 30
0.0
  0
SPLINE
  5
4BE
330
4B6
100
AcDbEntity
  8
Layer 1
370
     0
100
AcDbSpline
210
0.0
220
0.0
230
1.0
 70
    11
 71
     3
 72
    26
 73
    22
 74
     0
 42
0.0000000001
 43
0.0000000001
 12
1.0
 22
0.0
 32
0.0
 13
1.0
 23
0.0
 33
0.0
 40
0.0
 40
0.0
 40
0.0
 40
0.0
 40
1.0
 40
1.0
 40
1.0
 40
2.0
 40
2.0
 40
2.0
 40
3.0
 40
3.0
 40
3.0
 40
4.0
 40
4.0
 40
4.0
 40
5.0
 40
5.0
 40
5.0
 40
6.0
 40
6.0
 40
6.0
 40
7.0
 40
7.0
 40
7.0
 40
7.0
 10
537.9548803090685
 20
-529.9268537098217
 30
0.0
 10
535.6900745370652
 20
-533.0022904495042
 30
0.0
 10
532.0003772723594
 20
-535.0517777536793
 30
0.0
 10
528.0516088271693
 20
-534.49573934236
 30
0.0
 10
525.2679716750874
 20
-533.7543547939342
 30
0.0
 10
523.4661867363018
 20
-531.0499548380132
 30
0.0
 10
523.0059219794724
 20
-528.3903411234003
 30
0.0
 10
522.4450604344737
 20
-524.9135507596861
 30
0.0
 10
523.3876385592381
 20
-521.747163499193
 30
0.0
 10
525.2238744528762
 20
-519.1299244590487
 30
0.0
 10
525.7744007114192
 20
-515.3282615910755
 30
0.0
 10
527.9365426379619
 20
-511.6774939053562
 30
0.0
 10
531.7096112134076
 20
-509.999387894491
 30
0.0
 10
534.0619224107362
 20
-509.1412146091153
 30
0.0
 10
539.3287843885829
 20
-508.7632876343834
 30
0.0
 10
541.1133438499423
 20
-512.6207610492177
 30
0.0
 10
544.3531116442745
 20
-518.5955901492864
 30
0.0
 10
537.9548803090685
 20
-529.9268537098217
 30
0.0
 10
537.9548803090685
 20
-529.9268537098217
 30
0.0
 10
537.9548803090685
 20
-529.9268537098217
 30
0.0
 10
541.1043866016839
 20
-525.1557409722992
 30
0.0
 10
537.9548803090685
 20
-529.9268537098217
 30
0.0
  0
SPLINE
  5
4BF
330
4B6
100
AcDbEntity
  8
Layer 1
370
     0
100
AcDbSpline
210
0.0
220
0.0
230
1.0
 70
    11
 71
     3
 72
    20
 73
    16
 74
     0
 42
0.0000000001
 43
0.0000000001
 12
1.0
 22
0.0
 32
0.0
 13
1.0
 23
0.0
 33
0.0
 40
0.0
 40
0.0
 40
0.0
 40
0.0
 40
1.0
 40
1.0
 40
1.0
 40
2.0
 40
2.0
 40
2.0
 40
3.0
 40
3.0
 40
3.0
 40
4.0
 40
4.0
 40
4.0
 40
5.0
 40
5.0
 40
5.0
 40
5.0
 10
600.5377958750199
 20
-522.8868010857136
 30
0.0
 10
600.690758114565
 20
-522.4217131952049
 30
0.0
 10
600.6411487395775
 20
-521.8026295365055
 30
0.0
 10
600.3627850243693
 20
-521.3744041676889
 30
0.0
 10
599.7605823335476
 20
-520.616483160934
 30
0.0
 10
598.6002741741122
 20
-520.0780147365895
 30
0.0
 10
597.880249217695
 20
-521.0712357649869
 30
0.0
 10
597.5178251726468
 20
-521.9576588333417
 30
0.0
 10
597.7892986968876
 20
-522.8399477871143
 30
0.0
 10
598.5010554241403
 20
-523.4483516498093
 30
0.0
 10
599.2575983927011
 20
-523.6295636723335
 30
0.0
 10
600.5377958750199
 20
-522.8868010857136
 30
0.0
 10
600.5377958750199
 20
-522.8868010857136
 30
0.0
 10
600.5377958750199
 20
-522.8868010857136
 30
0.0
 10
600.1195612831075
 20
-523.8107756948576
 30
0.0
 10
600.5377958750199
 20
-522.8868010857136
 30
0.0
  0
SPLINE
  5
4C0
330
4B6
100
AcDbEntity
  8
Layer 1
370
     0
100
AcDbSpline
210
0.0
220
0.0
230
1.0
 70
    11
 71
     3
 72
    20
 73
    16
 74
     0
 42
0.0000000001
 43
0.0000000001
 12
1.0
 22
0.0
 32
0.0
 13
1.0
 23
0.0
 33
0.0
 40
0.0
 40
0.0
 40
0.0
 40
0.0
 40
1.0
 40
1.0
 40
1.0
 40
2.0
 40
2.0
 40
2.0
 40
3.0
 40
3.0
 40
3.0
 40
4.0
 40
4.0
 40
4.0
 40
5.0
 40
5.0
 40
5.0
 40
5.0
 10
557.0992759205986
 20
-521.4670772362422
 30
0.0
 10
556.7099801307686
 20
-522.0251827048527
 30
0.0
 10
555.7487984903839
 20
-522.0265607430467
 30
0.0
 10
555.2520157214077
 20
-521.8236446189655
 30
0.0
 10
554.5333688031877
 20
-521.5304669931708
 30
0.0
 10
553.8505508780112
 20
-520.5823767156301
 30
0.0
 10
554.3769614681574
 20
-519.6656368070051
 30
0.0
 10
554.9646947579411
 20
-518.6424434478859
 30
0.0
 10
556.1842585597194
 20
-518.9235632394822
 30
0.0
 10
556.81402201442
 20
-519.4365379572359
 30
0.0
 10
557.2088299570296
 20
-519.7576208564612
 30
0.0
 10
557.0992759205986
 20
-521.4670772362422
 30
0.0
 10
557.0992759205986
 20
-521.4670772362422
 30
0.0
 10
557.0992759205986
 20
-521.4670772362422
 30
0.0
 10
557.6249974916509
 20
-520.7153574013606
 30
0.0
 10
557.0992759205986
 20
-521.4670772362422
 30
0.0
  0
HATCH
  5
4C1
330
4B6
100
AcDbEntity
  8
Layer 1
 62
   152
420
    26316
100
AcDbHatch
 10
0.0
 20
0.0
 30
0.0
210
0.0
220
0.0
230
1.0
  2
SOLID
 70
     1
 71
     0
 91
        7
 92
        1
 93
        1
 72
     4
 94
        3
 73
     0
 74
     1
 95
       17
 96
       13
 40
0.0
 40
0.0
 40
0.0
 40
0.0
 40
1.0
 40
1.0
 40
1.0
 40
2.0
 40
2.0
 40
2.0
 40
3.0
 40
3.0
 40
3.0
 40
4.0
 40
4.0
 40
4.0
 40
4.0
 10
550.8381593857088
 20
-514.4535518473706
 10
550.6224964083322
 20
-517.3860171244152
 10
549.4187800457859
 20
-519.3266394112565
 10
547.9835532666275
 20
-521.748541537387
 10
548.0014677631541
 20
-518.70686673346
 10
548.414879221384
 20
-515.9852413001126
 10
550.2834990125835
 20
-514.01223511571
 10
550.523277658357
 20
-513.6852955541598
 10
550.8381593857088
 20
-514.4535518473706
 10
550.8381593857088
 20
-514.4535518473706
 10
550.8381593857088
 20
-514.4535518473706
 10
550.8987930662491
 20
-513.7421396296664
 10
550.8381593857088
 20
-514.4535518473706
 97
        0
 97
        0
 92
        1
 93
        1
 72
     4
 94
        3
 73
     0
 74
     1
 95
       17
 96
       13
 40
0.0
 40
0.0
 40
0.0
 40
0.0
 40
1.0
 40
1.0
 40
1.0
 40
2.0
 40
2.0
 40
2.0
 40
3.0
 40
3.0
 40
3.0
 40
4.0
 40
4.0
 40
4.0
 40
4.0
 10
580.0704835971507
 20
-526.7070674693072
 10
580.060837329792
 20
-526.9533917965025
 10
579.4737930591054
 20
-527.602103276375
 10
578.4175267833278
 20
-527.7850378466419
 10
578.2246014361539
 20
-526.5434254337578
 10
578.8240480505873
 20
-525.8182328341127
 10
579.4110923212738
 20
-525.8182328341127
 10
579.896850784694
 20
-525.8182328341127
 10
580.0704835971507
 20
-526.7070674693072
 10
580.0704835971507
 20
-526.7070674693072
 10
580.0704835971507
 20
-526.7070674693072
 10
580.0973553419357
 20
-526.0004783852825
 10
580.0704835971507
 20
-526.7070674693072
 97
        0
 97
        0
 92
        1
 93
        1
 72
     4
 94
        3
 73
     0
 74
     1
 95
      203
 96
      199
 40
0.0
 40
0.0
 40
0.0
 40
0.0
 40
1.0
 40
1.0
 40
1.0
 40
2.0
 40
2.0
 40
2.0
 40
3.0
 40
3.0
 40
3.0
 40
4.0
 40
4.0
 40
4.0
 40
5.0
 40
5.0
 40
5.0
 40
6.0
 40
6.0
 40
6.0
 40
7.0
 40
7.0
 40
7.0
 40
8.0
 40
8.0
 40
8.0
 40
9.0
 40
9.0
 40
9.0
 40
10.0
 40
10.0
 40
10.0
 40
11.0
 40
11.0
 40
11.0
 40
12.0
 40
12.0
 40
12.0
 40
13.0
 40
13.0
 40
13.0
 40
14.0
 40
14.0
 40
14.0
 40
15.0
 40
15.0
 40
15.0
 40
16.0
 40
16.0
 40
16.0
 40
17.0
 40
17.0
 40
17.0
 40
18.0
 40
18.0
 40
18.0
 40
19.0
 40
19.0
 40
19.0
 40
20.0
 40
20.0
 40
20.0
 40
21.0
 40
21.0
 40
21.0
 40
22.0
 40
22.0
 40
22.0
 40
23.0
 40
23.0
 40
23.0
 40
24.0
 40
24.0
 40
24.0
 40
25.0
 40
25.0
 40
25.0
 40
26.0
 40
26.0
 40
26.0
 40
27.0
 40
27.0
 40
27.0
 40
28.0
 40
28.0
 40
28.0
 40
29.0
 40
29.0
 40
29.0
 40
30.0
 40
30.0
 40
30.0
 40
31.0
 40
31.0
 40
31.0
 40
32.0
 40
32.0
 40
32.0
 40
33.0
 40
33.0
 40
33.0
 40
34.0
 40
34.0
 40
34.0
 40
35.0
 40
35.0
 40
35.0
 40
36.0
 40
36.0
 40
36.0
 40
37.0
 40
37.0
 40
37.0
 40
38.0
 40
38.0
 40
38.0
 40
39.0
 40
39.0
 40
39.0
 40
40.0
 40
40.0
 40
40.0
 40
41.0
 40
41.0
 40
41.0
 40
42.0
 40
42.0
 40
42.0
 40
43.0
 40
43.0
 40
43.0
 40
44.0
 40
44.0
 40
44.0
 40
45.0
 40
45.0
 40
45.0
 40
46.0
 40
46.0
 40
46.0
 40
47.0
 40
47.0
 40
47.0
 40
48.0
 40
48.0
 40
48.0
 40
49.0
 40
49.0
 40
49.0
 40
50.0
 40
50.0
 40
50.0
 40
51.0
 40
51.0
 40
51.0
 40
52.0
 40
52.0
 40
52.0
 40
53.0
 40
53.0
 40
53.0
 40
54.0
 40
54.0
 40
54.0
 40
55.0
 40
55.0
 40
55.0
 40
56.0
 40
56.0
 40
56.0
 40
57.0
 40
57.0
 40
57.0
 40
58.0
 40
58.0
 40
58.0
 40
59.0
 40
59.0
 40
59.0
 40
60.0
 40
60.0
 40
60.0
 40
61.0
 40
61.0
 40
61.0
 40
62.0
 40
62.0
 40
62.0
 40
63.0
 40
63.0
 40
63.0
 40
64.0
 40
64.0
 40
64.0
 40
65.0
 40
65.0
 40
65.0
 40
66.0
 40
66.0
 40
66.0
 40
66.0
 10
587.867423699365
 20
-529.2919226118901
 10
587.867423699365
 20
-529.2919226118901
 10
588.0961780395887
 20
-530.2469030804014
 10
588.0961780395887
 20
-530.2469030804014
 10
588.2222685343488
 20
-530.7423078111804
 10
588.3676515638264
 20
-531.2025725680097
 10
588.6108753050851
 20
-531.6556026243201
 10
590.1542780824769
 20
-533.7209373677273
 10
594.0940892794086
 20
-533.4842593078906
 10
596.1129152337619
 20
-532.8582854582207
 10
597.2311932282739
 20
-532.5106753237591
 10
598.3053740005748
 20
-531.9363779063679
 10
599.3127199204652
 20
-531.3376203110315
 10
601.8806940951672
 20
-533.0257170988039
 10
605.1239069849845
 20
-533.5479935743678
 10
608.3733210466689
 20
-533.5607404276632
 10
611.6943930944531
 20
-533.5731427714101
 10
615.085056071036
 20
-533.0505217862977
 10
617.8721383186031
 20
-532.6446895381353
 10
620.8362984741088
 20
-532.4545202673495
 10
623.1996339769934
 20
-531.0568450289836
 10
626.3181344102416
 20
-531.7276051199617
 10
626.9906170489623
 20
-531.5029848943235
 10
627.5204727345938
 20
-531.1598533839926
 10
627.4708633596061
 20
-530.3237287097224
 10
627.1690729950983
 20
-529.5837221994908
 10
626.7508384031889
 20
-529.0666133671548
 10
625.8792292454207
 20
-528.9973669479012
 10
624.4088624923161
 20
-529.6298864789932
 10
622.7490154875195
 20
-529.4424732845955
 10
621.2138809392954
 20
-529.8193667306818
 10
617.3119657926982
 20
-530.7288719387878
 10
613.1578696565872
 20
-531.0857838310598
 10
608.742635282691
 20
-531.3248734577361
 10
606.0051624101114
 20
-531.3017913179849
 10
602.5449085047265
 20
-531.2594166435163
 10
600.6363256058982
 20
-528.9522361970445
 10
600.4254857622009
 20
-528.2570159281211
 10
600.9959935745582
 20
-527.3340748476227
 10
600.7686172725317
 20
-526.3456769529045
 10
600.4123943993569
 20
-525.6559688367574
 10
599.8287952241556
 20
-525.1994936849618
 10
598.980612715687
 20
-525.423424891503
 10
597.8175484798635
 20
-526.2636836803555
 10
597.8333959190988
 20
-527.6503346131685
 10
597.9374378027534
 20
-528.9108950512215
 10
596.263121396922
 20
-531.0747595255069
 10
592.4094375871215
 20
-531.9780635617394
 10
590.7592368496869
 20
-530.3003020604227
 10
590.6731094625555
 20
-530.0036793391428
 10
590.5077448792636
 20
-529.4214582021356
 10
590.6758655389406
 20
-528.993232833319
 10
590.6910239590788
 20
-528.9415564010402
 10
590.706871398311
 20
-528.8854013446306
 10
590.7144506083754
 20
-528.8216670781535
 10
590.8005779955098
 20
-528.1715775600869
 10
590.5869820754243
 20
-527.6844410584725
 10
589.9923585946702
 20
-527.4732567052267
 10
588.8616782564112
 20
-527.0581226992541
 10
588.9285131088219
 20
-526.5506601342769
 10
588.127872918053
 20
-525.8440710502521
 10
587.3044950970783
 20
-525.0858055339486
 10
586.3453805139816
 20
-525.4509856553851
 10
585.77349466343
 20
-526.2106292098827
 10
585.6329347676351
 20
-528.2446135843742
 10
584.1963299502827
 20
-529.9116952896866
 10
582.6164091607503
 20
-531.0068911444475
 10
581.6069961835722
 20
-531.3558793171034
 10
580.3419571213884
 20
-531.2404686183474
 10
579.5158232240254
 20
-530.6799515828973
 10
579.2415936233996
 20
-530.4904713312086
 10
579.1451309498126
 20
-530.2810095257054
 10
579.1396187970362
 20
-530.1332149293881
 10
580.4570233105957
 20
-529.7625226551753
 10
581.6380020429393
 20
-528.8667978290102
 10
582.3125517389512
 20
-527.636209721679
 10
583.1111248724322
 20
-525.4933603298537
 10
581.5622099422638
 20
-523.2061614371963
 10
579.1816489619562
 20
-523.5382686419744
 10
576.986434118755
 20
-523.8455711592586
 10
575.9039851172895
 20
-525.3951751085241
 10
576.008027000944
 20
-528.0654686191411
 10
574.8008655429094
 20
-528.0151702250565
 10
573.7191055605441
 20
-527.6134720914764
 10
572.5973824705435
 20
-527.1621645829086
 10
571.6355118110649
 20
-526.7735578121725
 10
571.4632570368025
 20
-525.8705982854885
 10
570.0624812125
 20
-526.132081032819
 10
568.960739676317
 20
-527.2972123259304
 10
569.73313008411
 20
-528.0627125427529
 10
570.4552220978152
 20
-528.9828975468632
 10
571.1786921497209
 20
-529.9006709841337
 10
571.1456192330593
 20
-531.2773311400396
 10
569.9997804746683
 20
-531.9277651676548
 10
568.3571589473013
 20
-532.317060957488
 10
566.9832548677836
 20
-530.8790781019447
 10
565.9841771770612
 20
-529.8131655588085
 10
565.9972685399051
 20
-529.1775454417798
 10
566.0158720555254
 20
-527.9438567485118
 10
565.8525745295246
 20
-527.4002206809395
 10
565.527357515717
 20
-526.3091589407608
 10
564.8224909794317
 20
-525.3724374783213
 10
563.5285131151751
 20
-525.8047969617203
 10
562.7202937143322
 20
-526.8796667531182
 10
563.0296632889077
 20
-528.167098935956
 10
563.472702568314
 20
-529.2636728289111
 10
563.1109675423596
 20
-530.3867739571025
 10
562.5762887230488
 20
-531.4819698118635
 10
561.527601657342
 20
-532.0386972422798
 10
560.3087268746606
 20
-532.3291187916864
 10
558.1865480557467
 20
-532.0376637136343
 10
557.3087377261018
 20
-529.8617414051505
 10
557.3590361201897
 20
-529.572697893938
 10
557.4927058250141
 20
-528.7503536016088
 10
557.4940838632083
 20
-527.9121618700476
 10
557.4954619014055
 20
-527.394708528163
 10
557.4472305646088
 20
-526.83488051181
 10
557.280487943126
 20
-526.3784053600143
 10
556.7347848182624
 20
-524.8952917536143
 10
554.5106311729851
 20
-524.9107946832979
 10
554.512009211176
 20
-527.4615433805769
 10
554.512009211176
 20
-528.0716697910146
 10
554.6029597319866
 20
-528.6835187491951
 10
554.745586685076
 20
-529.2746971344638
 10
553.8608861644669
 20
-531.0919850029331
 10
552.0398086909639
 20
-531.4568206148211
 10
550.7609892468391
 20
-531.2122188353684
 10
548.883412207378
 20
-530.2541377809204
 10
548.277075401974
 20
-528.2115406677158
 10
548.0118030496099
 20
-526.1086543835193
 10
549.3553902888573
 20
-524.256571050649
 10
550.4881376844041
 20
-522.6339310770962
 10
551.6601591684894
 20
-520.3798051010973
 10
553.005124445931
 20
-517.8810773456456
 10
553.5260228833007
 20
-516.8592620247205
 10
553.6307537860523
 20
-513.7790021513587
 10
553.309670886827
 20
-509.9838849648074
 10
548.6415665043135
 20
-511.067712004467
 10
547.6459339090762
 20
-513.0789587487559
 10
545.2681290051569
 20
-516.8041404969565
 10
544.8581626424121
 20
-521.8105532561216
 10
545.2770862534185
 20
-526.0476761934303
 10
544.8106203247156
 20
-526.9241084848779
 10
544.1071318266277
 20
-527.5972801426957
 10
543.4139786149954
 20
-528.290433354328
 10
542.774568892933
 20
-528.840959612871
 10
542.250914379175
 20
-528.9897877378337
 10
541.8774660285708
 20
-529.8441714181756
 10
542.0635011847775
 20
-530.1890254762492
 10
542.1179336934443
 20
-530.2438024944646
 10
542.5595949346502
 20
-530.5101083754745
 10
543.91971863223
 20
-530.9273094387382
 10
544.7286270521668
 20
-530.0984194649872
 10
545.5954130762556
 20
-529.2674624339448
 10
545.5954130762556
 20
-529.2674624339448
 10
545.972995541439
 20
-528.9160626944494
 10
545.972995541439
 20
-528.9160626944494
 10
546.8694093867009
 20
-530.792606205265
 10
548.2384903325392
 20
-532.9461353930947
 10
550.4447294812933
 20
-533.5597068990177
 10
551.723548925418
 20
-533.7743363477487
 10
553.272463855583
 20
-533.7660681185841
 10
554.4307049577272
 20
-533.0425980666816
 10
554.4307049577272
 20
-533.0425980666816
 10
556.136716242023
 20
-531.9470577023721
 10
556.136716242023
 20
-531.9470577023721
 10
557.37763963581
 20
-533.4105342645063
 10
558.9885662847129
 20
-534.5866898631706
 10
561.114879218209
 20
-534.3865298154776
 10
562.5170330807057
 20
-534.3258961349372
 10
563.6263538269561
 20
-533.3271629537633
 10
564.5220786531211
 20
-532.3570240651169
 10
564.5220786531211
 20
-532.3570240651169
 10
565.0367759186174
 20
-531.7820376286287
 10
565.0367759186174
 20
-531.7820376286287
 10
566.4168811700085
 20
-533.2334563565645
 10
568.0243627234261
 20
-534.586345353622
 10
570.4297283912275
 20
-534.1408945073792
 10
571.9042292589113
 20
-533.950380727045
 10
572.6890220104544
 20
-533.1363046638804
 10
573.265041975585
 20
-531.8461164046544
 10
573.5365154998259
 20
-531.2146304022081
 10
573.4579673227621
 20
-530.5259558147067
 10
573.3897544321542
 20
-529.8669090483784
 10
574.3922772183619
 20
-530.1252912097721
 10
575.4320070358103
 20
-530.3392316394061
 10
576.4676027386764
 20
-530.378505727938
 10
576.8217585545601
 20
-531.2942121079174
 10
577.4480769137786
 20
-532.357713084214
 10
578.3713625038255
 20
-532.7831823766423
 10
580.3702069043674
 20
-533.7040563998496
 10
580.4832060362836
 20
-533.5524721984985
 10
582.362850133036
 20
-533.4529089389749
 10
584.7620146289639
 20
-533.0074580927321
 10
587.867423699365
 20
-529.2919226118901
 10
587.867423699365
 20
-529.2919226118901
 10
587.867423699365
 20
-529.2919226118901
 10
586.5245254792177
 20
-531.1336706583047
 10
587.867423699365
 20
-529.2919226118901
 97
        0
 97
        0
 92
        1
 93
        1
 72
     4
 94
        3
 73
     0
 74
     1
 95
       56
 96
       52
 40
0.0
 40
0.0
 40
0.0
 40
0.0
 40
1.0
 40
1.0
 40
1.0
 40
2.0
 40
2.0
 40
2.0
 40
3.0
 40
3.0
 40
3.0
 40
4.0
 40
4.0
 40
4.0
 40
5.0
 40
5.0
 40
5.0
 40
6.0
 40
6.0
 40
6.0
 40
7.0
 40
7.0
 40
7.0
 40
8.0
 40
8.0
 40
8.0
 40
9.0
 40
9.0
 40
9.0
 40
10.0
 40
10.0
 40
10.0
 40
11.0
 40
11.0
 40
11.0
 40
12.0
 40
12.0
 40
12.0
 40
13.0
 40
13.0
 40
13.0
 40
14.0
 40
14.0
 40
14.0
 40
15.0
 40
15.0
 40
15.0
 40
16.0
 40
16.0
 40
16.0
 40
17.0
 40
17.0
 40
17.0
 40
17.0
 10
529.2952882973444
 20
-515.9263301673149
 10
529.2952882973444
 20
-515.9263301673149
 10
528.7861031846246
 20
-515.4553856144812
 10
528.7861031846246
 20
-515.4553856144812
 10
528.7861031846246
 20
-515.4553856144812
 10
529.2766847817242
 20
-515.218363045096
 10
529.2766847817242
 20
-515.218363045096
 10
530.0476971513199
 20
-514.971005189255
 10
530.8841663351417
 20
-514.9093379800692
 10
531.2762182013631
 20
-515.804373787137
 10
531.3719918558531
 20
-516.5895110482254
 10
531.0447077847512
 20
-517.0635561869958
 10
530.4886693734318
 20
-517.5527597459013
 10
529.2918432018561
 20
-517.6616247632352
 10
528.4898249728931
 20
-518.7643998280637
 10
527.7498184626614
 20
-519.5908782349751
 10
526.8961238014165
 20
-521.6031585079095
 10
527.5989232804043
 20
-524.0209265194578
 10
528.0171578723168
 20
-526.0476761934303
 10
528.0171578723168
 20
-526.0476761934303
 10
528.2727839573223
 20
-526.2964120874653
 10
528.2727839573223
 20
-526.2964120874653
 10
528.7337377332487
 20
-526.752887239261
 10
529.108564122044
 20
-527.2386457026812
 10
529.0754912053856
 20
-527.9355885193472
 10
528.6365860405647
 20
-529.1155337230454
 10
526.2946101296918
 20
-529.6894866308879
 10
526.0451852165597
 20
-527.8057084195533
 10
525.6214384718741
 20
-527.0581226992541
 10
525.4512507549027
 20
-526.5155201603272
 10
525.3423857375656
 20
-525.9618933158476
 10
525.3423857375656
 20
-525.9618933158476
 10
525.2659046177963
 20
-525.525055208318
 10
525.2659046177963
 20
-525.525055208318
 10
525.1218996265128
 20
-526.6164614580451
 10
525.2969104771603
 20
-527.8873571825537
 10
525.4795005378818
 20
-528.959815407112
 10
525.855704964871
 20
-530.379883766132
 10
526.8354901208761
 20
-531.4643998248887
 10
528.2397110406639
 20
-532.0345631276975
 10
531.4581192429844
 20
-532.7976517776804
 10
534.1129098239146
 20
-530.5989918389939
 10
535.949145717556
 20
-528.220153406429
 10
538.8409588678716
 20
-524.0905174482599
 10
541.40893304258
 20
-518.912883443478
 10
539.0724692844835
 20
-513.9102602893466
 10
536.2840089987224
 20
-510.4210675818856
 10
529.2952882973444
 20
-515.9263301673149
 10
529.2952882973444
 20
-515.9263301673149
 10
529.2952882973444
 20
-515.9263301673149
 10
530.8138863872426
 20
-512.0416404981471
 10
529.2952882973444
 20
-515.9263301673149
 97
        0
 97
        0
 92
        1
 93
        1
 72
     4
 94
        3
 73
     0
 74
     1
 95
       26
 96
       22
 40
0.0
 40
0.0
 40
0.0
 40
0.0
 40
1.0
 40
1.0
 40
1.0
 40
2.0
 40
2.0
 40
2.0
 40
3.0
 40
3.0
 40
3.0
 40
4.0
 40
4.0
 40
4.0
 40
5.0
 40
5.0
 40
5.0
 40
6.0
 40
6.0
 40
6.0
 40
7.0
 40
7.0
 40
7.0
 40
7.0
 10
537.9548803090685
 20
-529.9268537098217
 10
535.6900745370652
 20
-533.0022904495042
 10
532.0003772723594
 20
-535.0517777536793
 10
528.0516088271693
 20
-534.49573934236
 10
525.2679716750874
 20
-533.7543547939342
 10
523.4661867363018
 20
-531.0499548380132
 10
523.0059219794724
 20
-528.3903411234003
 10
522.4450604344737
 20
-524.9135507596861
 10
523.3876385592381
 20
-521.747163499193
 10
525.2238744528762
 20
-519.1299244590487
 10
525.7744007114192
 20
-515.3282615910755
 10
527.9365426379619
 20
-511.6774939053562
 10
531.7096112134076
 20
-509.999387894491
 10
534.0619224107362
 20
-509.1412146091153
 10
539.3287843885829
 20
-508.7632876343834
 10
541.1133438499423
 20
-512.6207610492177
 10
544.3531116442745
 20
-518.5955901492864
 10
537.9548803090685
 20
-529.9268537098217
 10
537.9548803090685
 20
-529.9268537098217
 10
537.9548803090685
 20
-529.9268537098217
 10
541.1043866016839
 20
-525.1557409722992
 10
537.9548803090685
 20
-529.9268537098217
 97
        0
 97
        0
 92
        1
 93
        1
 72
     4
 94
        3
 73
     0
 74
     1
 95
       20
 96
       16
 40
0.0
 40
0.0
 40
0.0
 40
0.0
 40
1.0
 40
1.0
 40
1.0
 40
2.0
 40
2.0
 40
2.0
 40
3.0
 40
3.0
 40
3.0
 40
4.0
 40
4.0
 40
4.0
 40
5.0
 40
5.0
 40
5.0
 40
5.0
 10
600.5377958750199
 20
-522.8868010857136
 10
600.690758114565
 20
-522.4217131952049
 10
600.6411487395775
 20
-521.8026295365055
 10
600.3627850243693
 20
-521.3744041676889
 10
599.7605823335476
 20
-520.616483160934
 10
598.6002741741122
 20
-520.0780147365895
 10
597.880249217695
 20
-521.0712357649869
 10
597.5178251726468
 20
-521.9576588333417
 10
597.7892986968876
 20
-522.8399477871143
 10
598.5010554241403
 20
-523.4483516498093
 10
599.2575983927011
 20
-523.6295636723335
 10
600.5377958750199
 20
-522.8868010857136
 10
600.5377958750199
 20
-522.8868010857136
 10
600.5377958750199
 20
-522.8868010857136
 10
600.1195612831075
 20
-523.8107756948576
 10
600.5377958750199
 20
-522.8868010857136
 97
        0
 97
        0
 92
        1
 93
        1
 72
     4
 94
        3
 73
     0
 74
     1
 95
       20
 96
       16
 40
0.0
 40
0.0
 40
0.0
 40
0.0
 40
1.0
 40
1.0
 40
1.0
 40
2.0
 40
2.0
 40
2.0
 40
3.0
 40
3.0
 40
3.0
 40
4.0
 40
4.0
 40
4.0
 40
5.0
 40
5.0
 40
5.0
 40
5.0
 10
557.0992759205986
 20
-521.4670772362422
 10
556.7099801307686
 20
-522.0251827048527
 10
555.7487984903839
 20
-522.0265607430467
 10
555.2520157214077
 20
-521.8236446189655
 10
554.5333688031877
 20
-521.5304669931708
 10
553.8505508780112
 20
-520.5823767156301
 10
554.3769614681574
 20
-519.6656368070051
 10
554.9646947579411
 20
-518.6424434478859
 10
556.1842585597194
 20
-518.9235632394822
 10
556.81402201442
 20
-519.4365379572359
 10
557.2088299570296
 20
-519.7576208564612
 10
557.0992759205986
 20
-521.4670772362422
 10
557.0992759205986
 20
-521.4670772362422
 10
557.0992759205986
 20
-521.4670772362422
 10
557.6249974916509
 20
-520.7153574013606
 10
557.0992759205986
 20
-521.4670772362422
 97
        0
 97
        0
 75
     2
 76
     1
 98
        0
  0
ENDBLK
  5
4B9
330
4B6
100
AcDbEntity
  8
0
100
AcDbBlockEnd
  0
BLOCK
  5
4C4
330
4C2
100
AcDbEntity
  8
0
100
AcDbBlockBegin
  2
block 47
 70
     0
 10
0.0
 20
0.0
 30
0.0
  3
block 47
  1

  0
SPLINE
  5
4C6
330
4C2
100
AcDbEntity
  8
Layer 1
370
     0
100
AcDbSpline
210
0.0
220
0.0
230
1.0
 70
    11
 71
     3
 72
    20
 73
    16
 74
     0
 42
0.0000000001
 43
0.0000000001
 12
1.0
 22
0.0
 32
0.0
 13
1.0
 23
0.0
 33
0.0
 40
0.0
 40
0.0
 40
0.0
 40
0.0
 40
1.0
 40
1.0
 40
1.0
 40
2.0
 40
2.0
 40
2.0
 40
3.0
 40
3.0
 40
3.0
 40
4.0
 40
4.0
 40
4.0
 40
5.0
 40
5.0
 40
5.0
 40
5.0
 10
624.9022001658038
 20
-525.9198631509275
 30
0.0
 10
624.9022001658038
 20
-525.9198631509275
 30
0.0
 10
625.1977893584383
 20
-525.9198631509275
 30
0.0
 10
625.1977893584383
 20
-525.9198631509275
 30
0.0
 10
625.3562637507598
 20
-525.9198631509275
 30
0.0
 10
625.5119820666931
 20
-525.9694725259152
 30
0.0
 10
625.5119820666931
 20
-526.1427608288233
 30
0.0
 10
625.5119820666931
 20
-526.3418873478707
 30
0.0
 10
625.3886476483211
 20
-526.3815059459511
 30
0.0
 10
625.1977893584383
 20
-526.3815059459511
 30
0.0
 10
625.1977893584383
 20
-526.3815059459511
 30
0.0
 10
624.9022001658038
 20
-526.3815059459511
 30
0.0
 10
624.9022001658038
 20
-526.3815059459511
 30
0.0
 10
624.9022001658038
 20
-526.3815059459511
 30
0.0
 10
624.9022001658038
 20
-525.9198631509275
 30
0.0
 10
624.9022001658038
 20
-525.9198631509275
 30
0.0
  0
ENDBLK
  5
4C5
330
4C2
100
AcDbEntity
  8
0
100
AcDbBlockEnd
  0
BLOCK
  5
4C9
330
4C7
100
AcDbEntity
  8
0
100
AcDbBlockBegin
  2
block 48
 70
     0
 10
0.0
 20
0.0
 30
0.0
  3
block 48
  1

  0
SPLINE
  5
4CB
330
4C7
100
AcDbEntity
  8
Layer 1
370
     0
100
AcDbSpline
210
0.0
220
0.0
230
1.0
 70
    11
 71
     3
 72
    35
 73
    31
 74
     0
 42
0.0000000001
 43
0.0000000001
 12
1.0
 22
0.0
 32
0.0
 13
1.0
 23
0.0
 33
0.0
 40
0.0
 40
0.0
 40
0.0
 40
0.0
 40
1.0
 40
1.0
 40
1.0
 40
2.0
 40
2.0
 40
2.0
 40
3.0
 40
3.0
 40
3.0
 40
4.0
 40
4.0
 40
4.0
 40
5.0
 40
5.0
 40
5.0
 40
6.0
 40
6.0
 40
6.0
 40
7.0
 40
7.0
 40
7.0
 40
8.0
 40
8.0
 40
8.0
 40
9.0
 40
9.0
 40
9.0
 40
10.0
 40
10.0
 40
10.0
 40
10.0
 10
624.6520862335748
 20
-527.2513925559766
 30
0.0
 10
624.6520862335748
 20
-527.2513925559766
 30
0.0
 10
624.9022001658038
 20
-527.2513925559766
 30
0.0
 10
624.9022001658038
 20
-527.2513925559766
 30
0.0
 10
624.9022001658038
 20
-527.2513925559766
 30
0.0
 10
624.9022001658038
 20
-526.5764983504162
 30
0.0
 10
624.9022001658038
 20
-526.5764983504162
 30
0.0
 10
624.9022001658038
 20
-526.5764983504162
 30
0.0
 10
625.110283933113
 20
-526.5764983504162
 30
0.0
 10
625.110283933113
 20
-526.5764983504162
 30
0.0
 10
625.110283933113
 20
-526.5764983504162
 30
0.0
 10
625.5367867541869
 20
-527.2513925559766
 30
0.0
 10
625.5367867541869
 20
-527.2513925559766
 30
0.0
 10
625.5367867541869
 20
-527.2513925559766
 30
0.0
 10
625.800681068357
 20
-527.2513925559766
 30
0.0
 10
625.800681068357
 20
-527.2513925559766
 30
0.0
 10
625.800681068357
 20
-527.2513925559766
 30
0.0
 10
625.3672880563126
 20
-526.5764983504162
 30
0.0
 10
625.3672880563126
 20
-526.5764983504162
 30
0.0
 10
625.6056886638919
 20
-526.5764983504162
 30
0.0
 10
625.7614069798252
 20
-526.3990759329258
 30
0.0
 10
625.7614069798252
 20
-526.1541296439245
 30
0.0
 10
625.7614069798252
 20
-525.8657751518092
 30
0.0
 10
625.5870851482715
 20
-525.7248707464624
 30
0.0
 10
625.2370634469702
 20
-525.7248707464624
 30
0.0
 10
625.2370634469702
 20
-525.7248707464624
 30
0.0
 10
624.6520862335748
 20
-525.7248707464624
 30
0.0
 10
624.6520862335748
 20
-525.7248707464624
 30
0.0
 10
624.6520862335748
 20
-525.7248707464624
 30
0.0
 10
624.6520862335748
 20
-527.2513925559766
 30
0.0
 10
624.6520862335748
 20
-527.2513925559766
 30
0.0
  0
ENDBLK
  5
4CA
330
4C7
100
AcDbEntity
  8
0
100
AcDbBlockEnd
  0
BLOCK
  5
4CE
330
4CC
100
AcDbEntity
  8
0
100
AcDbBlockBegin
  2
block 49
 70
     0
 10
0.0
 20
0.0
 30
0.0
  3
block 49
  1

  0
SPLINE
  5
4D0
330
4CC
100
AcDbEntity
  8
Layer 1
370
     0
100
AcDbSpline
210
0.0
220
0.0
230
1.0
 70
    11
 71
     3
 72
    17
 73
    13
 74
     0
 42
0.0000000001
 43
0.0000000001
 12
1.0
 22
0.0
 32
0.0
 13
1.0
 23
0.0
 33
0.0
 40
0.0
 40
0.0
 40
0.0
 40
0.0
 40
1.0
 40
1.0
 40
1.0
 40
2.0
 40
2.0
 40
2.0
 40
3.0
 40
3.0
 40
3.0
 40
4.0
 40
4.0
 40
4.0
 40
4.0
 10
624.0967368413525
 20
-526.4896819441879
 30
0.0
 10
624.0967368413525
 20
-525.8657751518092
 30
0.0
 10
624.5487333690172
 20
-525.381394726583
 30
0.0
 10
625.1543811553241
 20
-525.381394726583
 30
0.0
 10
625.7531387506606
 20
-525.381394726583
 30
0.0
 10
626.2037572401313
 20
-525.8657751518092
 30
0.0
 10
626.2037572401313
 20
-526.4896819441879
 30
0.0
 10
626.2037572401313
 20
-527.1135887365666
 30
0.0
 10
625.7531387506606
 20
-527.5972801426957
 30
0.0
 10
625.1543811553241
 20
-527.5972801426957
 30
0.0
 10
624.5487333690172
 20
-527.5972801426957
 30
0.0
 10
624.0967368413525
 20
-527.1135887365666
 30
0.0
 10
624.0967368413525
 20
-526.4896819441879
 30
0.0
  0
ENDBLK
  5
4CF
330
4CC
100
AcDbEntity
  8
0
100
AcDbBlockEnd
  0
BLOCK
  5
4D3
330
4D1
100
AcDbEntity
  8
0
100
AcDbBlockBegin
  2
block 50
 70
     0
 10
0.0
 20
0.0
 30
0.0
  3
block 50
  1

  0
SPLINE
  5
4D5
330
4D1
100
AcDbEntity
  8
Layer 1
370
     0
100
AcDbSpline
210
0.0
220
0.0
230
1.0
 70
    11
 71
     3
 72
    17
 73
    13
 74
     0
 42
0.0000000001
 43
0.0000000001
 12
1.0
 22
0.0
 32
0.0
 13
1.0
 23
0.0
 33
0.0
 40
0.0
 40
0.0
 40
0.0
 40
0.0
 40
1.0
 40
1.0
 40
1.0
 40
2.0
 40
2.0
 40
2.0
 40
3.0
 40
3.0
 40
3.0
 40
4.0
 40
4.0
 40
4.0
 40
4.0
 10
623.8480009473175
 20
-526.4896819441879
 30
0.0
 10
623.8480009473175
 20
-527.2072953337655
 30
0.0
 10
624.4322891416158
 20
-527.7929615662579
 30
0.0
 10
625.150936059839
 20
-527.7929615662579
 30
0.0
 10
625.8688939589649
 20
-527.7929615662579
 30
0.0
 10
626.4531821532634
 20
-527.2072953337655
 30
0.0
 10
626.4531821532634
 20
-526.4896819441879
 30
0.0
 10
626.4531821532634
 20
-525.7713795355133
 30
0.0
 10
625.8688939589649
 20
-525.1864023221179
 30
0.0
 10
625.150936059839
 20
-525.1864023221179
 30
0.0
 10
624.4322891416158
 20
-525.1864023221179
 30
0.0
 10
623.8480009473175
 20
-525.7713795355133
 30
0.0
 10
623.8480009473175
 20
-526.4896819441879
 30
0.0
  0
ENDBLK
  5
4D4
330
4D1
100
AcDbEntity
  8
0
100
AcDbBlockEnd
  0
BLOCK
  5
4D8
330
4D6
100
AcDbEntity
  8
0
100
AcDbBlockBegin
  2
block 51
 70
     0
 10
0.0
 20
0.0
 30
0.0
  3
block 51
  1

  0
SPLINE
  5
4DA
330
4D6
100
AcDbEntity
  8
Layer 1
370
     0
100
AcDbSpline
210
0.0
220
0.0
230
1.0
 70
    11
 71
     3
 72
    20
 73
    16
 74
     0
 42
0.0000000001
 43
0.0000000001
 12
1.0
 22
0.0
 32
0.0
 13
1.0
 23
0.0
 33
0.0
 40
0.0
 40
0.0
 40
0.0
 40
0.0
 40
1.0
 40
1.0
 40
1.0
 40
2.0
 40
2.0
 40
2.0
 40
3.0
 40
3.0
 40
3.0
 40
4.0
 40
4.0
 40
4.0
 40
5.0
 40
5.0
 40
5.0
 40
5.0
 10
624.9022001658038
 20
-525.9198631509275
 30
0.0
 10
624.9022001658038
 20
-525.9198631509275
 30
0.0
 10
625.1977893584383
 20
-525.9198631509275
 30
0.0
 10
625.1977893584383
 20
-525.9198631509275
 30
0.0
 10
625.3562637507566
 20
-525.9198631509275
 30
0.0
 10
625.5119820666899
 20
-525.9694725259152
 30
0.0
 10
625.5119820666899
 20
-526.1427608288233
 30
0.0
 10
625.5119820666899
 20
-526.3418873478707
 30
0.0
 10
625.3886476483211
 20
-526.3815059459511
 30
0.0
 10
625.1977893584383
 20
-526.3815059459511
 30
0.0
 10
625.1977893584383
 20
-526.3815059459511
 30
0.0
 10
624.9022001658038
 20
-526.3815059459511
 30
0.0
 10
624.9022001658038
 20
-526.3815059459511
 30
0.0
 10
624.9022001658038
 20
-526.3815059459511
 30
0.0
 10
624.9022001658038
 20
-525.9198631509275
 30
0.0
 10
624.9022001658038
 20
-525.9198631509275
 30
0.0
  0
SPLINE
  5
4DB
330
4D6
100
AcDbEntity
  8
Layer 1
370
     0
100
AcDbSpline
210
0.0
220
0.0
230
1.0
 70
    11
 71
     3
 72
    35
 73
    31
 74
     0
 42
0.0000000001
 43
0.0000000001
 12
1.0
 22
0.0
 32
0.0
 13
1.0
 23
0.0
 33
0.0
 40
0.0
 40
0.0
 40
0.0
 40
0.0
 40
1.0
 40
1.0
 40
1.0
 40
2.0
 40
2.0
 40
2.0
 40
3.0
 40
3.0
 40
3.0
 40
4.0
 40
4.0
 40
4.0
 40
5.0
 40
5.0
 40
5.0
 40
6.0
 40
6.0
 40
6.0
 40
7.0
 40
7.0
 40
7.0
 40
8.0
 40
8.0
 40
8.0
 40
9.0
 40
9.0
 40
9.0
 40
10.0
 40
10.0
 40
10.0
 40
10.0
 10
624.6520862335715
 20
-527.2513925559766
 30
0.0
 10
624.6520862335715
 20
-527.2513925559766
 30
0.0
 10
624.9022001658038
 20
-527.2513925559766
 30
0.0
 10
624.9022001658038
 20
-527.2513925559766
 30
0.0
 10
624.9022001658038
 20
-527.2513925559766
 30
0.0
 10
624.9022001658038
 20
-526.5764983504162
 30
0.0
 10
624.9022001658038
 20
-526.5764983504162
 30
0.0
 10
624.9022001658038
 20
-526.5764983504162
 30
0.0
 10
625.110283933113
 20
-526.5764983504162
 30
0.0
 10
625.110283933113
 20
-526.5764983504162
 30
0.0
 10
625.110283933113
 20
-526.5764983504162
 30
0.0
 10
625.5367867541869
 20
-527.2513925559766
 30
0.0
 10
625.5367867541869
 20
-527.2513925559766
 30
0.0
 10
625.5367867541869
 20
-527.2513925559766
 30
0.0
 10
625.800681068357
 20
-527.2513925559766
 30
0.0
 10
625.800681068357
 20
-527.2513925559766
 30
0.0
 10
625.800681068357
 20
-527.2513925559766
 30
0.0
 10
625.3672880563126
 20
-526.5764983504162
 30
0.0
 10
625.3672880563126
 20
-526.5764983504162
 30
0.0
 10
625.6056886638919
 20
-526.5764983504162
 30
0.0
 10
625.7614069798219
 20
-526.3990759329258
 30
0.0
 10
625.7614069798219
 20
-526.1541296439245
 30
0.0
 10
625.7614069798219
 20
-525.8657751518092
 30
0.0
 10
625.5870851482715
 20
-525.7248707464624
 30
0.0
 10
625.2370634469702
 20
-525.7248707464624
 30
0.0
 10
625.2370634469702
 20
-525.7248707464624
 30
0.0
 10
624.6520862335715
 20
-525.7248707464624
 30
0.0
 10
624.6520862335715
 20
-525.7248707464624
 30
0.0
 10
624.6520862335715
 20
-525.7248707464624
 30
0.0
 10
624.6520862335715
 20
-527.2513925559766
 30
0.0
 10
624.6520862335715
 20
-527.2513925559766
 30
0.0
  0
SPLINE
  5
4DC
330
4D6
100
AcDbEntity
  8
Layer 1
370
     0
100
AcDbSpline
210
0.0
220
0.0
230
1.0
 70
    11
 71
     3
 72
    20
 73
    16
 74
     0
 42
0.0000000001
 43
0.0000000001
 12
1.0
 22
0.0
 32
0.0
 13
1.0
 23
0.0
 33
0.0
 40
0.0
 40
0.0
 40
0.0
 40
0.0
 40
1.0
 40
1.0
 40
1.0
 40
2.0
 40
2.0
 40
2.0
 40
3.0
 40
3.0
 40
3.0
 40
4.0
 40
4.0
 40
4.0
 40
5.0
 40
5.0
 40
5.0
 40
5.0
 10
624.0967368413525
 20
-526.4896819441879
 30
0.0
 10
624.0967368413525
 20
-525.8657751518092
 30
0.0
 10
624.5487333690172
 20
-525.381394726583
 30
0.0
 10
625.1543811553241
 20
-525.381394726583
 30
0.0
 10
625.7531387506574
 20
-525.381394726583
 30
0.0
 10
626.2037572401281
 20
-525.8657751518092
 30
0.0
 10
626.2037572401281
 20
-526.4896819441879
 30
0.0
 10
626.2037572401281
 20
-527.1135887365666
 30
0.0
 10
625.7531387506574
 20
-527.5972801426957
 30
0.0
 10
625.1543811553241
 20
-527.5972801426957
 30
0.0
 10
624.5487333690172
 20
-527.5972801426957
 30
0.0
 10
624.0967368413525
 20
-526.4896819441879
 30
0.0
 10
624.0967368413525
 20
-526.4896819441879
 30
0.0
 10
624.0967368413525
 20
-526.4896819441879
 30
0.0
 10
624.0967368413525
 20
-527.1135887365666
 30
0.0
 10
624.0967368413525
 20
-526.4896819441879
 30
0.0
  0
SPLINE
  5
4DD
330
4D6
100
AcDbEntity
  8
Layer 1
370
     0
100
AcDbSpline
210
0.0
220
0.0
230
1.0
 70
    11
 71
     3
 72
    20
 73
    16
 74
     0
 42
0.0000000001
 43
0.0000000001
 12
1.0
 22
0.0
 32
0.0
 13
1.0
 23
0.0
 33
0.0
 40
0.0
 40
0.0
 40
0.0
 40
0.0
 40
1.0
 40
1.0
 40
1.0
 40
2.0
 40
2.0
 40
2.0
 40
3.0
 40
3.0
 40
3.0
 40
4.0
 40
4.0
 40
4.0
 40
5.0
 40
5.0
 40
5.0
 40
5.0
 10
623.8480009473175
 20
-526.4896819441879
 30
0.0
 10
623.8480009473175
 20
-527.2072953337655
 30
0.0
 10
624.4322891416126
 20
-527.7929615662579
 30
0.0
 10
625.1509360598357
 20
-527.7929615662579
 30
0.0
 10
625.8688939589649
 20
-527.7929615662579
 30
0.0
 10
626.4531821532602
 20
-527.2072953337655
 30
0.0
 10
626.4531821532602
 20
-526.4896819441879
 30
0.0
 10
626.4531821532602
 20
-525.7713795355133
 30
0.0
 10
625.8688939589649
 20
-525.1864023221179
 30
0.0
 10
625.1509360598357
 20
-525.1864023221179
 30
0.0
 10
624.4322891416126
 20
-525.1864023221179
 30
0.0
 10
623.8480009473175
 20
-526.4896819441879
 30
0.0
 10
623.8480009473175
 20
-526.4896819441879
 30
0.0
 10
623.8480009473175
 20
-526.4896819441879
 30
0.0
 10
623.8480009473175
 20
-525.7713795355133
 30
0.0
 10
623.8480009473175
 20
-526.4896819441879
 30
0.0
  0
HATCH
  5
4DE
330
4D6
100
AcDbEntity
  8
Layer 1
 62
   152
420
    26316
100
AcDbHatch
 10
0.0
 20
0.0
 30
0.0
210
0.0
220
0.0
230
1.0
  2
SOLID
 70
     1
 71
     0
 91
        4
 92
        1
 93
        1
 72
     4
 94
        3
 73
     0
 74
     1
 95
       20
 96
       16
 40
0.0
 40
0.0
 40
0.0
 40
0.0
 40
1.0
 40
1.0
 40
1.0
 40
2.0
 40
2.0
 40
2.0
 40
3.0
 40
3.0
 40
3.0
 40
4.0
 40
4.0
 40
4.0
 40
5.0
 40
5.0
 40
5.0
 40
5.0
 10
624.9022001658038
 20
-525.9198631509275
 10
624.9022001658038
 20
-525.9198631509275
 10
625.1977893584383
 20
-525.9198631509275
 10
625.1977893584383
 20
-525.9198631509275
 10
625.3562637507566
 20
-525.9198631509275
 10
625.5119820666899
 20
-525.9694725259152
 10
625.5119820666899
 20
-526.1427608288233
 10
625.5119820666899
 20
-526.3418873478707
 10
625.3886476483211
 20
-526.3815059459511
 10
625.1977893584383
 20
-526.3815059459511
 10
625.1977893584383
 20
-526.3815059459511
 10
624.9022001658038
 20
-526.3815059459511
 10
624.9022001658038
 20
-526.3815059459511
 10
624.9022001658038
 20
-526.3815059459511
 10
624.9022001658038
 20
-525.9198631509275
 10
624.9022001658038
 20
-525.9198631509275
 97
        0
 97
        0
 92
        1
 93
        1
 72
     4
 94
        3
 73
     0
 74
     1
 95
       35
 96
       31
 40
0.0
 40
0.0
 40
0.0
 40
0.0
 40
1.0
 40
1.0
 40
1.0
 40
2.0
 40
2.0
 40
2.0
 40
3.0
 40
3.0
 40
3.0
 40
4.0
 40
4.0
 40
4.0
 40
5.0
 40
5.0
 40
5.0
 40
6.0
 40
6.0
 40
6.0
 40
7.0
 40
7.0
 40
7.0
 40
8.0
 40
8.0
 40
8.0
 40
9.0
 40
9.0
 40
9.0
 40
10.0
 40
10.0
 40
10.0
 40
10.0
 10
624.6520862335715
 20
-527.2513925559766
 10
624.6520862335715
 20
-527.2513925559766
 10
624.9022001658038
 20
-527.2513925559766
 10
624.9022001658038
 20
-527.2513925559766
 10
624.9022001658038
 20
-527.2513925559766
 10
624.9022001658038
 20
-526.5764983504162
 10
624.9022001658038
 20
-526.5764983504162
 10
624.9022001658038
 20
-526.5764983504162
 10
625.110283933113
 20
-526.5764983504162
 10
625.110283933113
 20
-526.5764983504162
 10
625.110283933113
 20
-526.5764983504162
 10
625.5367867541869
 20
-527.2513925559766
 10
625.5367867541869
 20
-527.2513925559766
 10
625.5367867541869
 20
-527.2513925559766
 10
625.800681068357
 20
-527.2513925559766
 10
625.800681068357
 20
-527.2513925559766
 10
625.800681068357
 20
-527.2513925559766
 10
625.3672880563126
 20
-526.5764983504162
 10
625.3672880563126
 20
-526.5764983504162
 10
625.6056886638919
 20
-526.5764983504162
 10
625.7614069798219
 20
-526.3990759329258
 10
625.7614069798219
 20
-526.1541296439245
 10
625.7614069798219
 20
-525.8657751518092
 10
625.5870851482715
 20
-525.7248707464624
 10
625.2370634469702
 20
-525.7248707464624
 10
625.2370634469702
 20
-525.7248707464624
 10
624.6520862335715
 20
-525.7248707464624
 10
624.6520862335715
 20
-525.7248707464624
 10
624.6520862335715
 20
-525.7248707464624
 10
624.6520862335715
 20
-527.2513925559766
 10
624.6520862335715
 20
-527.2513925559766
 97
        0
 97
        0
 92
        1
 93
        1
 72
     4
 94
        3
 73
     0
 74
     1
 95
       20
 96
       16
 40
0.0
 40
0.0
 40
0.0
 40
0.0
 40
1.0
 40
1.0
 40
1.0
 40
2.0
 40
2.0
 40
2.0
 40
3.0
 40
3.0
 40
3.0
 40
4.0
 40
4.0
 40
4.0
 40
5.0
 40
5.0
 40
5.0
 40
5.0
 10
624.0967368413525
 20
-526.4896819441879
 10
624.0967368413525
 20
-525.8657751518092
 10
624.5487333690172
 20
-525.381394726583
 10
625.1543811553241
 20
-525.381394726583
 10
625.7531387506574
 20
-525.381394726583
 10
626.2037572401281
 20
-525.8657751518092
 10
626.2037572401281
 20
-526.4896819441879
 10
626.2037572401281
 20
-527.1135887365666
 10
625.7531387506574
 20
-527.5972801426957
 10
625.1543811553241
 20
-527.5972801426957
 10
624.5487333690172
 20
-527.5972801426957
 10
624.0967368413525
 20
-526.4896819441879
 10
624.0967368413525
 20
-526.4896819441879
 10
624.0967368413525
 20
-526.4896819441879
 10
624.0967368413525
 20
-527.1135887365666
 10
624.0967368413525
 20
-526.4896819441879
 97
        0
 97
        0
 92
        1
 93
        1
 72
     4
 94
        3
 73
     0
 74
     1
 95
       20
 96
       16
 40
0.0
 40
0.0
 40
0.0
 40
0.0
 40
1.0
 40
1.0
 40
1.0
 40
2.0
 40
2.0
 40
2.0
 40
3.0
 40
3.0
 40
3.0
 40
4.0
 40
4.0
 40
4.0
 40
5.0
 40
5.0
 40
5.0
 40
5.0
 10
623.8480009473175
 20
-526.4896819441879
 10
623.8480009473175
 20
-527.2072953337655
 10
624.4322891416126
 20
-527.7929615662579
 10
625.1509360598357
 20
-527.7929615662579
 10
625.8688939589649
 20
-527.7929615662579
 10
626.4531821532602
 20
-527.2072953337655
 10
626.4531821532602
 20
-526.4896819441879
 10
626.4531821532602
 20
-525.7713795355133
 10
625.8688939589649
 20
-525.1864023221179
 10
625.1509360598357
 20
-525.1864023221179
 10
624.4322891416126
 20
-525.1864023221179
 10
623.8480009473175
 20
-526.4896819441879
 10
623.8480009473175
 20
-526.4896819441879
 10
623.8480009473175
 20
-526.4896819441879
 10
623.8480009473175
 20
-525.7713795355133
 10
623.8480009473175
 20
-526.4896819441879
 97
        0
 97
        0
 75
     2
 76
     1
 98
        0
  0
ENDBLK
  5
4D9
330
4D6
100
AcDbEntity
  8
0
100
AcDbBlockEnd
  0
ENDSEC
  0
SECTION
  2
ENTITIES
  0
POLYLINE
  5
41
330
1F
100
AcDbEntity
  8
Layer 1
 62
     7
420
 16777215
370
    40
100
AcDb2dPolyline
 66
     1
 10
0.0
 20
0.0
 30
0.0
  0
VERTEX
  5
42
330
41
100
AcDbEntity
  8
Layer 1
 62
     7
420
 16777215
370
    40
100
AcDbVertex
100
AcDb2dVertex
 10
-190.2798255955672
 20
114.225273327981
 30
0.0
  0
VERTEX
  5
43
330
41
100
AcDbEntity
  8
Layer 1
 62
     7
420
 16777215
370
    40
100
AcDbVertex
100
AcDb2dVertex
 10
-190.2798255955672
 20
614.2972275348932
 30
0.0
  0
SEQEND
  5
44
330
41
100
AcDbEntity
  8
Layer 1
 62
     7
420
 16777215
370
    40
  0
POLYLINE
  5
45
330
1F
100
AcDbEntity
  8
Layer 1
 62
     7
420
 16777215
370
    40
100
AcDb2dPolyline
 66
     1
 10
0.0
 20
0.0
 30
0.0
  0
VERTEX
  5
46
330
45
100
AcDbEntity
  8
Layer 1
 62
     7
420
 16777215
370
    40
100
AcDbVertex
100
AcDb2dVertex
 10
-166.2153403955597
 20
571.450641394397
 30
0.0
  0
VERTEX
  5
47
330
45
100
AcDbEntity
  8
Layer 1
 62
     7
420
 16777215
370
    40
100
AcDbVertex
100
AcDb2dVertex
 10
-166.2153403955597
 20
157.0718221519088
 30
0.0
  0
VERTEX
  5
48
330
45
100
AcDbEntity
  8
Layer 1
 62
     7
420
 16777215
370
    40
100
AcDbVertex
100
AcDb2dVertex
 10
-165.0414357639235
 20
151.2024109434347
 30
0.0
  0
VERTEX
  5
49
330
45
100
AcDbEntity
  8
Layer 1
 62
     7
420
 16777215
370
    40
100
AcDbVertex
100
AcDb2dVertex
 10
-162.6937011337892
 20
145.9199520507787
 30
0.0
  0
VERTEX
  5
4A
330
45
100
AcDbEntity
  8
Layer 1
 62
     7
420
 16777215
370
    40
100
AcDbVertex
100
AcDb2dVertex
 10
-157.9981572403823
 20
141.8113977897591
 30
0.0
  0
VERTEX
  5
4B
330
45
100
AcDbEntity
  8
Layer 1
 62
     7
420
 16777215
370
    40
100
AcDbVertex
100
AcDb2dVertex
 10
-152.7156983477262
 20
139.4636258430558
 30
0.0
  0
VERTEX
  5
4C
330
45
100
AcDbEntity
  8
Layer 1
 62
     7
420
 16777215
370
    40
100
AcDbVertex
100
AcDb2dVertex
 10
-146.8463244558214
 20
138.2897585279889
 30
0.0
  0
SEQEND
  5
4D
330
45
100
AcDbEntity
  8
Layer 1
 62
     7
420
 16777215
370
    40
  0
POLYLINE
  5
4E
330
1F
100
AcDbEntity
  8
Layer 1
 62
     7
420
 16777215
370
    40
100
AcDb2dPolyline
 66
     1
 10
0.0
 20
0.0
 30
0.0
  0
VERTEX
  5
4F
330
4E
100
AcDbEntity
  8
Layer 1
 62
     7
420
 16777215
370
    40
100
AcDbVertex
100
AcDb2dVertex
 10
-146.8463244558214
 20
590.2326677017484
 30
0.0
  0
VERTEX
  5
50
330
4E
100
AcDbEntity
  8
Layer 1
 62
     7
420
 16777215
370
    40
100
AcDbVertex
100
AcDb2dVertex
 10
566.8714215549102
 20
590.2326677017484
 30
0.0
  0
SEQEND
  5
51
330
4E
100
AcDbEntity
  8
Layer 1
 62
     7
420
 16777215
370
    40
  0
POLYLINE
  5
52
330
1F
100
AcDbEntity
  8
Layer 1
 62
     7
420
 16777215
370
    40
100
AcDb2dPolyline
 66
     1
 10
0.0
 20
0.0
 30
0.0
  0
VERTEX
  5
53
330
52
100
AcDbEntity
  8
Layer 1
 62
     7
420
 16777215
370
    40
100
AcDbVertex
100
AcDb2dVertex
 10
225.2729355951255
 20
586.1241134407287
 30
0.0
  0
VERTEX
  5
54
330
52
100
AcDbEntity
  8
Layer 1
 62
     7
420
 16777215
370
    40
100
AcDbVertex
100
AcDb2dVertex
 10
566.8714215549102
 20
586.1241134407287
 30
0.0
  0
SEQEND
  5
55
330
52
100
AcDbEntity
  8
Layer 1
 62
     7
420
 16777215
370
    40
  0
POLYLINE
  5
56
330
1F
100
AcDbEntity
  8
Layer 1
 62
     7
420
 16777215
370
    40
100
AcDb2dPolyline
 66
     1
 10
0.0
 20
0.0
 30
0.0
  0
VERTEX
  5
57
330
56
100
AcDbEntity
  8
Layer 1
 62
     7
420
 16777215
370
    40
100
AcDbVertex
100
AcDb2dVertex
 10
-190.2798255955672
 20
614.2972275348932
 30
0.0
  0
VERTEX
  5
58
330
56
100
AcDbEntity
  8
Layer 1
 62
     7
420
 16777215
370
    40
100
AcDbVertex
100
AcDb2dVertex
 10
609.7178584291311
 20
614.2972275348932
 30
0.0
  0
SEQEND
  5
59
330
56
100
AcDbEntity
  8
Layer 1
 62
     7
420
 16777215
370
    40
  0
POLYLINE
  5
5A
330
1F
100
AcDbEntity
  8
Layer 1
 62
     7
420
 16777215
370
    40
100
AcDb2dPolyline
 66
     1
 10
0.0
 20
0.0
 30
0.0
  0
VERTEX
  5
5B
330
5A
100
AcDbEntity
  8
Layer 1
 62
     7
420
 16777215
370
    40
100
AcDbVertex
100
AcDb2dVertex
 10
582.131808600491
 20
571.450641394397
 30
0.0
  0
VERTEX
  5
5C
330
5A
100
AcDbEntity
  8
Layer 1
 62
     7
420
 16777215
370
    40
100
AcDbVertex
100
AcDb2dVertex
 10
580.9578293357176
 20
576.7331002870528
 30
0.0
  0
VERTEX
  5
5D
330
5A
100
AcDbEntity
  8
Layer 1
 62
     7
420
 16777215
370
    40
100
AcDbVertex
100
AcDb2dVertex
 10
577.4361900739465
 20
582.0155591797088
 30
0.0
  0
VERTEX
  5
5E
330
5A
100
AcDbEntity
  8
Layer 1
 62
     7
420
 16777215
370
    40
100
AcDbVertex
100
AcDb2dVertex
 10
572.7407208136777
 20
584.9502834422299
 30
0.0
  0
VERTEX
  5
5F
330
5A
100
AcDbEntity
  8
Layer 1
 62
     7
420
 16777215
370
    40
100
AcDbVertex
100
AcDb2dVertex
 10
566.8714215549102
 20
586.1241134407287
 30
0.0
  0
SEQEND
  5
60
330
5A
100
AcDbEntity
  8
Layer 1
 62
     7
420
 16777215
370
    40
  0
POLYLINE
  5
61
330
1F
100
AcDbEntity
  8
Layer 1
 62
     7
420
 16777215
370
    40
100
AcDb2dPolyline
 66
     1
 10
0.0
 20
0.0
 30
0.0
  0
VERTEX
  5
62
330
61
100
AcDbEntity
  8
Layer 1
 62
     7
420
 16777215
370
    40
100
AcDbVertex
100
AcDb2dVertex
 10
585.6534478622615
 20
571.450641394397
 30
0.0
  0
VERTEX
  5
63
330
61
100
AcDbEntity
  8
Layer 1
 62
     7
420
 16777215
370
    40
100
AcDbVertex
100
AcDb2dVertex
 10
585.0663835967372
 20
577.3200152863019
 30
0.0
  0
VERTEX
  5
64
330
61
100
AcDbEntity
  8
Layer 1
 62
     7
420
 16777215
370
    40
100
AcDbVertex
100
AcDb2dVertex
 10
582.131808600491
 20
582.6024741789579
 30
0.0
  0
VERTEX
  5
65
330
61
100
AcDbEntity
  8
Layer 1
 62
     7
420
 16777215
370
    40
100
AcDbVertex
100
AcDb2dVertex
 10
578.0232543394708
 20
586.7111030731154
 30
0.0
  0
VERTEX
  5
66
330
61
100
AcDbEntity
  8
Layer 1
 62
     7
420
 16777215
370
    40
100
AcDbVertex
100
AcDb2dVertex
 10
572.7407208136777
 20
589.0588377032501
 30
0.0
  0
VERTEX
  5
67
330
61
100
AcDbEntity
  8
Layer 1
 62
     7
420
 16777215
370
    40
100
AcDbVertex
100
AcDb2dVertex
 10
566.8714215549102
 20
590.2326677017484
 30
0.0
  0
SEQEND
  5
68
330
61
100
AcDbEntity
  8
Layer 1
 62
     7
420
 16777215
370
    40
  0
POLYLINE
  5
69
330
1F
100
AcDbEntity
  8
Layer 1
 62
     7
420
 16777215
370
    40
100
AcDb2dPolyline
 66
     1
 10
0.0
 20
0.0
 30
0.0
  0
VERTEX
  5
6A
330
69
100
AcDbEntity
  8
Layer 1
 62
     7
420
 16777215
370
    40
100
AcDbVertex
100
AcDb2dVertex
 10
-146.8463244558214
 20
590.2326677017484
 30
0.0
  0
VERTEX
  5
6B
330
69
100
AcDbEntity
  8
Layer 1
 62
     7
420
 16777215
370
    40
100
AcDbVertex
100
AcDb2dVertex
 10
-152.7156983477262
 20
589.0588377032501
 30
0.0
  0
VERTEX
  5
6C
330
69
100
AcDbEntity
  8
Layer 1
 62
     7
420
 16777215
370
    40
100
AcDbVertex
100
AcDb2dVertex
 10
-157.9981572403823
 20
586.7111030731154
 30
0.0
  0
VERTEX
  5
6D
330
69
100
AcDbEntity
  8
Layer 1
 62
     7
420
 16777215
370
    40
100
AcDbVertex
100
AcDb2dVertex
 10
-162.6937011337892
 20
582.6024741789579
 30
0.0
  0
VERTEX
  5
6E
330
69
100
AcDbEntity
  8
Layer 1
 62
     7
420
 16777215
370
    40
100
AcDbVertex
100
AcDb2dVertex
 10
-165.0414357639235
 20
577.3200152863019
 30
0.0
  0
VERTEX
  5
6F
330
69
100
AcDbEntity
  8
Layer 1
 62
     7
420
 16777215
370
    40
100
AcDbVertex
100
AcDb2dVertex
 10
-166.2153403955597
 20
571.450641394397
 30
0.0
  0
SEQEND
  5
70
330
69
100
AcDbEntity
  8
Layer 1
 62
     7
420
 16777215
370
    40
  0
POLYLINE
  5
71
330
1F
100
AcDbEntity
  8
Layer 1
 62
     7
420
 16777215
370
    40
100
AcDb2dPolyline
 66
     1
 10
0.0
 20
0.0
 30
0.0
  0
VERTEX
  5
72
330
71
100
AcDbEntity
  8
Layer 1
 62
     7
420
 16777215
370
    40
100
AcDbVertex
100
AcDb2dVertex
 10
585.6534478622615
 20
571.450641394397
 30
0.0
  0
VERTEX
  5
73
330
71
100
AcDbEntity
  8
Layer 1
 62
     7
420
 16777215
370
    40
100
AcDbVertex
100
AcDb2dVertex
 10
585.6534478622615
 20
157.0718221519088
 30
0.0
  0
SEQEND
  5
74
330
71
100
AcDbEntity
  8
Layer 1
 62
     7
420
 16777215
370
    40
  0
POLYLINE
  5
75
330
1F
100
AcDbEntity
  8
Layer 1
 62
     7
420
 16777215
370
    40
100
AcDb2dPolyline
 66
     1
 10
0.0
 20
0.0
 30
0.0
  0
VERTEX
  5
76
330
75
100
AcDbEntity
  8
Layer 1
 62
     7
420
 16777215
370
    40
100
AcDbVertex
100
AcDb2dVertex
 10
582.131808600491
 20
571.450641394397
 30
0.0
  0
VERTEX
  5
77
330
75
100
AcDbEntity
  8
Layer 1
 62
     7
420
 16777215
370
    40
100
AcDbVertex
100
AcDb2dVertex
 10
582.131808600491
 20
157.0718221519088
 30
0.0
  0
SEQEND
  5
78
330
75
100
AcDbEntity
  8
Layer 1
 62
     7
420
 16777215
370
    40
  0
POLYLINE
  5
79
330
1F
100
AcDbEntity
  8
Layer 1
 62
     7
420
 16777215
370
    40
100
AcDb2dPolyline
 66
     1
 10
0.0
 20
0.0
 30
0.0
  0
VERTEX
  5
7A
330
79
100
AcDbEntity
  8
Layer 1
 62
     7
420
 16777215
370
    40
100
AcDbVertex
100
AcDb2dVertex
 10
609.7178584291311
 20
614.2972275348932
 30
0.0
  0
VERTEX
  5
7B
330
79
100
AcDbEntity
  8
Layer 1
 62
     7
420
 16777215
370
    40
100
AcDbVertex
100
AcDb2dVertex
 10
609.7178584291311
 20
114.225273327981
 30
0.0
  0
SEQEND
  5
7C
330
79
100
AcDbEntity
  8
Layer 1
 62
     7
420
 16777215
370
    40
  0
POLYLINE
  5
7D
330
1F
100
AcDbEntity
  8
Layer 1
 62
     7
420
 16777215
370
    40
100
AcDb2dPolyline
 66
     1
 10
0.0
 20
0.0
 30
0.0
  0
VERTEX
  5
7E
330
7D
100
AcDbEntity
  8
Layer 1
 62
     7
420
 16777215
370
    40
100
AcDbVertex
100
AcDb2dVertex
 10
566.8714215549102
 20
142.3983501055772
 30
0.0
  0
VERTEX
  5
7F
330
7D
100
AcDbEntity
  8
Layer 1
 62
     7
420
 16777215
370
    40
100
AcDbVertex
100
AcDb2dVertex
 10
572.7407208136777
 20
143.5722174206443
 30
0.0
  0
VERTEX
  5
80
330
7D
100
AcDbEntity
  8
Layer 1
 62
     7
420
 16777215
370
    40
100
AcDbVertex
100
AcDb2dVertex
 10
577.4361900739465
 20
146.5069043665968
 30
0.0
  0
VERTEX
  5
81
330
7D
100
AcDbEntity
  8
Layer 1
 62
     7
420
 16777215
370
    40
100
AcDbVertex
100
AcDb2dVertex
 10
580.9578293357176
 20
151.7893632592531
 30
0.0
  0
VERTEX
  5
82
330
7D
100
AcDbEntity
  8
Layer 1
 62
     7
420
 16777215
370
    40
100
AcDbVertex
100
AcDb2dVertex
 10
582.131808600491
 20
157.0718221519088
 30
0.0
  0
SEQEND
  5
83
330
7D
100
AcDbEntity
  8
Layer 1
 62
     7
420
 16777215
370
    40
  0
POLYLINE
  5
84
330
1F
100
AcDbEntity
  8
Layer 1
 62
     7
420
 16777215
370
    40
100
AcDb2dPolyline
 66
     1
 10
0.0
 20
0.0
 30
0.0
  0
VERTEX
  5
85
330
84
100
AcDbEntity
  8
Layer 1
 62
     7
420
 16777215
370
    40
100
AcDbVertex
100
AcDb2dVertex
 10
566.8714215549102
 20
138.2897585279889
 30
0.0
  0
VERTEX
  5
86
330
84
100
AcDbEntity
  8
Layer 1
 62
     7
420
 16777215
370
    40
100
AcDbVertex
100
AcDb2dVertex
 10
572.7407208136777
 20
139.4636258430558
 30
0.0
  0
VERTEX
  5
87
330
84
100
AcDbEntity
  8
Layer 1
 62
     7
420
 16777215
370
    40
100
AcDbVertex
100
AcDb2dVertex
 10
578.0232543394708
 20
141.8113977897591
 30
0.0
  0
VERTEX
  5
88
330
84
100
AcDbEntity
  8
Layer 1
 62
     7
420
 16777215
370
    40
100
AcDbVertex
100
AcDb2dVertex
 10
582.131808600491
 20
145.9199520507787
 30
0.0
  0
VERTEX
  5
89
330
84
100
AcDbEntity
  8
Layer 1
 62
     7
420
 16777215
370
    40
100
AcDbVertex
100
AcDb2dVertex
 10
585.0663835967372
 20
151.2024109434347
 30
0.0
  0
VERTEX
  5
8A
330
84
100
AcDbEntity
  8
Layer 1
 62
     7
420
 16777215
370
    40
100
AcDbVertex
100
AcDb2dVertex
 10
585.6534478622615
 20
157.0718221519088
 30
0.0
  0
SEQEND
  5
8B
330
84
100
AcDbEntity
  8
Layer 1
 62
     7
420
 16777215
370
    40
  0
POLYLINE
  5
8C
330
1F
100
AcDbEntity
  8
Layer 1
 62
     7
420
 16777215
370
    40
100
AcDb2dPolyline
 66
     1
 10
0.0
 20
0.0
 30
0.0
  0
VERTEX
  5
8D
330
8C
100
AcDbEntity
  8
Layer 1
 62
     7
420
 16777215
370
    40
100
AcDbVertex
100
AcDb2dVertex
 10
566.8714215549102
 20
138.2897585279889
 30
0.0
  0
VERTEX
  5
8E
330
8C
100
AcDbEntity
  8
Layer 1
 62
     7
420
 16777215
370
    40
100
AcDbVertex
100
AcDb2dVertex
 10
-146.8463244558214
 20
138.2897585279889
 30
0.0
  0
SEQEND
  5
8F
330
8C
100
AcDbEntity
  8
Layer 1
 62
     7
420
 16777215
370
    40
  0
POLYLINE
  5
90
330
1F
100
AcDbEntity
  8
Layer 1
 62
     7
420
 16777215
370
    40
100
AcDb2dPolyline
 66
     1
 10
0.0
 20
0.0
 30
0.0
  0
VERTEX
  5
91
330
90
100
AcDbEntity
  8
Layer 1
 62
     7
420
 16777215
370
    40
100
AcDbVertex
100
AcDb2dVertex
 10
566.8714215549102
 20
142.3983501055772
 30
0.0
  0
VERTEX
  5
92
330
90
100
AcDbEntity
  8
Layer 1
 62
     7
420
 16777215
370
    40
100
AcDbVertex
100
AcDb2dVertex
 10
225.2729355951255
 20
142.3983501055772
 30
0.0
  0
SEQEND
  5
93
330
90
100
AcDbEntity
  8
Layer 1
 62
     7
420
 16777215
370
    40
  0
POLYLINE
  5
94
330
1F
100
AcDbEntity
  8
Layer 1
 62
     7
420
 16777215
370
    40
100
AcDb2dPolyline
 66
     1
 10
0.0
 20
0.0
 30
0.0
  0
VERTEX
  5
95
330
94
100
AcDbEntity
  8
Layer 1
 62
     7
420
 16777215
370
    40
100
AcDbVertex
100
AcDb2dVertex
 10
609.7178584291311
 20
114.225273327981
 30
0.0
  0
VERTEX
  5
96
330
94
100
AcDbEntity
  8
Layer 1
 62
     7
420
 16777215
370
    40
100
AcDbVertex
100
AcDb2dVertex
 10
-190.2798255955672
 20
114.225273327981
 30
0.0
  0
SEQEND
  5
97
330
94
100
AcDbEntity
  8
Layer 1
 62
     7
420
 16777215
370
    40
  0
POLYLINE
  5
98
330
1F
100
AcDbEntity
  8
Layer 1
 62
     7
420
 16777215
370
    40
100
AcDb2dPolyline
 66
     1
 10
0.0
 20
0.0
 30
0.0
  0
VERTEX
  5
99
330
98
100
AcDbEntity
  8
Layer 1
 62
     7
420
 16777215
370
    40
100
AcDbVertex
100
AcDb2dVertex
 10
-183.2365470720256
 20
121.2685518515226
 30
0.0
  0
VERTEX
  5
9A
330
98
100
AcDbEntity
  8
Layer 1
 62
     7
420
 16777215
370
    40
100
AcDbVertex
100
AcDb2dVertex
 10
-183.2365470720256
 20
607.2539490113522
 30
0.0
  0
VERTEX
  5
9B
330
98
100
AcDbEntity
  8
Layer 1
 62
     7
420
 16777215
370
    40
100
AcDbVertex
100
AcDb2dVertex
 10
602.6745799055901
 20
607.2539490113522
 30
0.0
  0
VERTEX
  5
9C
330
98
100
AcDbEntity
  8
Layer 1
 62
     7
420
 16777215
370
    40
100
AcDbVertex
100
AcDb2dVertex
 10
602.6745799055901
 20
121.2685518515226
 30
0.0
  0
VERTEX
  5
9D
330
98
100
AcDbEntity
  8
Layer 1
 62
     7
420
 16777215
370
    40
100
AcDbVertex
100
AcDb2dVertex
 10
-183.2365470720256
 20
121.2685518515226
 30
0.0
  0
SEQEND
  5
9E
330
98
100
AcDbEntity
  8
Layer 1
 62
     7
420
 16777215
370
    40
  0
POLYLINE
  5
9F
330
1F
100
AcDbEntity
  8
Layer 1
 62
     7
420
 16777215
370
    40
100
AcDb2dPolyline
 66
     1
 10
0.0
 20
0.0
 30
0.0
  0
VERTEX
  5
A0
330
9F
100
AcDbEntity
  8
Layer 1
 62
     7
420
 16777215
370
    40
100
AcDbVertex
100
AcDb2dVertex
 10
-142.7377701948015
 20
177.0277157743275
 30
0.0
  0
VERTEX
  5
A1
330
9F
100
AcDbEntity
  8
Layer 1
 62
     7
420
 16777215
370
    40
100
AcDbVertex
100
AcDb2dVertex
 10
-142.7377701948015
 20
551.4947104554094
 30
0.0
  0
SEQEND
  5
A2
330
9F
100
AcDbEntity
  8
Layer 1
 62
     7
420
 16777215
370
    40
  0
POLYLINE
  5
A3
330
1F
100
AcDbEntity
  8
Layer 1
 62
     7
420
 16777215
370
    40
100
AcDb2dPolyline
 66
     1
 10
0.0
 20
0.0
 30
0.0
  0
VERTEX
  5
A4
330
A3
100
AcDbEntity
  8
Layer 1
 62
     7
420
 16777215
370
    40
100
AcDbVertex
100
AcDb2dVertex
 10
-157.4112422411332
 20
566.7551721341277
 30
0.0
  0
VERTEX
  5
A5
330
A3
100
AcDbEntity
  8
Layer 1
 62
     7
420
 16777215
370
    40
100
AcDbVertex
100
AcDb2dVertex
 10
-157.4112422411332
 20
161.7673287287468
 30
0.0
  0
VERTEX
  5
A6
330
A3
100
AcDbEntity
  8
Layer 1
 62
     7
420
 16777215
370
    40
100
AcDbVertex
100
AcDb2dVertex
 10
-156.2373376094967
 20
155.8979175202727
 30
0.0
  0
VERTEX
  5
A7
330
A3
100
AcDbEntity
  8
Layer 1
 62
     7
420
 16777215
370
    40
100
AcDbVertex
100
AcDb2dVertex
 10
-153.3026879801136
 20
151.2024109434347
 30
0.0
  0
VERTEX
  5
A8
330
A3
100
AcDbEntity
  8
Layer 1
 62
     7
420
 16777215
370
    40
100
AcDbVertex
100
AcDb2dVertex
 10
-148.0202290874575
 20
148.2677239974823
 30
0.0
  0
VERTEX
  5
A9
330
A3
100
AcDbEntity
  8
Layer 1
 62
     7
420
 16777215
370
    40
100
AcDbVertex
100
AcDb2dVertex
 10
-142.7377701948015
 20
147.0938566824151
 30
0.0
  0
SEQEND
  5
AA
330
A3
100
AcDbEntity
  8
Layer 1
 62
     7
420
 16777215
370
    40
  0
POLYLINE
  5
AB
330
1F
100
AcDbEntity
  8
Layer 1
 62
     7
420
 16777215
370
    40
100
AcDb2dPolyline
 66
     1
 10
0.0
 20
0.0
 30
0.0
  0
VERTEX
  5
AC
330
AB
100
AcDbEntity
  8
Layer 1
 62
     7
420
 16777215
370
    40
100
AcDbVertex
100
AcDb2dVertex
 10
-127.4773831492211
 20
566.7551721341277
 30
0.0
  0
VERTEX
  5
AD
330
AB
100
AcDbEntity
  8
Layer 1
 62
     7
420
 16777215
370
    40
100
AcDbVertex
100
AcDb2dVertex
 10
-133.3467570411262
 20
565.5812675024916
 30
0.0
  0
VERTEX
  5
AE
330
AB
100
AcDbEntity
  8
Layer 1
 62
     7
420
 16777215
370
    40
100
AcDbVertex
100
AcDb2dVertex
 10
-138.0422263013946
 20
562.6465432399706
 30
0.0
  0
VERTEX
  5
AF
330
AB
100
AcDbEntity
  8
Layer 1
 62
     7
420
 16777215
370
    40
100
AcDbVertex
100
AcDb2dVertex
 10
-141.5638655631651
 20
557.3641589804521
 30
0.0
  0
VERTEX
  5
B0
330
AB
100
AcDbEntity
  8
Layer 1
 62
     7
420
 16777215
370
    40
100
AcDbVertex
100
AcDb2dVertex
 10
-142.7377701948015
 20
551.4947104554094
 30
0.0
  0
SEQEND
  5
B1
330
AB
100
AcDbEntity
  8
Layer 1
 62
     7
420
 16777215
370
    40
  0
POLYLINE
  5
B2
330
1F
100
AcDbEntity
  8
Layer 1
 62
     7
420
 16777215
370
    40
100
AcDb2dPolyline
 66
     1
 10
0.0
 20
0.0
 30
0.0
  0
VERTEX
  5
B3
330
B2
100
AcDbEntity
  8
Layer 1
 62
     7
420
 16777215
370
    40
100
AcDbVertex
100
AcDb2dVertex
 10
-142.7377701948015
 20
177.0277157743275
 30
0.0
  0
VERTEX
  5
B4
330
B2
100
AcDbEntity
  8
Layer 1
 62
     7
420
 16777215
370
    40
100
AcDbVertex
100
AcDb2dVertex
 10
-141.5638655631651
 20
171.1583418824224
 30
0.0
  0
VERTEX
  5
B5
330
B2
100
AcDbEntity
  8
Layer 1
 62
     7
420
 16777215
370
    40
100
AcDbVertex
100
AcDb2dVertex
 10
-138.0422263013946
 20
166.4628353055847
 30
0.0
  0
VERTEX
  5
B6
330
B2
100
AcDbEntity
  8
Layer 1
 62
     7
420
 16777215
370
    40
100
AcDbVertex
100
AcDb2dVertex
 10
-133.3467570411262
 20
162.941196043814
 30
0.0
  0
VERTEX
  5
B7
330
B2
100
AcDbEntity
  8
Layer 1
 62
     7
420
 16777215
370
    40
100
AcDbVertex
100
AcDb2dVertex
 10
-127.4773831492211
 20
161.7673287287468
 30
0.0
  0
SEQEND
  5
B8
330
B2
100
AcDbEntity
  8
Layer 1
 62
     7
420
 16777215
370
    40
  0
POLYLINE
  5
B9
330
1F
100
AcDbEntity
  8
Layer 1
 62
     7
420
 16777215
370
    40
100
AcDb2dPolyline
 66
     1
 10
0.0
 20
0.0
 30
0.0
  0
VERTEX
  5
BA
330
B9
100
AcDbEntity
  8
Layer 1
 62
     7
420
 16777215
370
    40
100
AcDbVertex
100
AcDb2dVertex
 10
212.3602831796791
 20
177.0277157743275
 30
0.0
  0
VERTEX
  5
BB
330
B9
100
AcDbEntity
  8
Layer 1
 62
     7
420
 16777215
370
    40
100
AcDbVertex
100
AcDb2dVertex
 10
212.3602831796791
 20
551.4947104554094
 30
0.0
  0
SEQEND
  5
BC
330
B9
100
AcDbEntity
  8
Layer 1
 62
     7
420
 16777215
370
    40
  0
POLYLINE
  5
BD
330
1F
100
AcDbEntity
  8
Layer 1
 62
     7
420
 16777215
370
    40
100
AcDb2dPolyline
 66
     1
 10
0.0
 20
0.0
 30
0.0
  0
VERTEX
  5
BE
330
BD
100
AcDbEntity
  8
Layer 1
 62
     7
420
 16777215
370
    40
100
AcDbVertex
100
AcDb2dVertex
 10
197.6868111333474
 20
161.7673287287468
 30
0.0
  0
VERTEX
  5
BF
330
BD
100
AcDbEntity
  8
Layer 1
 62
     7
420
 16777215
370
    40
100
AcDbVertex
100
AcDb2dVertex
 10
202.9692700260038
 20
162.941196043814
 30
0.0
  0
VERTEX
  5
C0
330
BD
100
AcDbEntity
  8
Layer 1
 62
     7
420
 16777215
370
    40
100
AcDbVertex
100
AcDb2dVertex
 10
208.2517289186595
 20
166.4628353055847
 30
0.0
  0
VERTEX
  5
C1
330
BD
100
AcDbEntity
  8
Layer 1
 62
     7
420
 16777215
370
    40
100
AcDbVertex
100
AcDb2dVertex
 10
211.1863785480429
 20
171.1583418824224
 30
0.0
  0
VERTEX
  5
C2
330
BD
100
AcDbEntity
  8
Layer 1
 62
     7
420
 16777215
370
    40
100
AcDbVertex
100
AcDb2dVertex
 10
212.3602831796791
 20
177.0277157743275
 30
0.0
  0
SEQEND
  5
C3
330
BD
100
AcDbEntity
  8
Layer 1
 62
     7
420
 16777215
370
    40
  0
POLYLINE
  5
C4
330
1F
100
AcDbEntity
  8
Layer 1
 62
     7
420
 16777215
370
    40
100
AcDb2dPolyline
 66
     1
 10
0.0
 20
0.0
 30
0.0
  0
VERTEX
  5
C5
330
C4
100
AcDbEntity
  8
Layer 1
 62
     7
420
 16777215
370
    40
100
AcDbVertex
100
AcDb2dVertex
 10
232.9031291179162
 20
161.7673287287468
 30
0.0
  0
VERTEX
  5
C6
330
C4
100
AcDbEntity
  8
Layer 1
 62
     7
420
 16777215
370
    40
100
AcDbVertex
100
AcDb2dVertex
 10
232.9031291179162
 20
205.7877448677417
 30
0.0
  0
SEQEND
  5
C7
330
C4
100
AcDbEntity
  8
Layer 1
 62
     7
420
 16777215
370
    40
  0
POLYLINE
  5
C8
330
1F
100
AcDbEntity
  8
Layer 1
 62
     7
420
 16777215
370
    40
100
AcDb2dPolyline
 66
     1
 10
0.0
 20
0.0
 30
0.0
  0
VERTEX
  5
C9
330
C8
100
AcDbEntity
  8
Layer 1
 62
     7
420
 16777215
370
    40
100
AcDbVertex
100
AcDb2dVertex
 10
224.0990309634894
 20
148.2677239974823
 30
0.0
  0
VERTEX
  5
CA
330
C8
100
AcDbEntity
  8
Layer 1
 62
     7
420
 16777215
370
    40
100
AcDbVertex
100
AcDb2dVertex
 10
228.794574856896
 20
151.2024109434347
 30
0.0
  0
VERTEX
  5
CB
330
C8
100
AcDbEntity
  8
Layer 1
 62
     7
420
 16777215
370
    40
100
AcDbVertex
100
AcDb2dVertex
 10
231.7292244862794
 20
155.8979175202727
 30
0.0
  0
VERTEX
  5
CC
330
C8
100
AcDbEntity
  8
Layer 1
 62
     7
420
 16777215
370
    40
100
AcDbVertex
100
AcDb2dVertex
 10
232.9031291179162
 20
161.7673287287468
 30
0.0
  0
SEQEND
  5
CD
330
C8
100
AcDbEntity
  8
Layer 1
 62
     7
420
 16777215
370
    40
  0
POLYLINE
  5
CE
330
1F
100
AcDbEntity
  8
Layer 1
 62
     7
420
 16777215
370
    40
100
AcDb2dPolyline
 66
     1
 10
0.0
 20
0.0
 30
0.0
  0
VERTEX
  5
CF
330
CE
100
AcDbEntity
  8
Layer 1
 62
     7
420
 16777215
370
    40
100
AcDbVertex
100
AcDb2dVertex
 10
224.0990309634894
 20
148.2677239974823
 30
0.0
  0
VERTEX
  5
D0
330
CE
100
AcDbEntity
  8
Layer 1
 62
     7
420
 16777215
370
    40
100
AcDbVertex
100
AcDb2dVertex
 10
222.3382113326041
 20
145.9199520507787
 30
0.0
  0
VERTEX
  5
D1
330
CE
100
AcDbEntity
  8
Layer 1
 62
     7
420
 16777215
370
    40
100
AcDbVertex
100
AcDb2dVertex
 10
222.9252009649911
 20
143.5722174206443
 30
0.0
  0
VERTEX
  5
D2
330
CE
100
AcDbEntity
  8
Layer 1
 62
     7
420
 16777215
370
    40
100
AcDbVertex
100
AcDb2dVertex
 10
225.2729355951255
 20
142.3983501055772
 30
0.0
  0
SEQEND
  5
D3
330
CE
100
AcDbEntity
  8
Layer 1
 62
     7
420
 16777215
370
    40
  0
POLYLINE
  5
D4
330
1F
100
AcDbEntity
  8
Layer 1
 62
     7
420
 16777215
370
    40
100
AcDb2dPolyline
 66
     1
 10
0.0
 20
0.0
 30
0.0
  0
VERTEX
  5
D5
330
D4
100
AcDbEntity
  8
Layer 1
 62
     7
420
 16777215
370
    40
100
AcDbVertex
100
AcDb2dVertex
 10
232.9031291179162
 20
522.7347559951328
 30
0.0
  0
VERTEX
  5
D6
330
D4
100
AcDbEntity
  8
Layer 1
 62
     7
420
 16777215
370
    40
100
AcDbVertex
100
AcDb2dVertex
 10
232.9031291179162
 20
566.7551721341277
 30
0.0
  0
SEQEND
  5
D7
330
D4
100
AcDbEntity
  8
Layer 1
 62
     7
420
 16777215
370
    40
  0
POLYLINE
  5
D8
330
1F
100
AcDbEntity
  8
Layer 1
 62
     7
420
 16777215
370
    40
100
AcDb2dPolyline
 66
     1
 10
0.0
 20
0.0
 30
0.0
  0
VERTEX
  5
D9
330
D8
100
AcDbEntity
  8
Layer 1
 62
     7
420
 16777215
370
    40
100
AcDbVertex
100
AcDb2dVertex
 10
232.9031291179162
 20
448.7804061310879
 30
0.0
  0
VERTEX
  5
DA
330
D8
100
AcDbEntity
  8
Layer 1
 62
     7
420
 16777215
370
    40
100
AcDbVertex
100
AcDb2dVertex
 10
232.9031291179162
 20
502.7788250561455
 30
0.0
  0
SEQEND
  5
DB
330
D8
100
AcDbEntity
  8
Layer 1
 62
     7
420
 16777215
370
    40
  0
POLYLINE
  5
DC
330
1F
100
AcDbEntity
  8
Layer 1
 62
     7
420
 16777215
370
    40
100
AcDb2dPolyline
 66
     1
 10
0.0
 20
0.0
 30
0.0
  0
VERTEX
  5
DD
330
DC
100
AcDbEntity
  8
Layer 1
 62
     7
420
 16777215
370
    40
100
AcDbVertex
100
AcDb2dVertex
 10
232.9031291179162
 20
374.2392159009311
 30
0.0
  0
VERTEX
  5
DE
330
DC
100
AcDbEntity
  8
Layer 1
 62
     7
420
 16777215
370
    40
100
AcDbVertex
100
AcDb2dVertex
 10
232.9031291179162
 20
428.8244751921005
 30
0.0
  0
SEQEND
  5
DF
330
DC
100
AcDbEntity
  8
Layer 1
 62
     7
420
 16777215
370
    40
  0
POLYLINE
  5
E0
330
1F
100
AcDbEntity
  8
Layer 1
 62
     7
420
 16777215
370
    40
100
AcDb2dPolyline
 66
     1
 10
0.0
 20
0.0
 30
0.0
  0
VERTEX
  5
E1
330
E0
100
AcDbEntity
  8
Layer 1
 62
     7
420
 16777215
370
    40
100
AcDbVertex
100
AcDb2dVertex
 10
232.9031291179162
 20
300.2849033534548
 30
0.0
  0
VERTEX
  5
E2
330
E0
100
AcDbEntity
  8
Layer 1
 62
     7
420
 16777215
370
    40
100
AcDbVertex
100
AcDb2dVertex
 10
232.9031291179162
 20
354.2832849619438
 30
0.0
  0
SEQEND
  5
E3
330
E0
100
AcDbEntity
  8
Layer 1
 62
     7
420
 16777215
370
    40
  0
POLYLINE
  5
E4
330
1F
100
AcDbEntity
  8
Layer 1
 62
     7
420
 16777215
370
    40
100
AcDb2dPolyline
 66
     1
 10
0.0
 20
0.0
 30
0.0
  0
VERTEX
  5
E5
330
E4
100
AcDbEntity
  8
Layer 1
 62
     7
420
 16777215
370
    40
100
AcDbVertex
100
AcDb2dVertex
 10
232.9031291179162
 20
225.7436384901601
 30
0.0
  0
VERTEX
  5
E6
330
E4
100
AcDbEntity
  8
Layer 1
 62
     7
420
 16777215
370
    40
100
AcDbVertex
100
AcDb2dVertex
 10
232.9031291179162
 20
280.3289724144668
 30
0.0
  0
SEQEND
  5
E7
330
E4
100
AcDbEntity
  8
Layer 1
 62
     7
420
 16777215
370
    40
  0
POLYLINE
  5
E8
330
1F
100
AcDbEntity
  8
Layer 1
 62
     7
420
 16777215
370
    40
100
AcDb2dPolyline
 66
     1
 10
0.0
 20
0.0
 30
0.0
  0
VERTEX
  5
E9
330
E8
100
AcDbEntity
  8
Layer 1
 62
     7
420
 16777215
370
    40
100
AcDbVertex
100
AcDb2dVertex
 10
582.131808600491
 20
508.0612839488012
 30
0.0
  0
VERTEX
  5
EA
330
E8
100
AcDbEntity
  8
Layer 1
 62
     7
420
 16777215
370
    40
100
AcDbVertex
100
AcDb2dVertex
 10
238.1855880105719
 20
508.0612839488012
 30
0.0
  0
VERTEX
  5
EB
330
E8
100
AcDbEntity
  8
Layer 1
 62
     7
420
 16777215
370
    40
100
AcDbVertex
100
AcDb2dVertex
 10
235.2508637480505
 20
507.4742943164145
 30
0.0
  0
VERTEX
  5
EC
330
E8
100
AcDbEntity
  8
Layer 1
 62
     7
420
 16777215
370
    40
100
AcDbVertex
100
AcDb2dVertex
 10
233.4900441171646
 20
505.7134746855293
 30
0.0
  0
VERTEX
  5
ED
330
E8
100
AcDbEntity
  8
Layer 1
 62
     7
420
 16777215
370
    40
100
AcDbVertex
100
AcDb2dVertex
 10
232.9031291179162
 20
502.7788250561455
 30
0.0
  0
SEQEND
  5
EE
330
E8
100
AcDbEntity
  8
Layer 1
 62
     7
420
 16777215
370
    40
  0
POLYLINE
  5
EF
330
1F
100
AcDbEntity
  8
Layer 1
 62
     7
420
 16777215
370
    40
100
AcDb2dPolyline
 66
     1
 10
0.0
 20
0.0
 30
0.0
  0
VERTEX
  5
F0
330
EF
100
AcDbEntity
  8
Layer 1
 62
     7
420
 16777215
370
    40
100
AcDbVertex
100
AcDb2dVertex
 10
238.1855880105719
 20
518.0392121017262
 30
0.0
  0
VERTEX
  5
F1
330
EF
100
AcDbEntity
  8
Layer 1
 62
     7
420
 16777215
370
    40
100
AcDbVertex
100
AcDb2dVertex
 10
582.131808600491
 20
518.0392121017262
 30
0.0
  0
SEQEND
  5
F2
330
EF
100
AcDbEntity
  8
Layer 1
 62
     7
420
 16777215
370
    40
  0
POLYLINE
  5
F3
330
1F
100
AcDbEntity
  8
Layer 1
 62
     7
420
 16777215
370
    40
100
AcDb2dPolyline
 66
     1
 10
0.0
 20
0.0
 30
0.0
  0
VERTEX
  5
F4
330
F3
100
AcDbEntity
  8
Layer 1
 62
     7
420
 16777215
370
    40
100
AcDbVertex
100
AcDb2dVertex
 10
232.9031291179162
 20
522.7347559951328
 30
0.0
  0
VERTEX
  5
F5
330
F3
100
AcDbEntity
  8
Layer 1
 62
     7
420
 16777215
370
    40
100
AcDbVertex
100
AcDb2dVertex
 10
233.4900441171646
 20
520.3869467318609
 30
0.0
  0
VERTEX
  5
F6
330
F3
100
AcDbEntity
  8
Layer 1
 62
     7
420
 16777215
370
    40
100
AcDbVertex
100
AcDb2dVertex
 10
235.2508637480505
 20
518.6261271009756
 30
0.0
  0
VERTEX
  5
F7
330
F3
100
AcDbEntity
  8
Layer 1
 62
     7
420
 16777215
370
    40
100
AcDbVertex
100
AcDb2dVertex
 10
238.1855880105719
 20
518.0392121017262
 30
0.0
  0
SEQEND
  5
F8
330
F3
100
AcDbEntity
  8
Layer 1
 62
     7
420
 16777215
370
    40
  0
POLYLINE
  5
F9
330
1F
100
AcDbEntity
  8
Layer 1
 62
     7
420
 16777215
370
    40
100
AcDb2dPolyline
 66
     1
 10
0.0
 20
0.0
 30
0.0
  0
VERTEX
  5
FA
330
F9
100
AcDbEntity
  8
Layer 1
 62
     7
420
 16777215
370
    40
100
AcDbVertex
100
AcDb2dVertex
 10
582.7187235997401
 20
433.5200190855071
 30
0.0
  0
VERTEX
  5
FB
330
F9
100
AcDbEntity
  8
Layer 1
 62
     7
420
 16777215
370
    40
100
AcDbVertex
100
AcDb2dVertex
 10
238.1855880105719
 20
433.5200190855071
 30
0.0
  0
VERTEX
  5
FC
330
F9
100
AcDbEntity
  8
Layer 1
 62
     7
420
 16777215
370
    40
100
AcDbVertex
100
AcDb2dVertex
 10
235.2508637480505
 20
432.9331040862577
 30
0.0
  0
VERTEX
  5
FD
330
F9
100
AcDbEntity
  8
Layer 1
 62
     7
420
 16777215
370
    40
100
AcDbVertex
100
AcDb2dVertex
 10
233.4900441171646
 20
431.1722844553724
 30
0.0
  0
VERTEX
  5
FE
330
F9
100
AcDbEntity
  8
Layer 1
 62
     7
420
 16777215
370
    40
100
AcDbVertex
100
AcDb2dVertex
 10
232.9031291179162
 20
428.8244751921005
 30
0.0
  0
SEQEND
  5
FF
330
F9
100
AcDbEntity
  8
Layer 1
 62
     7
420
 16777215
370
    40
  0
POLYLINE
  5
100
330
1F
100
AcDbEntity
  8
Layer 1
 62
     7
420
 16777215
370
    40
100
AcDb2dPolyline
 66
     1
 10
0.0
 20
0.0
 30
0.0
  0
VERTEX
  5
101
330
100
100
AcDbEntity
  8
Layer 1
 62
     7
420
 16777215
370
    40
100
AcDbVertex
100
AcDb2dVertex
 10
238.1855880105719
 20
443.4979472384322
 30
0.0
  0
VERTEX
  5
102
330
100
100
AcDbEntity
  8
Layer 1
 62
     7
420
 16777215
370
    40
100
AcDbVertex
100
AcDb2dVertex
 10
582.7187235997401
 20
443.4979472384322
 30
0.0
  0
SEQEND
  5
103
330
100
100
AcDbEntity
  8
Layer 1
 62
     7
420
 16777215
370
    40
  0
POLYLINE
  5
104
330
1F
100
AcDbEntity
  8
Layer 1
 62
     7
420
 16777215
370
    40
100
AcDb2dPolyline
 66
     1
 10
0.0
 20
0.0
 30
0.0
  0
VERTEX
  5
105
330
104
100
AcDbEntity
  8
Layer 1
 62
     7
420
 16777215
370
    40
100
AcDbVertex
100
AcDb2dVertex
 10
232.9031291179162
 20
448.7804061310879
 30
0.0
  0
VERTEX
  5
106
330
104
100
AcDbEntity
  8
Layer 1
 62
     7
420
 16777215
370
    40
100
AcDbVertex
100
AcDb2dVertex
 10
233.4900441171646
 20
446.4326715009535
 30
0.0
  0
VERTEX
  5
107
330
104
100
AcDbEntity
  8
Layer 1
 62
     7
420
 16777215
370
    40
100
AcDbVertex
100
AcDb2dVertex
 10
235.2508637480505
 20
444.0849368708189
 30
0.0
  0
VERTEX
  5
108
330
104
100
AcDbEntity
  8
Layer 1
 62
     7
420
 16777215
370
    40
100
AcDbVertex
100
AcDb2dVertex
 10
238.1855880105719
 20
443.4979472384322
 30
0.0
  0
SEQEND
  5
109
330
104
100
AcDbEntity
  8
Layer 1
 62
     7
420
 16777215
370
    40
  0
POLYLINE
  5
10A
330
1F
100
AcDbEntity
  8
Layer 1
 62
     7
420
 16777215
370
    40
100
AcDb2dPolyline
 66
     1
 10
0.0
 20
0.0
 30
0.0
  0
VERTEX
  5
10B
330
10A
100
AcDbEntity
  8
Layer 1
 62
     7
420
 16777215
370
    40
100
AcDbVertex
100
AcDb2dVertex
 10
582.7187235997401
 20
359.5657438545998
 30
0.0
  0
VERTEX
  5
10C
330
10A
100
AcDbEntity
  8
Layer 1
 62
     7
420
 16777215
370
    40
100
AcDbVertex
100
AcDb2dVertex
 10
238.1855880105719
 20
359.5657438545998
 30
0.0
  0
VERTEX
  5
10D
330
10A
100
AcDbEntity
  8
Layer 1
 62
     7
420
 16777215
370
    40
100
AcDbVertex
100
AcDb2dVertex
 10
235.2508637480505
 20
358.9787542222131
 30
0.0
  0
VERTEX
  5
10E
330
10A
100
AcDbEntity
  8
Layer 1
 62
     7
420
 16777215
370
    40
100
AcDbVertex
100
AcDb2dVertex
 10
233.4900441171646
 20
356.6310195920784
 30
0.0
  0
VERTEX
  5
10F
330
10A
100
AcDbEntity
  8
Layer 1
 62
     7
420
 16777215
370
    40
100
AcDbVertex
100
AcDb2dVertex
 10
232.9031291179162
 20
354.2832849619438
 30
0.0
  0
SEQEND
  5
110
330
10A
100
AcDbEntity
  8
Layer 1
 62
     7
420
 16777215
370
    40
  0
POLYLINE
  5
111
330
1F
100
AcDbEntity
  8
Layer 1
 62
     7
420
 16777215
370
    40
100
AcDb2dPolyline
 66
     1
 10
0.0
 20
0.0
 30
0.0
  0
VERTEX
  5
112
330
111
100
AcDbEntity
  8
Layer 1
 62
     7
420
 16777215
370
    40
100
AcDbVertex
100
AcDb2dVertex
 10
238.1855880105719
 20
369.5436720075245
 30
0.0
  0
VERTEX
  5
113
330
111
100
AcDbEntity
  8
Layer 1
 62
     7
420
 16777215
370
    40
100
AcDbVertex
100
AcDb2dVertex
 10
582.7187235997401
 20
369.5436720075245
 30
0.0
  0
SEQEND
  5
114
330
111
100
AcDbEntity
  8
Layer 1
 62
     7
420
 16777215
370
    40
  0
POLYLINE
  5
115
330
1F
100
AcDbEntity
  8
Layer 1
 62
     7
420
 16777215
370
    40
100
AcDb2dPolyline
 66
     1
 10
0.0
 20
0.0
 30
0.0
  0
VERTEX
  5
116
330
115
100
AcDbEntity
  8
Layer 1
 62
     7
420
 16777215
370
    40
100
AcDbVertex
100
AcDb2dVertex
 10
232.9031291179162
 20
374.2392159009311
 30
0.0
  0
VERTEX
  5
117
330
115
100
AcDbEntity
  8
Layer 1
 62
     7
420
 16777215
370
    40
100
AcDbVertex
100
AcDb2dVertex
 10
233.4900441171646
 20
371.8914066376592
 30
0.0
  0
VERTEX
  5
118
330
115
100
AcDbEntity
  8
Layer 1
 62
     7
420
 16777215
370
    40
100
AcDbVertex
100
AcDb2dVertex
 10
235.2508637480505
 20
370.130587006774
 30
0.0
  0
VERTEX
  5
119
330
115
100
AcDbEntity
  8
Layer 1
 62
     7
420
 16777215
370
    40
100
AcDbVertex
100
AcDb2dVertex
 10
238.1855880105719
 20
369.5436720075245
 30
0.0
  0
SEQEND
  5
11A
330
115
100
AcDbEntity
  8
Layer 1
 62
     7
420
 16777215
370
    40
  0
POLYLINE
  5
11B
330
1F
100
AcDbEntity
  8
Layer 1
 62
     7
420
 16777215
370
    40
100
AcDb2dPolyline
 66
     1
 10
0.0
 20
0.0
 30
0.0
  0
VERTEX
  5
11C
330
11B
100
AcDbEntity
  8
Layer 1
 62
     7
420
 16777215
370
    40
100
AcDbVertex
100
AcDb2dVertex
 10
582.7187235997401
 20
285.0244789913048
 30
0.0
  0
VERTEX
  5
11D
330
11B
100
AcDbEntity
  8
Layer 1
 62
     7
420
 16777215
370
    40
100
AcDbVertex
100
AcDb2dVertex
 10
238.1855880105719
 20
285.0244789913048
 30
0.0
  0
VERTEX
  5
11E
330
11B
100
AcDbEntity
  8
Layer 1
 62
     7
420
 16777215
370
    40
100
AcDbVertex
100
AcDb2dVertex
 10
235.2508637480505
 20
284.4375266754867
 30
0.0
  0
VERTEX
  5
11F
330
11B
100
AcDbEntity
  8
Layer 1
 62
     7
420
 16777215
370
    40
100
AcDbVertex
100
AcDb2dVertex
 10
233.4900441171646
 20
282.6767443611704
 30
0.0
  0
VERTEX
  5
120
330
11B
100
AcDbEntity
  8
Layer 1
 62
     7
420
 16777215
370
    40
100
AcDbVertex
100
AcDb2dVertex
 10
232.9031291179162
 20
280.3289724144668
 30
0.0
  0
SEQEND
  5
121
330
11B
100
AcDbEntity
  8
Layer 1
 62
     7
420
 16777215
370
    40
  0
POLYLINE
  5
122
330
1F
100
AcDbEntity
  8
Layer 1
 62
     7
420
 16777215
370
    40
100
AcDb2dPolyline
 66
     1
 10
0.0
 20
0.0
 30
0.0
  0
VERTEX
  5
123
330
122
100
AcDbEntity
  8
Layer 1
 62
     7
420
 16777215
370
    40
100
AcDbVertex
100
AcDb2dVertex
 10
238.1855880105719
 20
295.0024444607985
 30
0.0
  0
VERTEX
  5
124
330
122
100
AcDbEntity
  8
Layer 1
 62
     7
420
 16777215
370
    40
100
AcDbVertex
100
AcDb2dVertex
 10
582.7187235997401
 20
295.0024444607985
 30
0.0
  0
SEQEND
  5
125
330
122
100
AcDbEntity
  8
Layer 1
 62
     7
420
 16777215
370
    40
  0
POLYLINE
  5
126
330
1F
100
AcDbEntity
  8
Layer 1
 62
     7
420
 16777215
370
    40
100
AcDb2dPolyline
 66
     1
 10
0.0
 20
0.0
 30
0.0
  0
VERTEX
  5
127
330
126
100
AcDbEntity
  8
Layer 1
 62
     7
420
 16777215
370
    40
100
AcDbVertex
100
AcDb2dVertex
 10
232.9031291179162
 20
300.2849033534548
 30
0.0
  0
VERTEX
  5
128
330
126
100
AcDbEntity
  8
Layer 1
 62
     7
420
 16777215
370
    40
100
AcDbVertex
100
AcDb2dVertex
 10
233.4900441171646
 20
297.350216407502
 30
0.0
  0
VERTEX
  5
129
330
126
100
AcDbEntity
  8
Layer 1
 62
     7
420
 16777215
370
    40
100
AcDbVertex
100
AcDb2dVertex
 10
235.2508637480505
 20
295.5893967766169
 30
0.0
  0
VERTEX
  5
12A
330
126
100
AcDbEntity
  8
Layer 1
 62
     7
420
 16777215
370
    40
100
AcDbVertex
100
AcDb2dVertex
 10
238.1855880105719
 20
295.0024444607985
 30
0.0
  0
SEQEND
  5
12B
330
126
100
AcDbEntity
  8
Layer 1
 62
     7
420
 16777215
370
    40
  0
POLYLINE
  5
12C
330
1F
100
AcDbEntity
  8
Layer 1
 62
     7
420
 16777215
370
    40
100
AcDb2dPolyline
 66
     1
 10
0.0
 20
0.0
 30
0.0
  0
VERTEX
  5
12D
330
12C
100
AcDbEntity
  8
Layer 1
 62
     7
420
 16777215
370
    40
100
AcDbVertex
100
AcDb2dVertex
 10
582.131808600491
 20
211.0701664438285
 30
0.0
  0
VERTEX
  5
12E
330
12C
100
AcDbEntity
  8
Layer 1
 62
     7
420
 16777215
370
    40
100
AcDbVertex
100
AcDb2dVertex
 10
238.1855880105719
 20
211.0701664438285
 30
0.0
  0
VERTEX
  5
12F
330
12C
100
AcDbEntity
  8
Layer 1
 62
     7
420
 16777215
370
    40
100
AcDbVertex
100
AcDb2dVertex
 10
235.2508637480505
 20
209.8962991287613
 30
0.0
  0
VERTEX
  5
130
330
12C
100
AcDbEntity
  8
Layer 1
 62
     7
420
 16777215
370
    40
100
AcDbVertex
100
AcDb2dVertex
 10
233.4900441171646
 20
208.1354794978761
 30
0.0
  0
VERTEX
  5
131
330
12C
100
AcDbEntity
  8
Layer 1
 62
     7
420
 16777215
370
    40
100
AcDbVertex
100
AcDb2dVertex
 10
232.9031291179162
 20
205.7877448677417
 30
0.0
  0
SEQEND
  5
132
330
12C
100
AcDbEntity
  8
Layer 1
 62
     7
420
 16777215
370
    40
  0
POLYLINE
  5
133
330
1F
100
AcDbEntity
  8
Layer 1
 62
     7
420
 16777215
370
    40
100
AcDb2dPolyline
 66
     1
 10
0.0
 20
0.0
 30
0.0
  0
VERTEX
  5
134
330
133
100
AcDbEntity
  8
Layer 1
 62
     7
420
 16777215
370
    40
100
AcDbVertex
100
AcDb2dVertex
 10
238.1855880105719
 20
221.0481319133225
 30
0.0
  0
VERTEX
  5
135
330
133
100
AcDbEntity
  8
Layer 1
 62
     7
420
 16777215
370
    40
100
AcDbVertex
100
AcDb2dVertex
 10
582.131808600491
 20
221.0481319133225
 30
0.0
  0
SEQEND
  5
136
330
133
100
AcDbEntity
  8
Layer 1
 62
     7
420
 16777215
370
    40
  0
POLYLINE
  5
137
330
1F
100
AcDbEntity
  8
Layer 1
 62
     7
420
 16777215
370
    40
100
AcDb2dPolyline
 66
     1
 10
0.0
 20
0.0
 30
0.0
  0
VERTEX
  5
138
330
137
100
AcDbEntity
  8
Layer 1
 62
     7
420
 16777215
370
    40
100
AcDbVertex
100
AcDb2dVertex
 10
232.9031291179162
 20
225.7436384901601
 30
0.0
  0
VERTEX
  5
139
330
137
100
AcDbEntity
  8
Layer 1
 62
     7
420
 16777215
370
    40
100
AcDbVertex
100
AcDb2dVertex
 10
233.4900441171646
 20
223.3959038600258
 30
0.0
  0
VERTEX
  5
13A
330
137
100
AcDbEntity
  8
Layer 1
 62
     7
420
 16777215
370
    40
100
AcDbVertex
100
AcDb2dVertex
 10
235.2508637480505
 20
221.6350842291409
 30
0.0
  0
VERTEX
  5
13B
330
137
100
AcDbEntity
  8
Layer 1
 62
     7
420
 16777215
370
    40
100
AcDbVertex
100
AcDb2dVertex
 10
238.1855880105719
 20
221.0481319133225
 30
0.0
  0
SEQEND
  5
13C
330
137
100
AcDbEntity
  8
Layer 1
 62
     7
420
 16777215
370
    40
  0
POLYLINE
  5
13D
330
1F
100
AcDbEntity
  8
Layer 1
 62
     7
420
 16777215
370
    40
100
AcDb2dPolyline
 66
     1
 10
0.0
 20
0.0
 30
0.0
  0
VERTEX
  5
13E
330
13D
100
AcDbEntity
  8
Layer 1
 62
     7
420
 16777215
370
    40
100
AcDbVertex
100
AcDb2dVertex
 10
-142.7377701948015
 20
582.0155591797088
 30
0.0
  0
VERTEX
  5
13F
330
13D
100
AcDbEntity
  8
Layer 1
 62
     7
420
 16777215
370
    40
100
AcDbVertex
100
AcDb2dVertex
 10
222.3382113326041
 20
582.0155591797088
 30
0.0
  0
SEQEND
  5
140
330
13D
100
AcDbEntity
  8
Layer 1
 62
     7
420
 16777215
370
    40
  0
POLYLINE
  5
141
330
1F
100
AcDbEntity
  8
Layer 1
 62
     7
420
 16777215
370
    40
100
AcDb2dPolyline
 66
     1
 10
0.0
 20
0.0
 30
0.0
  0
VERTEX
  5
142
330
141
100
AcDbEntity
  8
Layer 1
 62
     7
420
 16777215
370
    40
100
AcDbVertex
100
AcDb2dVertex
 10
-127.4773831492211
 20
566.7551721341277
 30
0.0
  0
VERTEX
  5
143
330
141
100
AcDbEntity
  8
Layer 1
 62
     7
420
 16777215
370
    40
100
AcDbVertex
100
AcDb2dVertex
 10
197.6868111333474
 20
566.7551721341277
 30
0.0
  0
SEQEND
  5
144
330
141
100
AcDbEntity
  8
Layer 1
 62
     7
420
 16777215
370
    40
  0
POLYLINE
  5
145
330
1F
100
AcDbEntity
  8
Layer 1
 62
     7
420
 16777215
370
    40
100
AcDb2dPolyline
 66
     1
 10
0.0
 20
0.0
 30
0.0
  0
VERTEX
  5
146
330
145
100
AcDbEntity
  8
Layer 1
 62
     7
420
 16777215
370
    40
100
AcDbVertex
100
AcDb2dVertex
 10
232.9031291179162
 20
566.7551721341277
 30
0.0
  0
VERTEX
  5
147
330
145
100
AcDbEntity
  8
Layer 1
 62
     7
420
 16777215
370
    40
100
AcDbVertex
100
AcDb2dVertex
 10
231.7292244862794
 20
572.6245460260329
 30
0.0
  0
VERTEX
  5
148
330
145
100
AcDbEntity
  8
Layer 1
 62
     7
420
 16777215
370
    40
100
AcDbVertex
100
AcDb2dVertex
 10
228.794574856896
 20
577.3200152863019
 30
0.0
  0
VERTEX
  5
149
330
145
100
AcDbEntity
  8
Layer 1
 62
     7
420
 16777215
370
    40
100
AcDbVertex
100
AcDb2dVertex
 10
224.0990309634894
 20
580.2547395488233
 30
0.0
  0
SEQEND
  5
14A
330
145
100
AcDbEntity
  8
Layer 1
 62
     7
420
 16777215
370
    40
  0
POLYLINE
  5
14B
330
1F
100
AcDbEntity
  8
Layer 1
 62
     7
420
 16777215
370
    40
100
AcDb2dPolyline
 66
     1
 10
0.0
 20
0.0
 30
0.0
  0
VERTEX
  5
14C
330
14B
100
AcDbEntity
  8
Layer 1
 62
     7
420
 16777215
370
    40
100
AcDbVertex
100
AcDb2dVertex
 10
225.2729355951255
 20
586.1241134407287
 30
0.0
  0
VERTEX
  5
14D
330
14B
100
AcDbEntity
  8
Layer 1
 62
     7
420
 16777215
370
    40
100
AcDbVertex
100
AcDb2dVertex
 10
222.9252009649911
 20
584.9502834422299
 30
0.0
  0
VERTEX
  5
14E
330
14B
100
AcDbEntity
  8
Layer 1
 62
     7
420
 16777215
370
    40
100
AcDbVertex
100
AcDb2dVertex
 10
222.3382113326041
 20
582.6024741789579
 30
0.0
  0
VERTEX
  5
14F
330
14B
100
AcDbEntity
  8
Layer 1
 62
     7
420
 16777215
370
    40
100
AcDbVertex
100
AcDb2dVertex
 10
224.0990309634894
 20
580.2547395488233
 30
0.0
  0
SEQEND
  5
150
330
14B
100
AcDbEntity
  8
Layer 1
 62
     7
420
 16777215
370
    40
  0
POLYLINE
  5
151
330
1F
100
AcDbEntity
  8
Layer 1
 62
     7
420
 16777215
370
    40
100
AcDb2dPolyline
 66
     1
 10
0.0
 20
0.0
 30
0.0
  0
VERTEX
  5
152
330
151
100
AcDbEntity
  8
Layer 1
 62
     7
420
 16777215
370
    40
100
AcDbVertex
100
AcDb2dVertex
 10
-142.7377701948015
 20
582.0155591797088
 30
0.0
  0
VERTEX
  5
153
330
151
100
AcDbEntity
  8
Layer 1
 62
     7
420
 16777215
370
    40
100
AcDbVertex
100
AcDb2dVertex
 10
-148.0202290874575
 20
580.8416545480727
 30
0.0
  0
VERTEX
  5
154
330
151
100
AcDbEntity
  8
Layer 1
 62
     7
420
 16777215
370
    40
100
AcDbVertex
100
AcDb2dVertex
 10
-153.3026879801136
 20
577.3200152863019
 30
0.0
  0
VERTEX
  5
155
330
151
100
AcDbEntity
  8
Layer 1
 62
     7
420
 16777215
370
    40
100
AcDbVertex
100
AcDb2dVertex
 10
-156.2373376094967
 20
572.6245460260329
 30
0.0
  0
VERTEX
  5
156
330
151
100
AcDbEntity
  8
Layer 1
 62
     7
420
 16777215
370
    40
100
AcDbVertex
100
AcDb2dVertex
 10
-157.4112422411332
 20
566.7551721341277
 30
0.0
  0
SEQEND
  5
157
330
151
100
AcDbEntity
  8
Layer 1
 62
     7
420
 16777215
370
    40
  0
POLYLINE
  5
158
330
1F
100
AcDbEntity
  8
Layer 1
 62
     7
420
 16777215
370
    40
100
AcDb2dPolyline
 66
     1
 10
0.0
 20
0.0
 30
0.0
  0
VERTEX
  5
159
330
158
100
AcDbEntity
  8
Layer 1
 62
     7
420
 16777215
370
    40
100
AcDbVertex
100
AcDb2dVertex
 10
212.3602831796791
 20
551.4947104554094
 30
0.0
  0
VERTEX
  5
15A
330
158
100
AcDbEntity
  8
Layer 1
 62
     7
420
 16777215
370
    40
100
AcDbVertex
100
AcDb2dVertex
 10
211.1863785480429
 20
557.3641589804521
 30
0.0
  0
VERTEX
  5
15B
330
158
100
AcDbEntity
  8
Layer 1
 62
     7
420
 16777215
370
    40
100
AcDbVertex
100
AcDb2dVertex
 10
208.2517289186595
 20
562.6465432399706
 30
0.0
  0
VERTEX
  5
15C
330
158
100
AcDbEntity
  8
Layer 1
 62
     7
420
 16777215
370
    40
100
AcDbVertex
100
AcDb2dVertex
 10
202.9692700260038
 20
565.5812675024916
 30
0.0
  0
VERTEX
  5
15D
330
158
100
AcDbEntity
  8
Layer 1
 62
     7
420
 16777215
370
    40
100
AcDbVertex
100
AcDb2dVertex
 10
197.6868111333474
 20
566.7551721341277
 30
0.0
  0
SEQEND
  5
15E
330
158
100
AcDbEntity
  8
Layer 1
 62
     7
420
 16777215
370
    40
  0
POLYLINE
  5
15F
330
1F
100
AcDbEntity
  8
Layer 1
 62
     7
420
 16777215
370
    40
100
AcDb2dPolyline
 66
     1
 10
0.0
 20
0.0
 30
0.0
  0
VERTEX
  5
160
330
15F
100
AcDbEntity
  8
Layer 1
 62
     7
420
 16777215
370
    40
100
AcDbVertex
100
AcDb2dVertex
 10
222.3382113326041
 20
147.0938566824151
 30
0.0
  0
VERTEX
  5
161
330
15F
100
AcDbEntity
  8
Layer 1
 62
     7
420
 16777215
370
    40
100
AcDbVertex
100
AcDb2dVertex
 10
-142.7377701948015
 20
147.0938566824151
 30
0.0
  0
SEQEND
  5
162
330
15F
100
AcDbEntity
  8
Layer 1
 62
     7
420
 16777215
370
    40
  0
POLYLINE
  5
163
330
1F
100
AcDbEntity
  8
Layer 1
 62
     7
420
 16777215
370
    40
100
AcDb2dPolyline
 66
     1
 10
0.0
 20
0.0
 30
0.0
  0
VERTEX
  5
164
330
163
100
AcDbEntity
  8
Layer 1
 62
     7
420
 16777215
370
    40
100
AcDbVertex
100
AcDb2dVertex
 10
197.6868111333474
 20
161.7673287287468
 30
0.0
  0
VERTEX
  5
165
330
163
100
AcDbEntity
  8
Layer 1
 62
     7
420
 16777215
370
    40
100
AcDbVertex
100
AcDb2dVertex
 10
-127.4773831492211
 20
161.7673287287468
 30
0.0
  0
SEQEND
  5
166
330
163
100
AcDbEntity
  8
Layer 1
 62
     7
420
 16777215
370
    40
  0
POLYLINE
  5
167
330
1F
100
AcDbEntity
  8
Layer 1
 62
     7
420
 16777215
370
    25
100
AcDb2dPolyline
 66
     1
 10
0.0
 20
0.0
 30
0.0
  0
VERTEX
  5
168
330
167
100
AcDbEntity
  8
Layer 1
 62
     7
420
 16777215
370
    25
100
AcDbVertex
100
AcDb2dVertex
 10
82.05985439358012
 20
447.0195865002026
 30
0.0
  0
VERTEX
  5
169
330
167
100
AcDbEntity
  8
Layer 1
 62
     7
420
 16777215
370
    25
100
AcDbVertex
100
AcDb2dVertex
 10
80.88594976194368
 20
457.5845042855144
 30
0.0
  0
VERTEX
  5
16A
330
167
100
AcDbEntity
  8
Layer 1
 62
     7
420
 16777215
370
    25
100
AcDbVertex
100
AcDb2dVertex
 10
77.36431050017288
 20
467.562507071577
 30
0.0
  0
VERTEX
  5
16B
330
167
100
AcDbEntity
  8
Layer 1
 62
     7
420
 16777215
370
    25
100
AcDbVertex
100
AcDb2dVertex
 10
72.08185160751718
 20
476.366530592866
 30
0.0
  0
VERTEX
  5
16C
330
167
100
AcDbEntity
  8
Layer 1
 62
     7
420
 16777215
370
    25
100
AcDbVertex
100
AcDb2dVertex
 10
64.45165808472647
 20
483.9967987487939
 30
0.0
  0
VERTEX
  5
16D
330
167
100
AcDbEntity
  8
Layer 1
 62
     7
420
 16777215
370
    25
100
AcDbVertex
100
AcDb2dVertex
 10
55.64755993029997
 20
489.2791830083124
 30
0.0
  0
VERTEX
  5
16E
330
167
100
AcDbEntity
  8
Layer 1
 62
     7
420
 16777215
370
    25
100
AcDbVertex
100
AcDb2dVertex
 10
45.66963177737524
 20
492.8008222700828
 30
0.0
  0
VERTEX
  5
16F
330
167
100
AcDbEntity
  8
Layer 1
 62
     7
420
 16777215
370
    25
100
AcDbVertex
100
AcDb2dVertex
 10
35.10471399206317
 20
493.974726901719
 30
0.0
  0
VERTEX
  5
170
330
167
100
AcDbEntity
  8
Layer 1
 62
     7
420
 16777215
370
    25
100
AcDbVertex
100
AcDb2dVertex
 10
24.53979620675144
 20
492.8008222700828
 30
0.0
  0
VERTEX
  5
171
330
167
100
AcDbEntity
  8
Layer 1
 62
     7
420
 16777215
370
    25
100
AcDbVertex
100
AcDb2dVertex
 10
14.56186805382671
 20
489.2791830083124
 30
0.0
  0
VERTEX
  5
172
330
167
100
AcDbEntity
  8
Layer 1
 62
     7
420
 16777215
370
    25
100
AcDbVertex
100
AcDb2dVertex
 10
5.757769899399884
 20
483.9967987487939
 30
0.0
  0
VERTEX
  5
173
330
167
100
AcDbEntity
  8
Layer 1
 62
     7
420
 16777215
370
    25
100
AcDbVertex
100
AcDb2dVertex
 10
-1.872423623390175
 20
476.366530592866
 30
0.0
  0
VERTEX
  5
174
330
167
100
AcDbEntity
  8
Layer 1
 62
     7
420
 16777215
370
    25
100
AcDbVertex
100
AcDb2dVertex
 10
-7.741797515294998
 20
467.562507071577
 30
0.0
  0
VERTEX
  5
175
330
167
100
AcDbEntity
  8
Layer 1
 62
     7
420
 16777215
370
    25
100
AcDbVertex
100
AcDb2dVertex
 10
-11.26343677706611
 20
457.5845042855144
 30
0.0
  0
VERTEX
  5
176
330
167
100
AcDbEntity
  8
Layer 1
 62
     7
420
 16777215
370
    25
100
AcDbVertex
100
AcDb2dVertex
 10
-12.43734140870224
 20
447.0195865002026
 30
0.0
  0
VERTEX
  5
177
330
167
100
AcDbEntity
  8
Layer 1
 62
     7
420
 16777215
370
    25
100
AcDbVertex
100
AcDb2dVertex
 10
-11.26343677706611
 20
436.4547433480285
 30
0.0
  0
VERTEX
  5
178
330
167
100
AcDbEntity
  8
Layer 1
 62
     7
420
 16777215
370
    25
100
AcDbVertex
100
AcDb2dVertex
 10
-7.741797515294998
 20
426.4767405619659
 30
0.0
  0
VERTEX
  5
179
330
167
100
AcDbEntity
  8
Layer 1
 62
     7
420
 16777215
370
    25
100
AcDbVertex
100
AcDb2dVertex
 10
-1.872423623390175
 20
417.0857274082903
 30
0.0
  0
VERTEX
  5
17A
330
167
100
AcDbEntity
  8
Layer 1
 62
     7
420
 16777215
370
    25
100
AcDbVertex
100
AcDb2dVertex
 10
5.757769899399884
 20
410.042448884749
 30
0.0
  0
VERTEX
  5
17B
330
167
100
AcDbEntity
  8
Layer 1
 62
     7
420
 16777215
370
    25
100
AcDbVertex
100
AcDb2dVertex
 10
14.56186805382671
 20
404.1730749928439
 30
0.0
  0
VERTEX
  5
17C
330
167
100
AcDbEntity
  8
Layer 1
 62
     7
420
 16777215
370
    25
100
AcDbVertex
100
AcDb2dVertex
 10
24.53979620675144
 20
400.6514357310734
 30
0.0
  0
VERTEX
  5
17D
330
167
100
AcDbEntity
  8
Layer 1
 62
     7
420
 16777215
370
    25
100
AcDbVertex
100
AcDb2dVertex
 10
35.10471399206317
 20
399.4775310994372
 30
0.0
  0
VERTEX
  5
17E
330
167
100
AcDbEntity
  8
Layer 1
 62
     7
420
 16777215
370
    25
100
AcDbVertex
100
AcDb2dVertex
 10
45.66963177737524
 20
400.6514357310734
 30
0.0
  0
VERTEX
  5
17F
330
167
100
AcDbEntity
  8
Layer 1
 62
     7
420
 16777215
370
    25
100
AcDbVertex
100
AcDb2dVertex
 10
55.64755993029997
 20
404.1730749928439
 30
0.0
  0
VERTEX
  5
180
330
167
100
AcDbEntity
  8
Layer 1
 62
     7
420
 16777215
370
    25
100
AcDbVertex
100
AcDb2dVertex
 10
64.45165808472647
 20
410.042448884749
 30
0.0
  0
VERTEX
  5
181
330
167
100
AcDbEntity
  8
Layer 1
 62
     7
420
 16777215
370
    25
100
AcDbVertex
100
AcDb2dVertex
 10
72.08185160751718
 20
417.0857274082903
 30
0.0
  0
VERTEX
  5
182
330
167
100
AcDbEntity
  8
Layer 1
 62
     7
420
 16777215
370
    25
100
AcDbVertex
100
AcDb2dVertex
 10
77.36431050017288
 20
426.4767405619659
 30
0.0
  0
VERTEX
  5
183
330
167
100
AcDbEntity
  8
Layer 1
 62
     7
420
 16777215
370
    25
100
AcDbVertex
100
AcDb2dVertex
 10
80.88594976194368
 20
436.4547433480285
 30
0.0
  0
VERTEX
  5
184
330
167
100
AcDbEntity
  8
Layer 1
 62
     7
420
 16777215
370
    25
100
AcDbVertex
100
AcDb2dVertex
 10
82.05985439358012
 20
447.0195865002026
 30
0.0
  0
SEQEND
  5
185
330
167
100
AcDbEntity
  8
Layer 1
 62
     7
420
 16777215
370
    25
  0
POLYLINE
  5
186
330
1F
100
AcDbEntity
  8
Layer 1
 62
     7
420
 16777215
370
    25
100
AcDb2dPolyline
 66
     1
 10
0.0
 20
0.0
 30
0.0
  0
VERTEX
  5
187
330
186
100
AcDbEntity
  8
Layer 1
 62
     7
420
 16777215
370
    25
100
AcDbVertex
100
AcDb2dVertex
 10
91.45086754725541
 20
447.0195865002026
 30
0.0
  0
VERTEX
  5
188
330
186
100
AcDbEntity
  8
Layer 1
 62
     7
420
 16777215
370
    25
100
AcDbVertex
100
AcDb2dVertex
 10
90.2769629156193
 20
457.5845042855144
 30
0.0
  0
VERTEX
  5
189
330
186
100
AcDbEntity
  8
Layer 1
 62
     7
420
 16777215
370
    25
100
AcDbVertex
100
AcDb2dVertex
 10
87.34231328623584
 20
468.1494220708261
 30
0.0
  0
VERTEX
  5
18A
330
186
100
AcDbEntity
  8
Layer 1
 62
     7
420
 16777215
370
    25
100
AcDbVertex
100
AcDb2dVertex
 10
82.05985439358012
 20
478.1273502237512
 30
0.0
  0
VERTEX
  5
18B
330
186
100
AcDbEntity
  8
Layer 1
 62
     7
420
 16777215
370
    25
100
AcDbVertex
100
AcDb2dVertex
 10
75.01657587003854
 20
486.9314483781777
 30
0.0
  0
VERTEX
  5
18C
330
186
100
AcDbEntity
  8
Layer 1
 62
     7
420
 16777215
370
    25
100
AcDbVertex
100
AcDb2dVertex
 10
66.21247771561202
 20
493.974726901719
 30
0.0
  0
VERTEX
  5
18D
330
186
100
AcDbEntity
  8
Layer 1
 62
     7
420
 16777215
370
    25
100
AcDbVertex
100
AcDb2dVertex
 10
56.82146456193674
 20
499.257185794375
 30
0.0
  0
VERTEX
  5
18E
330
186
100
AcDbEntity
  8
Layer 1
 62
     7
420
 16777215
370
    25
100
AcDbVertex
100
AcDb2dVertex
 10
45.66963177737524
 20
502.1918354237588
 30
0.0
  0
VERTEX
  5
18F
330
186
100
AcDbEntity
  8
Layer 1
 62
     7
420
 16777215
370
    25
100
AcDbVertex
100
AcDb2dVertex
 10
35.10471399206317
 20
503.3657400553946
 30
0.0
  0
VERTEX
  5
190
330
186
100
AcDbEntity
  8
Layer 1
 62
     7
420
 16777215
370
    25
100
AcDbVertex
100
AcDb2dVertex
 10
23.95288120750233
 20
502.1918354237588
 30
0.0
  0
VERTEX
  5
191
330
186
100
AcDbEntity
  8
Layer 1
 62
     7
420
 16777215
370
    25
100
AcDbVertex
100
AcDb2dVertex
 10
13.38796342219059
 20
499.257185794375
 30
0.0
  0
VERTEX
  5
192
330
186
100
AcDbEntity
  8
Layer 1
 62
     7
420
 16777215
370
    25
100
AcDbVertex
100
AcDb2dVertex
 10
3.410035269265534
 20
493.974726901719
 30
0.0
  0
VERTEX
  5
193
330
186
100
AcDbEntity
  8
Layer 1
 62
     7
420
 16777215
370
    25
100
AcDbVertex
100
AcDb2dVertex
 10
-4.807147885911856
 20
486.9314483781777
 30
0.0
  0
VERTEX
  5
194
330
186
100
AcDbEntity
  8
Layer 1
 62
     7
420
 16777215
370
    25
100
AcDbVertex
100
AcDb2dVertex
 10
-11.85035177631491
 20
478.1273502237512
 30
0.0
  0
VERTEX
  5
195
330
186
100
AcDbEntity
  8
Layer 1
 62
     7
420
 16777215
370
    25
100
AcDbVertex
100
AcDb2dVertex
 10
-17.13281066897094
 20
468.1494220708261
 30
0.0
  0
VERTEX
  5
196
330
186
100
AcDbEntity
  8
Layer 1
 62
     7
420
 16777215
370
    25
100
AcDbVertex
100
AcDb2dVertex
 10
-20.65444993074141
 20
457.5845042855144
 30
0.0
  0
VERTEX
  5
197
330
186
100
AcDbEntity
  8
Layer 1
 62
     7
420
 16777215
370
    25
100
AcDbVertex
100
AcDb2dVertex
 10
-21.82835456237785
 20
447.0195865002026
 30
0.0
  0
VERTEX
  5
198
330
186
100
AcDbEntity
  8
Layer 1
 62
     7
420
 16777215
370
    25
100
AcDbVertex
100
AcDb2dVertex
 10
-20.65444993074141
 20
435.8677537156418
 30
0.0
  0
VERTEX
  5
199
330
186
100
AcDbEntity
  8
Layer 1
 62
     7
420
 16777215
370
    25
100
AcDbVertex
100
AcDb2dVertex
 10
-17.13281066897094
 20
425.3029105634673
 30
0.0
  0
VERTEX
  5
19A
330
186
100
AcDbEntity
  8
Layer 1
 62
     7
420
 16777215
370
    25
100
AcDbVertex
100
AcDb2dVertex
 10
-11.85035177631491
 20
415.3249077774047
 30
0.0
  0
VERTEX
  5
19B
330
186
100
AcDbEntity
  8
Layer 1
 62
     7
420
 16777215
370
    25
100
AcDbVertex
100
AcDb2dVertex
 10
-4.807147885911856
 20
406.5208096229785
 30
0.0
  0
VERTEX
  5
19C
330
186
100
AcDbEntity
  8
Layer 1
 62
     7
420
 16777215
370
    25
100
AcDbVertex
100
AcDb2dVertex
 10
3.410035269265534
 20
400.0645207318239
 30
0.0
  0
VERTEX
  5
19D
330
186
100
AcDbEntity
  8
Layer 1
 62
     7
420
 16777215
370
    25
100
AcDbVertex
100
AcDb2dVertex
 10
13.38796342219059
 20
394.7820618391682
 30
0.0
  0
VERTEX
  5
19E
330
186
100
AcDbEntity
  8
Layer 1
 62
     7
420
 16777215
370
    25
100
AcDbVertex
100
AcDb2dVertex
 10
23.95288120750233
 20
391.2604225773974
 30
0.0
  0
VERTEX
  5
19F
330
186
100
AcDbEntity
  8
Layer 1
 62
     7
420
 16777215
370
    25
100
AcDbVertex
100
AcDb2dVertex
 10
35.10471399206317
 20
390.0865179457616
 30
0.0
  0
VERTEX
  5
1A0
330
186
100
AcDbEntity
  8
Layer 1
 62
     7
420
 16777215
370
    25
100
AcDbVertex
100
AcDb2dVertex
 10
45.66963177737524
 20
391.2604225773974
 30
0.0
  0
VERTEX
  5
1A1
330
186
100
AcDbEntity
  8
Layer 1
 62
     7
420
 16777215
370
    25
100
AcDbVertex
100
AcDb2dVertex
 10
56.82146456193674
 20
394.7820618391682
 30
0.0
  0
VERTEX
  5
1A2
330
186
100
AcDbEntity
  8
Layer 1
 62
     7
420
 16777215
370
    25
100
AcDbVertex
100
AcDb2dVertex
 10
66.21247771561202
 20
400.0645207318239
 30
0.0
  0
VERTEX
  5
1A3
330
186
100
AcDbEntity
  8
Layer 1
 62
     7
420
 16777215
370
    25
100
AcDbVertex
100
AcDb2dVertex
 10
75.01657587003854
 20
406.5208096229785
 30
0.0
  0
VERTEX
  5
1A4
330
186
100
AcDbEntity
  8
Layer 1
 62
     7
420
 16777215
370
    25
100
AcDbVertex
100
AcDb2dVertex
 10
82.05985439358012
 20
415.3249077774047
 30
0.0
  0
VERTEX
  5
1A5
330
186
100
AcDbEntity
  8
Layer 1
 62
     7
420
 16777215
370
    25
100
AcDbVertex
100
AcDb2dVertex
 10
87.34231328623584
 20
425.3029105634673
 30
0.0
  0
VERTEX
  5
1A6
330
186
100
AcDbEntity
  8
Layer 1
 62
     7
420
 16777215
370
    25
100
AcDbVertex
100
AcDb2dVertex
 10
90.2769629156193
 20
435.8677537156418
 30
0.0
  0
VERTEX
  5
1A7
330
186
100
AcDbEntity
  8
Layer 1
 62
     7
420
 16777215
370
    25
100
AcDbVertex
100
AcDb2dVertex
 10
91.45086754725541
 20
447.0195865002026
 30
0.0
  0
SEQEND
  5
1A8
330
186
100
AcDbEntity
  8
Layer 1
 62
     7
420
 16777215
370
    25
  0
POLYLINE
  5
1A9
330
1F
100
AcDbEntity
  8
Layer 1
 62
     7
420
 16777215
370
    25
100
AcDb2dPolyline
 66
     1
 10
0.0
 20
0.0
 30
0.0
  0
VERTEX
  5
1AA
330
1A9
100
AcDbEntity
  8
Layer 1
 62
     7
420
 16777215
370
    25
100
AcDbVertex
100
AcDb2dVertex
 10
64.45165808472647
 20
398.3037011009387
 30
0.0
  0
VERTEX
  5
1AB
330
1A9
100
AcDbEntity
  8
Layer 1
 62
     7
420
 16777215
370
    25
100
AcDbVertex
100
AcDb2dVertex
 10
202.3822803936161
 20
171.7452941982405
 30
0.0
  0
SEQEND
  5
1AC
330
1A9
100
AcDbEntity
  8
Layer 1
 62
     7
420
 16777215
370
    25
  0
POLYLINE
  5
1AD
330
1F
100
AcDbEntity
  8
Layer 1
 62
     7
420
 16777215
370
    25
100
AcDb2dPolyline
 66
     1
 10
0.0
 20
0.0
 30
0.0
  0
VERTEX
  5
1AE
330
1AD
100
AcDbEntity
  8
Layer 1
 62
     7
420
 16777215
370
    25
100
AcDbVertex
100
AcDb2dVertex
 10
-132.7597674087386
 20
171.7452941982405
 30
0.0
  0
VERTEX
  5
1AF
330
1AD
100
AcDbEntity
  8
Layer 1
 62
     7
420
 16777215
370
    25
100
AcDbVertex
100
AcDb2dVertex
 10
5.757769899399884
 20
398.3037011009387
 30
0.0
  0
SEQEND
  5
1B0
330
1AD
100
AcDbEntity
  8
Layer 1
 62
     7
420
 16777215
370
    25
  0
POLYLINE
  5
1B1
330
1F
100
AcDbEntity
  8
Layer 1
 62
     7
420
 16777215
370
    25
100
AcDb2dPolyline
 66
     1
 10
0.0
 20
0.0
 30
0.0
  0
VERTEX
  5
1B2
330
1B1
100
AcDbEntity
  8
Layer 1
 62
     7
420
 16777215
370
    25
100
AcDbVertex
100
AcDb2dVertex
 10
82.05985439358012
 20
477.5404352245021
 30
0.0
  0
VERTEX
  5
1B3
330
1B1
100
AcDbEntity
  8
Layer 1
 62
     7
420
 16777215
370
    25
100
AcDbVertex
100
AcDb2dVertex
 10
202.3822803936161
 20
556.7771693480654
 30
0.0
  0
SEQEND
  5
1B4
330
1B1
100
AcDbEntity
  8
Layer 1
 62
     7
420
 16777215
370
    25
  0
POLYLINE
  5
1B5
330
1F
100
AcDbEntity
  8
Layer 1
 62
     7
420
 16777215
370
    25
100
AcDb2dPolyline
 66
     1
 10
0.0
 20
0.0
 30
0.0
  0
VERTEX
  5
1B6
330
1B5
100
AcDbEntity
  8
Layer 1
 62
     7
420
 16777215
370
    25
100
AcDbVertex
100
AcDb2dVertex
 10
-132.7597674087386
 20
556.7771693480654
 30
0.0
  0
VERTEX
  5
1B7
330
1B5
100
AcDbEntity
  8
Layer 1
 62
     7
420
 16777215
370
    25
100
AcDbVertex
100
AcDb2dVertex
 10
-12.43734140870224
 20
477.5404352245021
 30
0.0
  0
SEQEND
  5
1B8
330
1B5
100
AcDbEntity
  8
Layer 1
 62
     7
420
 16777215
370
    25
  0
POLYLINE
  5
1B9
330
1F
100
AcDbEntity
  8
Layer 1
 62
     7
420
 16777215
370
    40
100
AcDb2dPolyline
 66
     1
 10
0.0
 20
0.0
 30
0.0
  0
VERTEX
  5
1BA
330
1B9
100
AcDbEntity
  8
Layer 1
 62
     7
420
 16777215
370
    40
100
AcDbVertex
100
AcDb2dVertex
 10
586.8272778607603
 20
-135.712822414651
 30
0.0
  0
VERTEX
  5
1BB
330
1B9
100
AcDbEntity
  8
Layer 1
 62
     7
420
 16777215
370
    40
100
AcDbVertex
100
AcDb2dVertex
 10
602.6745799055901
 20
-135.712822414651
 30
0.0
  0
SEQEND
  5
1BC
330
1B9
100
AcDbEntity
  8
Layer 1
 62
     7
420
 16777215
370
    40
  0
POLYLINE
  5
1BD
330
1F
100
AcDbEntity
  8
Layer 1
 62
     7
420
 16777215
370
    35
100
AcDb2dPolyline
 66
     1
 10
0.0
 20
0.0
 30
0.0
  0
VERTEX
  5
1BE
330
1BD
100
AcDbEntity
  8
Layer 1
 62
     7
420
 16777215
370
    35
100
AcDbVertex
100
AcDb2dVertex
 10
586.8272778607603
 20
-135.712822414651
 30
0.0
  0
VERTEX
  5
1BF
330
1BD
100
AcDbEntity
  8
Layer 1
 62
     7
420
 16777215
370
    35
100
AcDbVertex
100
AcDb2dVertex
 10
585.0663835967372
 20
-136.2998866801765
 30
0.0
  0
SEQEND
  5
1C0
330
1BD
100
AcDbEntity
  8
Layer 1
 62
     7
420
 16777215
370
    35
  0
POLYLINE
  5
1C1
330
1F
100
AcDbEntity
  8
Layer 1
 62
     7
420
 16777215
370
    40
100
AcDb2dPolyline
 66
     1
 10
0.0
 20
0.0
 30
0.0
  0
VERTEX
  5
1C2
330
1C1
100
AcDbEntity
  8
Layer 1
 62
     7
420
 16777215
370
    40
100
AcDbVertex
100
AcDb2dVertex
 10
-127.4773831492211
 20
-384.5749322030399
 30
0.0
  0
VERTEX
  5
1C3
330
1C1
100
AcDbEntity
  8
Layer 1
 62
     7
420
 16777215
370
    40
100
AcDbVertex
100
AcDb2dVertex
 10
197.6868111333474
 20
-384.5749322030399
 30
0.0
  0
SEQEND
  5
1C4
330
1C1
100
AcDbEntity
  8
Layer 1
 62
     7
420
 16777215
370
    40
  0
POLYLINE
  5
1C5
330
1F
100
AcDbEntity
  8
Layer 1
 62
     7
420
 16777215
370
    40
100
AcDb2dPolyline
 66
     1
 10
0.0
 20
0.0
 30
0.0
  0
VERTEX
  5
1C6
330
1C5
100
AcDbEntity
  8
Layer 1
 62
     7
420
 16777215
370
    40
100
AcDbVertex
100
AcDb2dVertex
 10
-127.4773831492211
 20
-385.748836834676
 30
0.0
  0
VERTEX
  5
1C7
330
1C5
100
AcDbEntity
  8
Layer 1
 62
     7
420
 16777215
370
    40
100
AcDbVertex
100
AcDb2dVertex
 10
197.6868111333474
 20
-385.748836834676
 30
0.0
  0
SEQEND
  5
1C8
330
1C5
100
AcDbEntity
  8
Layer 1
 62
     7
420
 16777215
370
    40
  0
POLYLINE
  5
1C9
330
1F
100
AcDbEntity
  8
Layer 1
 62
     7
420
 16777215
370
    40
100
AcDb2dPolyline
 66
     1
 10
0.0
 20
0.0
 30
0.0
  0
VERTEX
  5
1CA
330
1C9
100
AcDbEntity
  8
Layer 1
 62
     7
420
 16777215
370
    40
100
AcDbVertex
100
AcDb2dVertex
 10
586.2403628615106
 20
-136.8868016794256
 30
0.0
  0
VERTEX
  5
1CB
330
1C9
100
AcDbEntity
  8
Layer 1
 62
     7
420
 16777215
370
    40
100
AcDbVertex
100
AcDb2dVertex
 10
602.6745799055901
 20
-136.8868016794256
 30
0.0
  0
SEQEND
  5
1CC
330
1C9
100
AcDbEntity
  8
Layer 1
 62
     7
420
 16777215
370
    40
  0
POLYLINE
  5
1CD
330
1F
100
AcDbEntity
  8
Layer 1
 62
     7
420
 16777215
370
    40
100
AcDb2dPolyline
 66
     1
 10
0.0
 20
0.0
 30
0.0
  0
VERTEX
  5
1CE
330
1CD
100
AcDbEntity
  8
Layer 1
 62
     7
420
 16777215
370
    40
100
AcDbVertex
100
AcDb2dVertex
 10
-142.7377701948015
 20
-151.5602737257573
 30
0.0
  0
VERTEX
  5
1CF
330
1CD
100
AcDbEntity
  8
Layer 1
 62
     7
420
 16777215
370
    40
100
AcDbVertex
100
AcDb2dVertex
 10
-142.7377701948015
 20
-369.3145451574591
 30
0.0
  0
VERTEX
  5
1D0
330
1CD
100
AcDbEntity
  8
Layer 1
 62
     7
420
 16777215
370
    40
100
AcDbVertex
100
AcDb2dVertex
 10
-141.5638655631651
 20
-375.1839190493639
 30
0.0
  0
VERTEX
  5
1D1
330
1CD
100
AcDbEntity
  8
Layer 1
 62
     7
420
 16777215
370
    40
100
AcDbVertex
100
AcDb2dVertex
 10
-138.0422263013946
 20
-379.8794629427705
 30
0.0
  0
VERTEX
  5
1D2
330
1CD
100
AcDbEntity
  8
Layer 1
 62
     7
420
 16777215
370
    40
100
AcDbVertex
100
AcDb2dVertex
 10
-133.3467570411262
 20
-383.401102204541
 30
0.0
  0
VERTEX
  5
1D3
330
1CD
100
AcDbEntity
  8
Layer 1
 62
     7
420
 16777215
370
    40
100
AcDbVertex
100
AcDb2dVertex
 10
-127.4773831492211
 20
-384.5749322030399
 30
0.0
  0
SEQEND
  5
1D4
330
1CD
100
AcDbEntity
  8
Layer 1
 62
     7
420
 16777215
370
    40
  0
POLYLINE
  5
1D5
330
1F
100
AcDbEntity
  8
Layer 1
 62
     7
420
 16777215
370
    40
100
AcDb2dPolyline
 66
     1
 10
0.0
 20
0.0
 30
0.0
  0
VERTEX
  5
1D6
330
1D5
100
AcDbEntity
  8
Layer 1
 62
     7
420
 16777215
370
    40
100
AcDbVertex
100
AcDb2dVertex
 10
-143.9116001932994
 20
-151.5602737257573
 30
0.0
  0
VERTEX
  5
1D7
330
1D5
100
AcDbEntity
  8
Layer 1
 62
     7
420
 16777215
370
    40
100
AcDbVertex
100
AcDb2dVertex
 10
-143.9116001932994
 20
-369.3145451574591
 30
0.0
  0
VERTEX
  5
1D8
330
1D5
100
AcDbEntity
  8
Layer 1
 62
     7
420
 16777215
370
    40
100
AcDbVertex
100
AcDb2dVertex
 10
-142.7377701948015
 20
-375.7709086817509
 30
0.0
  0
VERTEX
  5
1D9
330
1D5
100
AcDbEntity
  8
Layer 1
 62
     7
420
 16777215
370
    40
100
AcDbVertex
100
AcDb2dVertex
 10
-139.2161309330307
 20
-381.0533675744066
 30
0.0
  0
VERTEX
  5
1DA
330
1D5
100
AcDbEntity
  8
Layer 1
 62
     7
420
 16777215
370
    40
100
AcDbVertex
100
AcDb2dVertex
 10
-133.933672040375
 20
-384.5749322030399
 30
0.0
  0
VERTEX
  5
1DB
330
1D5
100
AcDbEntity
  8
Layer 1
 62
     7
420
 16777215
370
    40
100
AcDbVertex
100
AcDb2dVertex
 10
-127.4773831492211
 20
-385.748836834676
 30
0.0
  0
SEQEND
  5
1DC
330
1D5
100
AcDbEntity
  8
Layer 1
 62
     7
420
 16777215
370
    40
  0
POLYLINE
  5
1DD
330
1F
100
AcDbEntity
  8
Layer 1
 62
     7
420
 16777215
370
    40
100
AcDb2dPolyline
 66
     1
 10
0.0
 20
0.0
 30
0.0
  0
VERTEX
  5
1DE
330
1DD
100
AcDbEntity
  8
Layer 1
 62
     7
420
 16777215
370
    40
100
AcDbVertex
100
AcDb2dVertex
 10
212.3602831796791
 20
-369.3145451574591
 30
0.0
  0
VERTEX
  5
1DF
330
1DD
100
AcDbEntity
  8
Layer 1
 62
     7
420
 16777215
370
    40
100
AcDbVertex
100
AcDb2dVertex
 10
212.3602831796791
 20
-146.8646551992121
 30
0.0
  0
SEQEND
  5
1E0
330
1DD
100
AcDbEntity
  8
Layer 1
 62
     7
420
 16777215
370
    40
  0
POLYLINE
  5
1E1
330
1F
100
AcDbEntity
  8
Layer 1
 62
     7
420
 16777215
370
    40
100
AcDb2dPolyline
 66
     1
 10
0.0
 20
0.0
 30
0.0
  0
VERTEX
  5
1E2
330
1E1
100
AcDbEntity
  8
Layer 1
 62
     7
420
 16777215
370
    40
100
AcDbVertex
100
AcDb2dVertex
 10
197.6868111333474
 20
-384.5749322030399
 30
0.0
  0
VERTEX
  5
1E3
330
1E1
100
AcDbEntity
  8
Layer 1
 62
     7
420
 16777215
370
    40
100
AcDbVertex
100
AcDb2dVertex
 10
202.9692700260038
 20
-383.401102204541
 30
0.0
  0
VERTEX
  5
1E4
330
1E1
100
AcDbEntity
  8
Layer 1
 62
     7
420
 16777215
370
    40
100
AcDbVertex
100
AcDb2dVertex
 10
208.2517289186595
 20
-379.8794629427705
 30
0.0
  0
VERTEX
  5
1E5
330
1E1
100
AcDbEntity
  8
Layer 1
 62
     7
420
 16777215
370
    40
100
AcDbVertex
100
AcDb2dVertex
 10
211.1863785480429
 20
-375.1839190493639
 30
0.0
  0
VERTEX
  5
1E6
330
1E1
100
AcDbEntity
  8
Layer 1
 62
     7
420
 16777215
370
    40
100
AcDbVertex
100
AcDb2dVertex
 10
212.3602831796791
 20
-369.3145451574591
 30
0.0
  0
SEQEND
  5
1E7
330
1E1
100
AcDbEntity
  8
Layer 1
 62
     7
420
 16777215
370
    40
  0
POLYLINE
  5
1E8
330
1F
100
AcDbEntity
  8
Layer 1
 62
     7
420
 16777215
370
    40
100
AcDb2dPolyline
 66
     1
 10
0.0
 20
0.0
 30
0.0
  0
VERTEX
  5
1E9
330
1E8
100
AcDbEntity
  8
Layer 1
 62
     7
420
 16777215
370
    40
100
AcDbVertex
100
AcDb2dVertex
 10
213.5341131781773
 20
-369.3145451574591
 30
0.0
  0
VERTEX
  5
1EA
330
1E8
100
AcDbEntity
  8
Layer 1
 62
     7
420
 16777215
370
    40
100
AcDbVertex
100
AcDb2dVertex
 10
213.5341131781773
 20
-146.8646551992121
 30
0.0
  0
SEQEND
  5
1EB
330
1E8
100
AcDbEntity
  8
Layer 1
 62
     7
420
 16777215
370
    40
  0
POLYLINE
  5
1EC
330
1F
100
AcDbEntity
  8
Layer 1
 62
     7
420
 16777215
370
    40
100
AcDb2dPolyline
 66
     1
 10
0.0
 20
0.0
 30
0.0
  0
VERTEX
  5
1ED
330
1EC
100
AcDbEntity
  8
Layer 1
 62
     7
420
 16777215
370
    40
100
AcDbVertex
100
AcDb2dVertex
 10
197.6868111333474
 20
-385.748836834676
 30
0.0
  0
VERTEX
  5
1EE
330
1EC
100
AcDbEntity
  8
Layer 1
 62
     7
420
 16777215
370
    40
100
AcDbVertex
100
AcDb2dVertex
 10
203.5561850252529
 20
-384.5749322030399
 30
0.0
  0
VERTEX
  5
1EF
330
1EC
100
AcDbEntity
  8
Layer 1
 62
     7
420
 16777215
370
    40
100
AcDbVertex
100
AcDb2dVertex
 10
208.8386439179086
 20
-381.0533675744066
 30
0.0
  0
VERTEX
  5
1F0
330
1EC
100
AcDbEntity
  8
Layer 1
 62
     7
420
 16777215
370
    40
100
AcDbVertex
100
AcDb2dVertex
 10
212.3602831796791
 20
-375.7709086817509
 30
0.0
  0
VERTEX
  5
1F1
330
1EC
100
AcDbEntity
  8
Layer 1
 62
     7
420
 16777215
370
    40
100
AcDbVertex
100
AcDb2dVertex
 10
213.5341131781773
 20
-369.3145451574591
 30
0.0
  0
SEQEND
  5
1F2
330
1EC
100
AcDbEntity
  8
Layer 1
 62
     7
420
 16777215
370
    40
  0
POLYLINE
  5
1F3
330
1F
100
AcDbEntity
  8
Layer 1
 62
     7
420
 16777215
370
    25
100
AcDb2dPolyline
 66
     1
 10
0.0
 20
0.0
 30
0.0
  0
VERTEX
  5
1F4
330
1F3
100
AcDbEntity
  8
Layer 1
 62
     7
420
 16777215
370
    25
100
AcDbVertex
100
AcDb2dVertex
 10
89.69004791637018
 20
-391.0312957273317
 30
0.0
  0
VERTEX
  5
1F5
330
1F3
100
AcDbEntity
  8
Layer 1
 62
     7
420
 16777215
370
    25
100
AcDbVertex
100
AcDb2dVertex
 10
35.10471399206317
 20
-391.0312957273317
 30
0.0
  0
VERTEX
  5
1F6
330
1F3
100
AcDbEntity
  8
Layer 1
 62
     7
420
 16777215
370
    25
100
AcDbVertex
100
AcDb2dVertex
 10
-20.0675349314923
 20
-391.0312957273317
 30
0.0
  0
SEQEND
  5
1F7
330
1F3
100
AcDbEntity
  8
Layer 1
 62
     7
420
 16777215
370
    25
  0
POLYLINE
  5
1F8
330
1F
100
AcDbEntity
  8
Layer 1
 62
     7
420
 16777215
370
    25
100
AcDb2dPolyline
 66
     1
 10
0.0
 20
0.0
 30
0.0
  0
VERTEX
  5
1F9
330
1F8
100
AcDbEntity
  8
Layer 1
 62
     7
420
 16777215
370
    25
100
AcDbVertex
100
AcDb2dVertex
 10
-21.82835456237785
 20
-386.3357518339251
 30
0.0
  0
VERTEX
  5
1FA
330
1F8
100
AcDbEntity
  8
Layer 1
 62
     7
420
 16777215
370
    25
100
AcDbVertex
100
AcDb2dVertex
 10
-22.41526956162664
 20
-385.1619218354262
 30
0.0
  0
VERTEX
  5
1FB
330
1F8
100
AcDbEntity
  8
Layer 1
 62
     7
420
 16777215
370
    25
100
AcDbVertex
100
AcDb2dVertex
 10
-24.1760891925122
 20
-384.5749322030399
 30
0.0
  0
SEQEND
  5
1FC
330
1F8
100
AcDbEntity
  8
Layer 1
 62
     7
420
 16777215
370
    25
  0
POLYLINE
  5
1FD
330
1F
100
AcDbEntity
  8
Layer 1
 62
     7
420
 16777215
370
    25
100
AcDb2dPolyline
 66
     1
 10
0.0
 20
0.0
 30
0.0
  0
VERTEX
  5
1FE
330
1FD
100
AcDbEntity
  8
Layer 1
 62
     7
420
 16777215
370
    25
100
AcDbVertex
100
AcDb2dVertex
 10
-23.0022591940143
 20
-386.3357518339251
 30
0.0
  0
VERTEX
  5
1FF
330
1FD
100
AcDbEntity
  8
Layer 1
 62
     7
420
 16777215
370
    25
100
AcDbVertex
100
AcDb2dVertex
 10
-23.58917419326309
 20
-385.748836834676
 30
0.0
  0
VERTEX
  5
200
330
1FD
100
AcDbEntity
  8
Layer 1
 62
     7
420
 16777215
370
    25
100
AcDbVertex
100
AcDb2dVertex
 10
-24.1760891925122
 20
-385.748836834676
 30
0.0
  0
SEQEND
  5
201
330
1FD
100
AcDbEntity
  8
Layer 1
 62
     7
420
 16777215
370
    25
  0
POLYLINE
  5
202
330
1F
100
AcDbEntity
  8
Layer 1
 62
     7
420
 16777215
370
    25
100
AcDb2dPolyline
 66
     1
 10
0.0
 20
0.0
 30
0.0
  0
VERTEX
  5
203
330
202
100
AcDbEntity
  8
Layer 1
 62
     7
420
 16777215
370
    25
100
AcDbVertex
100
AcDb2dVertex
 10
93.21168717814065
 20
-386.3357518339251
 30
0.0
  0
VERTEX
  5
204
330
202
100
AcDbEntity
  8
Layer 1
 62
     7
420
 16777215
370
    25
100
AcDbVertex
100
AcDb2dVertex
 10
93.21168717814065
 20
-387.5096564655612
 30
0.0
  0
SEQEND
  5
205
330
202
100
AcDbEntity
  8
Layer 1
 62
     7
420
 16777215
370
    25
  0
POLYLINE
  5
206
330
1F
100
AcDbEntity
  8
Layer 1
 62
     7
420
 16777215
370
    25
100
AcDb2dPolyline
 66
     1
 10
0.0
 20
0.0
 30
0.0
  0
VERTEX
  5
207
330
206
100
AcDbEntity
  8
Layer 1
 62
     7
420
 16777215
370
    25
100
AcDbVertex
100
AcDb2dVertex
 10
92.03778254650453
 20
-386.3357518339251
 30
0.0
  0
VERTEX
  5
208
330
206
100
AcDbEntity
  8
Layer 1
 62
     7
420
 16777215
370
    25
100
AcDbVertex
100
AcDb2dVertex
 10
92.03778254650453
 20
-387.5096564655612
 30
0.0
  0
SEQEND
  5
209
330
206
100
AcDbEntity
  8
Layer 1
 62
     7
420
 16777215
370
    25
  0
POLYLINE
  5
20A
330
1F
100
AcDbEntity
  8
Layer 1
 62
     7
420
 16777215
370
    25
100
AcDb2dPolyline
 66
     1
 10
0.0
 20
0.0
 30
0.0
  0
VERTEX
  5
20B
330
20A
100
AcDbEntity
  8
Layer 1
 62
     7
420
 16777215
370
    25
100
AcDbVertex
100
AcDb2dVertex
 10
-10.08960677856789
 20
-391.0312957273317
 30
0.0
  0
VERTEX
  5
20C
330
20A
100
AcDbEntity
  8
Layer 1
 62
     7
420
 16777215
370
    25
100
AcDbVertex
100
AcDb2dVertex
 10
-10.08960677856789
 20
-389.8573910956956
 30
0.0
  0
SEQEND
  5
20D
330
20A
100
AcDbEntity
  8
Layer 1
 62
     7
420
 16777215
370
    25
  0
POLYLINE
  5
20E
330
1F
100
AcDbEntity
  8
Layer 1
 62
     7
420
 16777215
370
    25
100
AcDb2dPolyline
 66
     1
 10
0.0
 20
0.0
 30
0.0
  0
VERTEX
  5
20F
330
20E
100
AcDbEntity
  8
Layer 1
 62
     7
420
 16777215
370
    25
100
AcDbVertex
100
AcDb2dVertex
 10
-20.0675349314923
 20
-389.8573910956956
 30
0.0
  0
VERTEX
  5
210
330
20E
100
AcDbEntity
  8
Layer 1
 62
     7
420
 16777215
370
    25
100
AcDbVertex
100
AcDb2dVertex
 10
35.10471399206317
 20
-389.8573910956956
 30
0.0
  0
SEQEND
  5
211
330
20E
100
AcDbEntity
  8
Layer 1
 62
     7
420
 16777215
370
    25
  0
POLYLINE
  5
212
330
1F
100
AcDbEntity
  8
Layer 1
 62
     7
420
 16777215
370
    25
100
AcDb2dPolyline
 66
     1
 10
0.0
 20
0.0
 30
0.0
  0
VERTEX
  5
213
330
212
100
AcDbEntity
  8
Layer 1
 62
     7
420
 16777215
370
    25
100
AcDbVertex
100
AcDb2dVertex
 10
89.69004791637018
 20
-391.0312957273317
 30
0.0
  0
VERTEX
  5
214
330
212
100
AcDbEntity
  8
Layer 1
 62
     7
420
 16777215
370
    25
100
AcDbVertex
100
AcDb2dVertex
 10
35.10471399206317
 20
-391.0312957273317
 30
0.0
  0
SEQEND
  5
215
330
212
100
AcDbEntity
  8
Layer 1
 62
     7
420
 16777215
370
    25
  0
POLYLINE
  5
216
330
1F
100
AcDbEntity
  8
Layer 1
 62
     7
420
 16777215
370
    25
100
AcDb2dPolyline
 66
     1
 10
0.0
 20
0.0
 30
0.0
  0
VERTEX
  5
217
330
216
100
AcDbEntity
  8
Layer 1
 62
     7
420
 16777215
370
    25
100
AcDbVertex
100
AcDb2dVertex
 10
89.69004791637018
 20
-389.8573910956956
 30
0.0
  0
VERTEX
  5
218
330
216
100
AcDbEntity
  8
Layer 1
 62
     7
420
 16777215
370
    25
100
AcDbVertex
100
AcDb2dVertex
 10
35.10471399206317
 20
-389.8573910956956
 30
0.0
  0
SEQEND
  5
219
330
216
100
AcDbEntity
  8
Layer 1
 62
     7
420
 16777215
370
    25
  0
POLYLINE
  5
21A
330
1F
100
AcDbEntity
  8
Layer 1
 62
     7
420
 16777215
370
    25
100
AcDb2dPolyline
 66
     1
 10
0.0
 20
0.0
 30
0.0
  0
VERTEX
  5
21B
330
21A
100
AcDbEntity
  8
Layer 1
 62
     7
420
 16777215
370
    25
100
AcDbVertex
100
AcDb2dVertex
 10
79.71204513030723
 20
-391.0312957273317
 30
0.0
  0
VERTEX
  5
21C
330
21A
100
AcDbEntity
  8
Layer 1
 62
     7
420
 16777215
370
    25
100
AcDbVertex
100
AcDb2dVertex
 10
79.71204513030723
 20
-389.8573910956956
 30
0.0
  0
SEQEND
  5
21D
330
21A
100
AcDbEntity
  8
Layer 1
 62
     7
420
 16777215
370
    25
  0
POLYLINE
  5
21E
330
1F
100
AcDbEntity
  8
Layer 1
 62
     7
420
 16777215
370
    25
100
AcDb2dPolyline
 66
     1
 10
0.0
 20
0.0
 30
0.0
  0
VERTEX
  5
21F
330
21E
100
AcDbEntity
  8
Layer 1
 62
     7
420
 16777215
370
    25
100
AcDbVertex
100
AcDb2dVertex
 10
93.79860217738977
 20
-384.5749322030399
 30
0.0
  0
VERTEX
  5
220
330
21E
100
AcDbEntity
  8
Layer 1
 62
     7
420
 16777215
370
    25
100
AcDbVertex
100
AcDb2dVertex
 10
92.62469754575365
 20
-385.1619218354262
 30
0.0
  0
VERTEX
  5
221
330
21E
100
AcDbEntity
  8
Layer 1
 62
     7
420
 16777215
370
    25
100
AcDbVertex
100
AcDb2dVertex
 10
92.03778254650453
 20
-386.3357518339251
 30
0.0
  0
SEQEND
  5
222
330
21E
100
AcDbEntity
  8
Layer 1
 62
     7
420
 16777215
370
    25
  0
POLYLINE
  5
223
330
1F
100
AcDbEntity
  8
Layer 1
 62
     7
420
 16777215
370
    25
100
AcDb2dPolyline
 66
     1
 10
0.0
 20
0.0
 30
0.0
  0
VERTEX
  5
224
330
223
100
AcDbEntity
  8
Layer 1
 62
     7
420
 16777215
370
    25
100
AcDbVertex
100
AcDb2dVertex
 10
93.79860217738977
 20
-385.748836834676
 30
0.0
  0
VERTEX
  5
225
330
223
100
AcDbEntity
  8
Layer 1
 62
     7
420
 16777215
370
    25
100
AcDbVertex
100
AcDb2dVertex
 10
93.21168717814065
 20
-385.748836834676
 30
0.0
  0
VERTEX
  5
226
330
223
100
AcDbEntity
  8
Layer 1
 62
     7
420
 16777215
370
    25
100
AcDbVertex
100
AcDb2dVertex
 10
93.21168717814065
 20
-386.3357518339251
 30
0.0
  0
SEQEND
  5
227
330
223
100
AcDbEntity
  8
Layer 1
 62
     7
420
 16777215
370
    25
  0
POLYLINE
  5
228
330
1F
100
AcDbEntity
  8
Layer 1
 62
     7
420
 16777215
370
    25
100
AcDb2dPolyline
 66
     1
 10
0.0
 20
0.0
 30
0.0
  0
VERTEX
  5
229
330
228
100
AcDbEntity
  8
Layer 1
 62
     7
420
 16777215
370
    25
100
AcDbVertex
100
AcDb2dVertex
 10
89.69004791637018
 20
-389.8573910956956
 30
0.0
  0
VERTEX
  5
22A
330
228
100
AcDbEntity
  8
Layer 1
 62
     7
420
 16777215
370
    25
100
AcDbVertex
100
AcDb2dVertex
 10
91.45086754725541
 20
-389.2704760964464
 30
0.0
  0
VERTEX
  5
22B
330
228
100
AcDbEntity
  8
Layer 1
 62
     7
420
 16777215
370
    25
100
AcDbVertex
100
AcDb2dVertex
 10
92.03778254650453
 20
-387.5096564655612
 30
0.0
  0
SEQEND
  5
22C
330
228
100
AcDbEntity
  8
Layer 1
 62
     7
420
 16777215
370
    25
  0
POLYLINE
  5
22D
330
1F
100
AcDbEntity
  8
Layer 1
 62
     7
420
 16777215
370
    25
100
AcDb2dPolyline
 66
     1
 10
0.0
 20
0.0
 30
0.0
  0
VERTEX
  5
22E
330
22D
100
AcDbEntity
  8
Layer 1
 62
     7
420
 16777215
370
    25
100
AcDbVertex
100
AcDb2dVertex
 10
89.69004791637018
 20
-391.0312957273317
 30
0.0
  0
VERTEX
  5
22F
330
22D
100
AcDbEntity
  8
Layer 1
 62
     7
420
 16777215
370
    25
100
AcDbVertex
100
AcDb2dVertex
 10
92.03778254650453
 20
-389.8573910956956
 30
0.0
  0
VERTEX
  5
230
330
22D
100
AcDbEntity
  8
Layer 1
 62
     7
420
 16777215
370
    25
100
AcDbVertex
100
AcDb2dVertex
 10
93.21168717814065
 20
-387.5096564655612
 30
0.0
  0
SEQEND
  5
231
330
22D
100
AcDbEntity
  8
Layer 1
 62
     7
420
 16777215
370
    25
  0
POLYLINE
  5
232
330
1F
100
AcDbEntity
  8
Layer 1
 62
     7
420
 16777215
370
    25
100
AcDb2dPolyline
 66
     1
 10
0.0
 20
0.0
 30
0.0
  0
VERTEX
  5
233
330
232
100
AcDbEntity
  8
Layer 1
 62
     7
420
 16777215
370
    25
100
AcDbVertex
100
AcDb2dVertex
 10
-21.82835456237785
 20
-387.5096564655612
 30
0.0
  0
VERTEX
  5
234
330
232
100
AcDbEntity
  8
Layer 1
 62
     7
420
 16777215
370
    25
100
AcDbVertex
100
AcDb2dVertex
 10
-21.24143956312874
 20
-389.2704760964464
 30
0.0
  0
VERTEX
  5
235
330
232
100
AcDbEntity
  8
Layer 1
 62
     7
420
 16777215
370
    25
100
AcDbVertex
100
AcDb2dVertex
 10
-20.0675349314923
 20
-389.8573910956956
 30
0.0
  0
SEQEND
  5
236
330
232
100
AcDbEntity
  8
Layer 1
 62
     7
420
 16777215
370
    25
  0
POLYLINE
  5
237
330
1F
100
AcDbEntity
  8
Layer 1
 62
     7
420
 16777215
370
    25
100
AcDb2dPolyline
 66
     1
 10
0.0
 20
0.0
 30
0.0
  0
VERTEX
  5
238
330
237
100
AcDbEntity
  8
Layer 1
 62
     7
420
 16777215
370
    25
100
AcDbVertex
100
AcDb2dVertex
 10
-23.0022591940143
 20
-387.5096564655612
 30
0.0
  0
VERTEX
  5
239
330
237
100
AcDbEntity
  8
Layer 1
 62
     7
420
 16777215
370
    25
100
AcDbVertex
100
AcDb2dVertex
 10
-22.41526956162664
 20
-389.8573910956956
 30
0.0
  0
VERTEX
  5
23A
330
237
100
AcDbEntity
  8
Layer 1
 62
     7
420
 16777215
370
    25
100
AcDbVertex
100
AcDb2dVertex
 10
-20.0675349314923
 20
-391.0312957273317
 30
0.0
  0
SEQEND
  5
23B
330
237
100
AcDbEntity
  8
Layer 1
 62
     7
420
 16777215
370
    25
  0
POLYLINE
  5
23C
330
1F
100
AcDbEntity
  8
Layer 1
 62
     7
420
 16777215
370
    25
100
AcDb2dPolyline
 66
     1
 10
0.0
 20
0.0
 30
0.0
  0
VERTEX
  5
23D
330
23C
100
AcDbEntity
  8
Layer 1
 62
     7
420
 16777215
370
    25
100
AcDbVertex
100
AcDb2dVertex
 10
-24.1760891925122
 20
-384.5749322030399
 30
0.0
  0
VERTEX
  5
23E
330
23C
100
AcDbEntity
  8
Layer 1
 62
     7
420
 16777215
370
    25
100
AcDbVertex
100
AcDb2dVertex
 10
93.79860217738977
 20
-384.5749322030399
 30
0.0
  0
SEQEND
  5
23F
330
23C
100
AcDbEntity
  8
Layer 1
 62
     7
420
 16777215
370
    25
  0
POLYLINE
  5
240
330
1F
100
AcDbEntity
  8
Layer 1
 62
     7
420
 16777215
370
    25
100
AcDb2dPolyline
 66
     1
 10
0.0
 20
0.0
 30
0.0
  0
VERTEX
  5
241
330
240
100
AcDbEntity
  8
Layer 1
 62
     7
420
 16777215
370
    25
100
AcDbVertex
100
AcDb2dVertex
 10
-23.0022591940143
 20
-386.3357518339251
 30
0.0
  0
VERTEX
  5
242
330
240
100
AcDbEntity
  8
Layer 1
 62
     7
420
 16777215
370
    25
100
AcDbVertex
100
AcDb2dVertex
 10
-23.0022591940143
 20
-387.5096564655612
 30
0.0
  0
SEQEND
  5
243
330
240
100
AcDbEntity
  8
Layer 1
 62
     7
420
 16777215
370
    25
  0
POLYLINE
  5
244
330
1F
100
AcDbEntity
  8
Layer 1
 62
     7
420
 16777215
370
    25
100
AcDb2dPolyline
 66
     1
 10
0.0
 20
0.0
 30
0.0
  0
VERTEX
  5
245
330
244
100
AcDbEntity
  8
Layer 1
 62
     7
420
 16777215
370
    25
100
AcDbVertex
100
AcDb2dVertex
 10
-21.82835456237785
 20
-386.3357518339251
 30
0.0
  0
VERTEX
  5
246
330
244
100
AcDbEntity
  8
Layer 1
 62
     7
420
 16777215
370
    25
100
AcDbVertex
100
AcDb2dVertex
 10
-21.82835456237785
 20
-387.5096564655612
 30
0.0
  0
SEQEND
  5
247
330
244
100
AcDbEntity
  8
Layer 1
 62
     7
420
 16777215
370
    25
  0
POLYLINE
  5
248
330
1F
100
AcDbEntity
  8
Layer 1
 62
     7
420
 16777215
370
    18
100
AcDb2dPolyline
 66
     1
 10
0.0
 20
0.0
 30
0.0
  0
VERTEX
  5
249
330
248
100
AcDbEntity
  8
Layer 1
 62
     7
420
 16777215
370
    18
100
AcDbVertex
100
AcDb2dVertex
 10
-186.1712713345473
 20
-135.712822414651
 30
0.0
  0
VERTEX
  5
4DF
330
248
100
AcDbEntity
  8
0
100
AcDbVertex
100
AcDb2dVertex
 10
-186.1712713345473
 20
-135.712822414651
 30
0.0
  0
SEQEND
  5
24A
330
248
100
AcDbEntity
  8
Layer 1
 62
     7
420
 16777215
370
    18
  0
POLYLINE
  5
24B
330
1F
100
AcDbEntity
  8
Layer 1
 62
     7
420
 16777215
370
    18
100
AcDb2dPolyline
 66
     1
 10
0.0
 20
0.0
 30
0.0
  0
VERTEX
  5
24C
330
24B
100
AcDbEntity
  8
Layer 1
 62
     7
420
 16777215
370
    18
100
AcDbVertex
100
AcDb2dVertex
 10
-135.6944916712602
 20
-385.748836834676
 30
0.0
  0
VERTEX
  5
4E0
330
24B
100
AcDbEntity
  8
0
100
AcDbVertex
100
AcDb2dVertex
 10
-135.6944916712602
 20
-385.748836834676
 30
0.0
  0
SEQEND
  5
24D
330
24B
100
AcDbEntity
  8
Layer 1
 62
     7
420
 16777215
370
    18
  0
POLYLINE
  5
24E
330
1F
100
AcDbEntity
  8
Layer 1
 62
     7
420
 16777215
370
    40
100
AcDb2dPolyline
 66
     1
 10
0.0
 20
0.0
 30
0.0
  0
VERTEX
  5
24F
330
24E
100
AcDbEntity
  8
Layer 1
 62
     7
420
 16777215
370
    40
100
AcDbVertex
100
AcDb2dVertex
 10
-182.6496320727769
 20
-136.8868016794256
 30
0.0
  0
VERTEX
  5
250
330
24E
100
AcDbEntity
  8
Layer 1
 62
     7
420
 16777215
370
    40
100
AcDbVertex
100
AcDb2dVertex
 10
-166.8022553948088
 20
-136.8868016794256
 30
0.0
  0
SEQEND
  5
251
330
24E
100
AcDbEntity
  8
Layer 1
 62
     7
420
 16777215
370
    40
  0
POLYLINE
  5
252
330
1F
100
AcDbEntity
  8
Layer 1
 62
     7
420
 16777215
370
    40
100
AcDb2dPolyline
 66
     1
 10
0.0
 20
0.0
 30
0.0
  0
VERTEX
  5
253
330
252
100
AcDbEntity
  8
Layer 1
 62
     7
420
 16777215
370
    40
100
AcDbVertex
100
AcDb2dVertex
 10
-175.6063535492356
 20
-156.8426579852751
 30
0.0
  0
VERTEX
  5
254
330
252
100
AcDbEntity
  8
Layer 1
 62
     7
420
 16777215
370
    40
100
AcDbVertex
100
AcDb2dVertex
 10
-175.6063535492356
 20
-138.647546677173
 30
0.0
  0
SEQEND
  5
255
330
252
100
AcDbEntity
  8
Layer 1
 62
     7
420
 16777215
370
    40
  0
POLYLINE
  5
256
330
1F
100
AcDbEntity
  8
Layer 1
 62
     7
420
 16777215
370
    40
100
AcDb2dPolyline
 66
     1
 10
0.0
 20
0.0
 30
0.0
  0
VERTEX
  5
257
330
256
100
AcDbEntity
  8
Layer 1
 62
     7
420
 16777215
370
    40
100
AcDbVertex
100
AcDb2dVertex
 10
-175.6063535492356
 20
-138.0606316779239
 30
0.0
  0
VERTEX
  5
258
330
256
100
AcDbEntity
  8
Layer 1
 62
     7
420
 16777215
370
    40
100
AcDbVertex
100
AcDb2dVertex
 10
-175.6063535492356
 20
-138.647546677173
 30
0.0
  0
SEQEND
  5
259
330
256
100
AcDbEntity
  8
Layer 1
 62
     7
420
 16777215
370
    40
  0
POLYLINE
  5
25A
330
1F
100
AcDbEntity
  8
Layer 1
 62
     7
420
 16777215
370
    40
100
AcDb2dPolyline
 66
     1
 10
0.0
 20
0.0
 30
0.0
  0
VERTEX
  5
25B
330
25A
100
AcDbEntity
  8
Layer 1
 62
     7
420
 16777215
370
    40
100
AcDbVertex
100
AcDb2dVertex
 10
-175.6063535492356
 20
-138.0606316779239
 30
0.0
  0
VERTEX
  5
25C
330
25A
100
AcDbEntity
  8
Layer 1
 62
     7
420
 16777215
370
    40
100
AcDbVertex
100
AcDb2dVertex
 10
-166.8022553948088
 20
-138.0606316779239
 30
0.0
  0
VERTEX
  5
25D
330
25A
100
AcDbEntity
  8
Layer 1
 62
     7
420
 16777215
370
    40
100
AcDbVertex
100
AcDb2dVertex
 10
-166.8022553948088
 20
-136.8868016794256
 30
0.0
  0
VERTEX
  5
25E
330
25A
100
AcDbEntity
  8
Layer 1
 62
     7
420
 16777215
370
    40
100
AcDbVertex
100
AcDb2dVertex
 10
-175.6063535492356
 20
-136.8868016794256
 30
0.0
  0
VERTEX
  5
25F
330
25A
100
AcDbEntity
  8
Layer 1
 62
     7
420
 16777215
370
    40
100
AcDbVertex
100
AcDb2dVertex
 10
-176.7801835477335
 20
-137.4737166786747
 30
0.0
  0
VERTEX
  5
260
330
25A
100
AcDbEntity
  8
Layer 1
 62
     7
420
 16777215
370
    40
100
AcDbVertex
100
AcDb2dVertex
 10
-176.7801835477335
 20
-138.647546677173
 30
0.0
  0
VERTEX
  5
261
330
25A
100
AcDbEntity
  8
Layer 1
 62
     7
420
 16777215
370
    40
100
AcDbVertex
100
AcDb2dVertex
 10
-176.7801835477335
 20
-156.8426579852751
 30
0.0
  0
VERTEX
  5
262
330
25A
100
AcDbEntity
  8
Layer 1
 62
     7
420
 16777215
370
    40
100
AcDbVertex
100
AcDb2dVertex
 10
-175.6063535492356
 20
-156.8426579852751
 30
0.0
  0
SEQEND
  5
263
330
25A
100
AcDbEntity
  8
Layer 1
 62
     7
420
 16777215
370
    40
  0
POLYLINE
  5
264
330
1F
100
AcDbEntity
  8
Layer 1
 62
     7
420
 16777215
370
    25
100
AcDb2dPolyline
 66
     1
 10
0.0
 20
0.0
 30
0.0
  0
VERTEX
  5
265
330
264
100
AcDbEntity
  8
Layer 1
 62
     7
420
 16777215
370
    25
100
AcDbVertex
100
AcDb2dVertex
 10
595.6313013820493
 20
-138.647546677173
 30
0.0
  0
VERTEX
  5
266
330
264
100
AcDbEntity
  8
Layer 1
 62
     7
420
 16777215
370
    25
100
AcDbVertex
100
AcDb2dVertex
 10
595.6313013820493
 20
-156.8426579852751
 30
0.0
  0
VERTEX
  5
267
330
264
100
AcDbEntity
  8
Layer 1
 62
     7
420
 16777215
370
    25
100
AcDbVertex
100
AcDb2dVertex
 10
596.8052806468227
 20
-156.8426579852751
 30
0.0
  0
VERTEX
  5
268
330
264
100
AcDbEntity
  8
Layer 1
 62
     7
420
 16777215
370
    25
100
AcDbVertex
100
AcDb2dVertex
 10
596.8052806468227
 20
-138.647546677173
 30
0.0
  0
SEQEND
  5
269
330
264
100
AcDbEntity
  8
Layer 1
 62
     7
420
 16777215
370
    25
  0
POLYLINE
  5
26A
330
1F
100
AcDbEntity
  8
Layer 1
 62
     7
420
 16777215
370
    25
100
AcDb2dPolyline
 66
     1
 10
0.0
 20
0.0
 30
0.0
  0
VERTEX
  5
26B
330
26A
100
AcDbEntity
  8
Layer 1
 62
     7
420
 16777215
370
    25
100
AcDbVertex
100
AcDb2dVertex
 10
595.0443863827995
 20
-136.8868016794256
 30
0.0
  0
VERTEX
  5
26C
330
26A
100
AcDbEntity
  8
Layer 1
 62
     7
420
 16777215
370
    25
100
AcDbVertex
100
AcDb2dVertex
 10
596.2183656475735
 20
-137.4737166786747
 30
0.0
  0
VERTEX
  5
26D
330
26A
100
AcDbEntity
  8
Layer 1
 62
     7
420
 16777215
370
    25
100
AcDbVertex
100
AcDb2dVertex
 10
596.8052806468227
 20
-138.647546677173
 30
0.0
  0
SEQEND
  5
26E
330
26A
100
AcDbEntity
  8
Layer 1
 62
     7
420
 16777215
370
    25
  0
POLYLINE
  5
26F
330
1F
100
AcDbEntity
  8
Layer 1
 62
     7
420
 16777215
370
    25
100
AcDb2dPolyline
 66
     1
 10
0.0
 20
0.0
 30
0.0
  0
VERTEX
  5
270
330
26F
100
AcDbEntity
  8
Layer 1
 62
     7
420
 16777215
370
    25
100
AcDbVertex
100
AcDb2dVertex
 10
595.0443863827995
 20
-136.8868016794256
 30
0.0
  0
VERTEX
  5
271
330
26F
100
AcDbEntity
  8
Layer 1
 62
     7
420
 16777215
370
    25
100
AcDbVertex
100
AcDb2dVertex
 10
586.8272778607603
 20
-136.8868016794256
 30
0.0
  0
VERTEX
  5
272
330
26F
100
AcDbEntity
  8
Layer 1
 62
     7
420
 16777215
370
    25
100
AcDbVertex
100
AcDb2dVertex
 10
586.8272778607603
 20
-138.0606316779239
 30
0.0
  0
VERTEX
  5
273
330
26F
100
AcDbEntity
  8
Layer 1
 62
     7
420
 16777215
370
    25
100
AcDbVertex
100
AcDb2dVertex
 10
595.0443863827995
 20
-138.0606316779239
 30
0.0
  0
VERTEX
  5
274
330
26F
100
AcDbEntity
  8
Layer 1
 62
     7
420
 16777215
370
    25
100
AcDbVertex
100
AcDb2dVertex
 10
595.6313013820493
 20
-138.0606316779239
 30
0.0
  0
VERTEX
  5
275
330
26F
100
AcDbEntity
  8
Layer 1
 62
     7
420
 16777215
370
    25
100
AcDbVertex
100
AcDb2dVertex
 10
595.6313013820493
 20
-138.647546677173
 30
0.0
  0
SEQEND
  5
276
330
26F
100
AcDbEntity
  8
Layer 1
 62
     7
420
 16777215
370
    25
  0
POLYLINE
  5
277
330
1F
100
AcDbEntity
  8
Layer 1
 62
     7
420
 16777215
370
    40
100
AcDb2dPolyline
 66
     1
 10
0.0
 20
0.0
 30
0.0
  0
VERTEX
  5
278
330
277
100
AcDbEntity
  8
Layer 1
 62
     7
420
 16777215
370
    40
100
AcDbVertex
100
AcDb2dVertex
 10
602.6745799055901
 20
-136.8868016794256
 30
0.0
  0
VERTEX
  5
279
330
277
100
AcDbEntity
  8
Layer 1
 62
     7
420
 16777215
370
    40
100
AcDbVertex
100
AcDb2dVertex
 10
609.130943429882
 20
-140.9953559404452
 30
0.0
  0
SEQEND
  5
27A
330
277
100
AcDbEntity
  8
Layer 1
 62
     7
420
 16777215
370
    40
  0
POLYLINE
  5
27B
330
1F
100
AcDbEntity
  8
Layer 1
 62
     7
420
 16777215
370
    40
100
AcDb2dPolyline
 66
     1
 10
0.0
 20
0.0
 30
0.0
  0
VERTEX
  5
27C
330
27B
100
AcDbEntity
  8
Layer 1
 62
     7
420
 16777215
370
    40
100
AcDbVertex
100
AcDb2dVertex
 10
602.6745799055901
 20
-135.712822414651
 30
0.0
  0
VERTEX
  5
27D
330
27B
100
AcDbEntity
  8
Layer 1
 62
     7
420
 16777215
370
    40
100
AcDbVertex
100
AcDb2dVertex
 10
609.7178584291311
 20
-139.8215259419476
 30
0.0
  0
SEQEND
  5
27E
330
27B
100
AcDbEntity
  8
Layer 1
 62
     7
420
 16777215
370
    40
  0
POLYLINE
  5
27F
330
1F
100
AcDbEntity
  8
Layer 1
 62
     7
420
 16777215
370
    40
100
AcDb2dPolyline
 66
     1
 10
0.0
 20
0.0
 30
0.0
  0
VERTEX
  5
280
330
27F
100
AcDbEntity
  8
Layer 1
 62
     7
420
 16777215
370
    40
100
AcDbVertex
100
AcDb2dVertex
 10
-183.2365470720256
 20
-135.712822414651
 30
0.0
  0
VERTEX
  5
281
330
27F
100
AcDbEntity
  8
Layer 1
 62
     7
420
 16777215
370
    40
100
AcDbVertex
100
AcDb2dVertex
 10
-190.2798255955672
 20
-139.8215259419476
 30
0.0
  0
SEQEND
  5
282
330
27F
100
AcDbEntity
  8
Layer 1
 62
     7
420
 16777215
370
    40
  0
POLYLINE
  5
283
330
1F
100
AcDbEntity
  8
Layer 1
 62
     7
420
 16777215
370
    40
100
AcDb2dPolyline
 66
     1
 10
0.0
 20
0.0
 30
0.0
  0
VERTEX
  5
284
330
283
100
AcDbEntity
  8
Layer 1
 62
     7
420
 16777215
370
    40
100
AcDbVertex
100
AcDb2dVertex
 10
609.7178584291311
 20
-139.8215259419476
 30
0.0
  0
VERTEX
  5
285
330
283
100
AcDbEntity
  8
Layer 1
 62
     7
420
 16777215
370
    40
100
AcDbVertex
100
AcDb2dVertex
 10
609.130943429882
 20
-140.9953559404452
 30
0.0
  0
SEQEND
  5
286
330
283
100
AcDbEntity
  8
Layer 1
 62
     7
420
 16777215
370
    40
  0
POLYLINE
  5
287
330
1F
100
AcDbEntity
  8
Layer 1
 62
     7
420
 16777215
370
    40
100
AcDb2dPolyline
 66
     1
 10
0.0
 20
0.0
 30
0.0
  0
VERTEX
  5
288
330
287
100
AcDbEntity
  8
Layer 1
 62
     7
420
 16777215
370
    40
100
AcDbVertex
100
AcDb2dVertex
 10
-182.6496320727769
 20
-136.8868016794256
 30
0.0
  0
VERTEX
  5
289
330
287
100
AcDbEntity
  8
Layer 1
 62
     7
420
 16777215
370
    40
100
AcDbVertex
100
AcDb2dVertex
 10
-189.6928359631799
 20
-140.9953559404452
 30
0.0
  0
VERTEX
  5
28A
330
287
100
AcDbEntity
  8
Layer 1
 62
     7
420
 16777215
370
    40
100
AcDbVertex
100
AcDb2dVertex
 10
-190.2798255955672
 20
-139.8215259419476
 30
0.0
  0
SEQEND
  5
28B
330
287
100
AcDbEntity
  8
Layer 1
 62
     7
420
 16777215
370
    40
  0
POLYLINE
  5
28C
330
1F
100
AcDbEntity
  8
Layer 1
 62
     7
420
 16777215
370
    25
100
AcDb2dPolyline
 66
     1
 10
0.0
 20
0.0
 30
0.0
  0
VERTEX
  5
28D
330
28C
100
AcDbEntity
  8
Layer 1
 62
     7
420
 16777215
370
    25
100
AcDbVertex
100
AcDb2dVertex
 10
609.7178584291311
 20
-118.1047753720744
 30
0.0
  0
VERTEX
  5
28E
330
28C
100
AcDbEntity
  8
Layer 1
 62
     7
420
 16777215
370
    25
100
AcDbVertex
100
AcDb2dVertex
 10
627.4740739172066
 20
-118.1047753720744
 30
0.0
  0
SEQEND
  5
28F
330
28C
100
AcDbEntity
  8
Layer 1
 62
     7
420
 16777215
370
    25
  0
POLYLINE
  5
290
330
1F
100
AcDbEntity
  8
Layer 1
 62
     7
420
 16777215
370
    25
100
AcDb2dPolyline
 66
     1
 10
0.0
 20
0.0
 30
0.0
  0
VERTEX
  5
291
330
290
100
AcDbEntity
  8
Layer 1
 62
     7
420
 16777215
370
    25
100
AcDbVertex
100
AcDb2dVertex
 10
602.630400390836
 20
-130.6600694117794
 30
0.0
  0
VERTEX
  5
292
330
290
100
AcDbEntity
  8
Layer 1
 62
     7
420
 16777215
370
    25
100
AcDbVertex
100
AcDb2dVertex
 10
602.6745799055901
 20
-118.1047753720744
 30
0.0
  0
SEQEND
  5
293
330
290
100
AcDbEntity
  8
Layer 1
 62
     7
420
 16777215
370
    25
  0
POLYLINE
  5
294
330
1F
100
AcDbEntity
  8
Layer 1
 62
     7
420
 16777215
370
    25
100
AcDb2dPolyline
 66
     1
 10
0.0
 20
0.0
 30
0.0
  0
VERTEX
  5
295
330
294
100
AcDbEntity
  8
Layer 1
 62
     7
420
 16777215
370
    25
100
AcDbVertex
100
AcDb2dVertex
 10
609.7178584291311
 20
-130.6600694117794
 30
0.0
  0
VERTEX
  5
296
330
294
100
AcDbEntity
  8
Layer 1
 62
     7
420
 16777215
370
    25
100
AcDbVertex
100
AcDb2dVertex
 10
609.7178584291311
 20
-118.1047753720744
 30
0.0
  0
SEQEND
  5
297
330
294
100
AcDbEntity
  8
Layer 1
 62
     7
420
 16777215
370
    25
  0
POLYLINE
  5
298
330
1F
100
AcDbEntity
  8
Layer 1
 62
     7
420
 16777215
370
    25
100
AcDb2dPolyline
 66
     1
 10
0.0
 20
0.0
 30
0.0
  0
VERTEX
  5
299
330
298
100
AcDbEntity
  8
Layer 1
 62
     7
420
 16777215
370
    25
100
AcDbVertex
100
AcDb2dVertex
 10
-183.2365470720256
 20
607.2539490113522
 30
0.0
  0
VERTEX
  5
29A
330
298
100
AcDbEntity
  8
Layer 1
 62
     7
420
 16777215
370
    25
100
AcDbVertex
100
AcDb2dVertex
 10
-190.2798255955672
 20
614.2972275348932
 30
0.0
  0
SEQEND
  5
29B
330
298
100
AcDbEntity
  8
Layer 1
 62
     7
420
 16777215
370
    25
  0
POLYLINE
  5
29C
330
1F
100
AcDbEntity
  8
Layer 1
 62
     7
420
 16777215
370
    35
100
AcDb2dPolyline
 66
     1
 10
0.0
 20
0.0
 30
0.0
  0
VERTEX
  5
29D
330
29C
100
AcDbEntity
  8
Layer 1
 62
     7
420
 16777215
370
    35
100
AcDbVertex
100
AcDb2dVertex
 10
-163.2806161330383
 20
-150.3862944609826
 30
0.0
  0
VERTEX
  5
29E
330
29C
100
AcDbEntity
  8
Layer 1
 62
     7
420
 16777215
370
    35
100
AcDbVertex
100
AcDb2dVertex
 10
-166.8022553948088
 20
-136.8868016794256
 30
0.0
  0
SEQEND
  5
29F
330
29C
100
AcDbEntity
  8
Layer 1
 62
     7
420
 16777215
370
    35
  0
POLYLINE
  5
2A0
330
1F
100
AcDbEntity
  8
Layer 1
 62
     7
420
 16777215
370
    35
100
AcDb2dPolyline
 66
     1
 10
0.0
 20
0.0
 30
0.0
  0
VERTEX
  5
2A1
330
2A0
100
AcDbEntity
  8
Layer 1
 62
     7
420
 16777215
370
    35
100
AcDbVertex
100
AcDb2dVertex
 10
-162.6937011337892
 20
-149.212464462485
 30
0.0
  0
VERTEX
  5
2A2
330
2A0
100
AcDbEntity
  8
Layer 1
 62
     7
420
 16777215
370
    35
100
AcDbVertex
100
AcDb2dVertex
 10
-165.628350763173
 20
-136.8868016794256
 30
0.0
  0
SEQEND
  5
2A3
330
2A0
100
AcDbEntity
  8
Layer 1
 62
     7
420
 16777215
370
    35
  0
POLYLINE
  5
2A4
330
1F
100
AcDbEntity
  8
Layer 1
 62
     7
420
 16777215
370
    35
100
AcDb2dPolyline
 66
     1
 10
0.0
 20
0.0
 30
0.0
  0
VERTEX
  5
2A5
330
2A4
100
AcDbEntity
  8
Layer 1
 62
     7
420
 16777215
370
    35
100
AcDbVertex
100
AcDb2dVertex
 10
585.0663835967372
 20
-136.2998866801765
 30
0.0
  0
VERTEX
  5
2A6
330
2A4
100
AcDbEntity
  8
Layer 1
 62
     7
420
 16777215
370
    35
100
AcDbVertex
100
AcDb2dVertex
 10
582.7187235997401
 20
-139.8215259419476
 30
0.0
  0
VERTEX
  5
2A7
330
2A4
100
AcDbEntity
  8
Layer 1
 62
     7
420
 16777215
370
    35
100
AcDbVertex
100
AcDb2dVertex
 10
580.9578293357176
 20
-140.4084409411967
 30
0.0
  0
SEQEND
  5
2A8
330
2A4
100
AcDbEntity
  8
Layer 1
 62
     7
420
 16777215
370
    35
  0
POLYLINE
  5
2A9
330
1F
100
AcDbEntity
  8
Layer 1
 62
     7
420
 16777215
370
    35
100
AcDb2dPolyline
 66
     1
 10
0.0
 20
0.0
 30
0.0
  0
VERTEX
  5
2AA
330
2A9
100
AcDbEntity
  8
Layer 1
 62
     7
420
 16777215
370
    35
100
AcDbVertex
100
AcDb2dVertex
 10
586.2403628615106
 20
-136.8868016794256
 30
0.0
  0
VERTEX
  5
2AB
330
2A9
100
AcDbEntity
  8
Layer 1
 62
     7
420
 16777215
370
    35
100
AcDbVertex
100
AcDb2dVertex
 10
583.3056385989892
 20
-140.9953559404452
 30
0.0
  0
VERTEX
  5
2AC
330
2A9
100
AcDbEntity
  8
Layer 1
 62
     7
420
 16777215
370
    35
100
AcDbVertex
100
AcDb2dVertex
 10
581.5448936012418
 20
-141.5822709396943
 30
0.0
  0
SEQEND
  5
2AD
330
2A9
100
AcDbEntity
  8
Layer 1
 62
     7
420
 16777215
370
    35
  0
POLYLINE
  5
2AE
330
1F
100
AcDbEntity
  8
Layer 1
 62
     7
420
 16777215
370
    35
100
AcDb2dPolyline
 66
     1
 10
0.0
 20
0.0
 30
0.0
  0
VERTEX
  5
2AF
330
2AE
100
AcDbEntity
  8
Layer 1
 62
     7
420
 16777215
370
    35
100
AcDbVertex
100
AcDb2dVertex
 10
580.9578293357176
 20
-140.4084409411967
 30
0.0
  0
VERTEX
  5
2B0
330
2AE
100
AcDbEntity
  8
Layer 1
 62
     7
420
 16777215
370
    35
100
AcDbVertex
100
AcDb2dVertex
 10
-160.3458918705166
 20
-150.3862944609826
 30
0.0
  0
SEQEND
  5
2B1
330
2AE
100
AcDbEntity
  8
Layer 1
 62
     7
420
 16777215
370
    35
  0
POLYLINE
  5
2B2
330
1F
100
AcDbEntity
  8
Layer 1
 62
     7
420
 16777215
370
    35
100
AcDb2dPolyline
 66
     1
 10
0.0
 20
0.0
 30
0.0
  0
VERTEX
  5
2B3
330
2B2
100
AcDbEntity
  8
Layer 1
 62
     7
420
 16777215
370
    35
100
AcDbVertex
100
AcDb2dVertex
 10
-162.6937011337892
 20
-149.212464462485
 30
0.0
  0
VERTEX
  5
2B4
330
2B2
100
AcDbEntity
  8
Layer 1
 62
     7
420
 16777215
370
    35
100
AcDbVertex
100
AcDb2dVertex
 10
-161.5197965021531
 20
-150.3862944609826
 30
0.0
  0
VERTEX
  5
2B5
330
2B2
100
AcDbEntity
  8
Layer 1
 62
     7
420
 16777215
370
    35
100
AcDbVertex
100
AcDb2dVertex
 10
-160.3458918705166
 20
-150.3862944609826
 30
0.0
  0
SEQEND
  5
2B6
330
2B2
100
AcDbEntity
  8
Layer 1
 62
     7
420
 16777215
370
    35
  0
POLYLINE
  5
2B7
330
1F
100
AcDbEntity
  8
Layer 1
 62
     7
420
 16777215
370
    35
100
AcDb2dPolyline
 66
     1
 10
0.0
 20
0.0
 30
0.0
  0
VERTEX
  5
2B8
330
2B7
100
AcDbEntity
  8
Layer 1
 62
     7
420
 16777215
370
    35
100
AcDbVertex
100
AcDb2dVertex
 10
581.5448936012418
 20
-141.5822709396943
 30
0.0
  0
VERTEX
  5
2B9
330
2B7
100
AcDbEntity
  8
Layer 1
 62
     7
420
 16777215
370
    35
100
AcDbVertex
100
AcDb2dVertex
 10
-161.5197965021531
 20
-151.5602737257573
 30
0.0
  0
SEQEND
  5
2BA
330
2B7
100
AcDbEntity
  8
Layer 1
 62
     7
420
 16777215
370
    35
  0
POLYLINE
  5
2BB
330
1F
100
AcDbEntity
  8
Layer 1
 62
     7
420
 16777215
370
    35
100
AcDb2dPolyline
 66
     1
 10
0.0
 20
0.0
 30
0.0
  0
VERTEX
  5
2BC
330
2BB
100
AcDbEntity
  8
Layer 1
 62
     7
420
 16777215
370
    35
100
AcDbVertex
100
AcDb2dVertex
 10
-163.2806161330383
 20
-150.3862944609826
 30
0.0
  0
VERTEX
  5
2BD
330
2BB
100
AcDbEntity
  8
Layer 1
 62
     7
420
 16777215
370
    35
100
AcDbVertex
100
AcDb2dVertex
 10
-162.6937011337892
 20
-151.5602737257573
 30
0.0
  0
VERTEX
  5
2BE
330
2BB
100
AcDbEntity
  8
Layer 1
 62
     7
420
 16777215
370
    35
100
AcDbVertex
100
AcDb2dVertex
 10
-161.5197965021531
 20
-151.5602737257573
 30
0.0
  0
SEQEND
  5
2BF
330
2BB
100
AcDbEntity
  8
Layer 1
 62
     7
420
 16777215
370
    35
  0
POLYLINE
  5
2C0
330
1F
100
AcDbEntity
  8
Layer 1
 62
     7
420
 16777215
370
    35
100
AcDb2dPolyline
 66
     1
 10
0.0
 20
0.0
 30
0.0
  0
VERTEX
  5
2C1
330
2C0
100
AcDbEntity
  8
Layer 1
 62
     7
420
 16777215
370
    35
100
AcDbVertex
100
AcDb2dVertex
 10
-167.3891703940579
 20
-135.712822414651
 30
0.0
  0
VERTEX
  5
2C2
330
2C0
100
AcDbEntity
  8
Layer 1
 62
     7
420
 16777215
370
    35
100
AcDbVertex
100
AcDb2dVertex
 10
-183.2365470720256
 20
-135.712822414651
 30
0.0
  0
SEQEND
  5
2C3
330
2C0
100
AcDbEntity
  8
Layer 1
 62
     7
420
 16777215
370
    35
  0
POLYLINE
  5
2C4
330
1F
100
AcDbEntity
  8
Layer 1
 62
     7
420
 16777215
370
    35
100
AcDb2dPolyline
 66
     1
 10
0.0
 20
0.0
 30
0.0
  0
VERTEX
  5
2C5
330
2C4
100
AcDbEntity
  8
Layer 1
 62
     7
420
 16777215
370
    35
100
AcDbVertex
100
AcDb2dVertex
 10
-165.628350763173
 20
-136.8868016794256
 30
0.0
  0
VERTEX
  5
2C6
330
2C4
100
AcDbEntity
  8
Layer 1
 62
     7
420
 16777215
370
    35
100
AcDbVertex
100
AcDb2dVertex
 10
-166.2153403955597
 20
-136.2998866801765
 30
0.0
  0
VERTEX
  5
2C7
330
2C4
100
AcDbEntity
  8
Layer 1
 62
     7
420
 16777215
370
    35
100
AcDbVertex
100
AcDb2dVertex
 10
-167.3891703940579
 20
-135.712822414651
 30
0.0
  0
SEQEND
  5
2C8
330
2C4
100
AcDbEntity
  8
Layer 1
 62
     7
420
 16777215
370
    35
  0
POLYLINE
  5
2C9
330
1F
100
AcDbEntity
  8
Layer 1
 62
     7
420
 16777215
370
    35
100
AcDb2dPolyline
 66
     1
 10
0.0
 20
0.0
 30
0.0
  0
VERTEX
  5
2CA
330
2C9
100
AcDbEntity
  8
Layer 1
 62
     7
420
 16777215
370
    35
100
AcDbVertex
100
AcDb2dVertex
 10
586.8272778607603
 20
-135.712822414651
 30
0.0
  0
VERTEX
  5
2CB
330
2C9
100
AcDbEntity
  8
Layer 1
 62
     7
420
 16777215
370
    35
100
AcDbVertex
100
AcDb2dVertex
 10
-183.2365470720256
 20
-135.712822414651
 30
0.0
  0
SEQEND
  5
2CC
330
2C9
100
AcDbEntity
  8
Layer 1
 62
     7
420
 16777215
370
    35
  0
POLYLINE
  5
2CD
330
1F
100
AcDbEntity
  8
Layer 1
370
     0
100
AcDb2dPolyline
 66
     1
 10
0.0
 20
0.0
 30
0.0
  0
VERTEX
  5
2CE
330
2CD
100
AcDbEntity
  8
Layer 1
370
     0
100
AcDbVertex
100
AcDb2dVertex
 10
215.8819224414502
 20
-215.5365461706017
 30
0.0
  0
VERTEX
  5
2CF
330
2CD
100
AcDbEntity
  8
Layer 1
370
     0
100
AcDbVertex
100
AcDb2dVertex
 10
215.8819224414502
 20
-214.3627161721034
 30
0.0
  0
VERTEX
  5
2D0
330
2CD
100
AcDbEntity
  8
Layer 1
370
     0
100
AcDbVertex
100
AcDb2dVertex
 10
213.5341131781773
 20
-214.9496311713526
 30
0.0
  0
VERTEX
  5
2D1
330
2CD
100
AcDbEntity
  8
Layer 1
370
     0
100
AcDbVertex
100
AcDb2dVertex
 10
215.8819224414502
 20
-215.5365461706017
 30
0.0
  0
SEQEND
  5
2D3
330
2CD
100
AcDbEntity
  8
Layer 1
370
     0
  0
HATCH
  5
2D2
330
1F
100
AcDbEntity
  8
Layer 1
 62
     7
420
 16777215
100
AcDbHatch
 10
0.0
 20
0.0
 30
0.0
210
0.0
220
0.0
230
1.0
  2
SOLID
 70
     1
 71
     0
 91
        1
 92
        1
 93
        3
 72
     1
 10
215.8819224414502
 20
-215.5365461706017
 11
215.8819224414502
 21
-214.3627161721034
 72
     1
 10
215.8819224414502
 20
-214.3627161721034
 11
213.5341131781773
 21
-214.9496311713526
 72
     1
 10
213.5341131781773
 20
-214.9496311713526
 11
215.8819224414502
 21
-215.5365461706017
 97
        0
 75
     0
 76
     1
 98
        0
  0
POLYLINE
  5
2D4
330
1F
100
AcDbEntity
  8
Layer 1
370
     0
100
AcDb2dPolyline
 66
     1
 10
0.0
 20
0.0
 30
0.0
  0
VERTEX
  5
2D5
330
2D4
100
AcDbEntity
  8
Layer 1
370
     0
100
AcDbVertex
100
AcDb2dVertex
 10
281.6190891503177
 20
-148.0386344639868
 30
0.0
  0
VERTEX
  5
2D6
330
2D4
100
AcDbEntity
  8
Layer 1
370
     0
100
AcDbVertex
100
AcDb2dVertex
 10
282.2060041495668
 20
-148.0386344639868
 30
0.0
  0
VERTEX
  5
2D7
330
2D4
100
AcDbEntity
  8
Layer 1
370
     0
100
AcDbVertex
100
AcDb2dVertex
 10
281.6190891503177
 20
-145.6908252007139
 30
0.0
  0
VERTEX
  5
2D8
330
2D4
100
AcDbEntity
  8
Layer 1
370
     0
100
AcDbVertex
100
AcDb2dVertex
 10
281.6190891503177
 20
-148.0386344639868
 30
0.0
  0
SEQEND
  5
2DA
330
2D4
100
AcDbEntity
  8
Layer 1
370
     0
  0
HATCH
  5
2D9
330
1F
100
AcDbEntity
  8
Layer 1
 62
     7
420
 16777215
100
AcDbHatch
 10
0.0
 20
0.0
 30
0.0
210
0.0
220
0.0
230
1.0
  2
SOLID
 70
     1
 71
     0
 91
        1
 92
        1
 93
        3
 72
     1
 10
281.6190891503177
 20
-148.0386344639868
 11
282.2060041495668
 21
-148.0386344639868
 72
     1
 10
282.2060041495668
 20
-148.0386344639868
 11
281.6190891503177
 21
-145.6908252007139
 72
     1
 10
281.6190891503177
 20
-145.6908252007139
 11
281.6190891503177
 21
-148.0386344639868
 97
        0
 75
     0
 76
     1
 98
        0
  0
POLYLINE
  5
2DB
330
1F
100
AcDbEntity
  8
Layer 1
 62
     7
420
 16777215
370
    35
100
AcDb2dPolyline
 66
     1
 10
0.0
 20
0.0
 30
0.0
  0
VERTEX
  5
2DC
330
2DB
100
AcDbEntity
  8
Layer 1
 62
     7
420
 16777215
370
    35
100
AcDbVertex
100
AcDb2dVertex
 10
289.8361976723569
 20
552.0817000877961
 30
0.0
  0
VERTEX
  5
2DD
330
2DB
100
AcDbEntity
  8
Layer 1
 62
     7
420
 16777215
370
    35
100
AcDbVertex
100
AcDb2dVertex
 10
289.2492826731084
 20
557.3641589804521
 30
0.0
  0
VERTEX
  5
2DE
330
2DB
100
AcDbEntity
  8
Layer 1
 62
     7
420
 16777215
370
    35
100
AcDbVertex
100
AcDb2dVertex
 10
286.3145584105864
 20
562.6465432399706
 30
0.0
  0
VERTEX
  5
2DF
330
2DB
100
AcDbEntity
  8
Layer 1
 62
     7
420
 16777215
370
    35
100
AcDbVertex
100
AcDb2dVertex
 10
282.7929191488159
 20
566.1681825017411
 30
0.0
  0
VERTEX
  5
2E0
330
2DB
100
AcDbEntity
  8
Layer 1
 62
     7
420
 16777215
370
    35
100
AcDbVertex
100
AcDb2dVertex
 10
278.0974498885473
 20
568.515991765013
 30
0.0
  0
VERTEX
  5
2E1
330
2DB
100
AcDbEntity
  8
Layer 1
 62
     7
420
 16777215
370
    35
100
AcDbVertex
100
AcDb2dVertex
 10
272.2280013635039
 20
569.6898217635115
 30
0.0
  0
VERTEX
  5
2E2
330
2DB
100
AcDbEntity
  8
Layer 1
 62
     7
420
 16777215
370
    35
100
AcDbVertex
100
AcDb2dVertex
 10
266.9456171039861
 20
568.515991765013
 30
0.0
  0
VERTEX
  5
2E3
330
2DB
100
AcDbEntity
  8
Layer 1
 62
     7
420
 16777215
370
    35
100
AcDbVertex
100
AcDb2dVertex
 10
262.2500732105795
 20
566.1681825017411
 30
0.0
  0
VERTEX
  5
2E4
330
2DB
100
AcDbEntity
  8
Layer 1
 62
     7
420
 16777215
370
    35
100
AcDbVertex
100
AcDb2dVertex
 10
258.1415189495593
 20
562.6465432399706
 30
0.0
  0
VERTEX
  5
2E5
330
2DB
100
AcDbEntity
  8
Layer 1
 62
     7
420
 16777215
370
    35
100
AcDbVertex
100
AcDb2dVertex
 10
255.793709686287
 20
557.3641589804521
 30
0.0
  0
VERTEX
  5
2E6
330
2DB
100
AcDbEntity
  8
Layer 1
 62
     7
420
 16777215
370
    35
100
AcDbVertex
100
AcDb2dVertex
 10
255.2067946870379
 20
552.0817000877961
 30
0.0
  0
VERTEX
  5
2E7
330
2DB
100
AcDbEntity
  8
Layer 1
 62
     7
420
 16777215
370
    35
100
AcDbVertex
100
AcDb2dVertex
 10
255.793709686287
 20
546.7992411951404
 30
0.0
  0
VERTEX
  5
2E8
330
2DB
100
AcDbEntity
  8
Layer 1
 62
     7
420
 16777215
370
    35
100
AcDbVertex
100
AcDb2dVertex
 10
258.1415189495593
 20
542.1036973017337
 30
0.0
  0
VERTEX
  5
2E9
330
2DB
100
AcDbEntity
  8
Layer 1
 62
     7
420
 16777215
370
    35
100
AcDbVertex
100
AcDb2dVertex
 10
262.2500732105795
 20
537.9951430407139
 30
0.0
  0
VERTEX
  5
2EA
330
2DB
100
AcDbEntity
  8
Layer 1
 62
     7
420
 16777215
370
    35
100
AcDbVertex
100
AcDb2dVertex
 10
266.9456171039861
 20
535.6474084105793
 30
0.0
  0
VERTEX
  5
2EB
330
2DB
100
AcDbEntity
  8
Layer 1
 62
     7
420
 16777215
370
    35
100
AcDbVertex
100
AcDb2dVertex
 10
272.2280013635039
 20
534.4735037789432
 30
0.0
  0
VERTEX
  5
2EC
330
2DB
100
AcDbEntity
  8
Layer 1
 62
     7
420
 16777215
370
    35
100
AcDbVertex
100
AcDb2dVertex
 10
278.0974498885473
 20
535.6474084105793
 30
0.0
  0
VERTEX
  5
2ED
330
2DB
100
AcDbEntity
  8
Layer 1
 62
     7
420
 16777215
370
    35
100
AcDbVertex
100
AcDb2dVertex
 10
282.7929191488159
 20
537.9951430407139
 30
0.0
  0
VERTEX
  5
2EE
330
2DB
100
AcDbEntity
  8
Layer 1
 62
     7
420
 16777215
370
    35
100
AcDbVertex
100
AcDb2dVertex
 10
286.3145584105864
 20
542.1036973017337
 30
0.0
  0
VERTEX
  5
2EF
330
2DB
100
AcDbEntity
  8
Layer 1
 62
     7
420
 16777215
370
    35
100
AcDbVertex
100
AcDb2dVertex
 10
289.2492826731084
 20
546.7992411951404
 30
0.0
  0
VERTEX
  5
2F0
330
2DB
100
AcDbEntity
  8
Layer 1
 62
     7
420
 16777215
370
    35
100
AcDbVertex
100
AcDb2dVertex
 10
289.8361976723569
 20
552.0817000877961
 30
0.0
  0
SEQEND
  5
2F1
330
2DB
100
AcDbEntity
  8
Layer 1
 62
     7
420
 16777215
370
    35
  0
POLYLINE
  5
2F2
330
1F
100
AcDbEntity
  8
Layer 1
 62
     7
420
 16777215
370
    35
100
AcDb2dPolyline
 66
     1
 10
0.0
 20
0.0
 30
0.0
  0
VERTEX
  5
2F3
330
2F2
100
AcDbEntity
  8
Layer 1
 62
     7
420
 16777215
370
    35
100
AcDbVertex
100
AcDb2dVertex
 10
-183.2365470720256
 20
121.2685518515226
 30
0.0
  0
VERTEX
  5
2F4
330
2F2
100
AcDbEntity
  8
Layer 1
 62
     7
420
 16777215
370
    35
100
AcDbVertex
100
AcDb2dVertex
 10
-190.2798255955672
 20
114.225273327981
 30
0.0
  0
SEQEND
  5
2F5
330
2F2
100
AcDbEntity
  8
Layer 1
 62
     7
420
 16777215
370
    35
  0
POLYLINE
  5
2F6
330
1F
100
AcDbEntity
  8
Layer 1
 62
     7
420
 16777215
370
    35
100
AcDb2dPolyline
 66
     1
 10
0.0
 20
0.0
 30
0.0
  0
VERTEX
  5
2F7
330
2F6
100
AcDbEntity
  8
Layer 1
 62
     7
420
 16777215
370
    35
100
AcDbVertex
100
AcDb2dVertex
 10
602.6745799055901
 20
121.2685518515226
 30
0.0
  0
VERTEX
  5
2F8
330
2F6
100
AcDbEntity
  8
Layer 1
 62
     7
420
 16777215
370
    35
100
AcDbVertex
100
AcDb2dVertex
 10
609.7178584291311
 20
114.225273327981
 30
0.0
  0
SEQEND
  5
2F9
330
2F6
100
AcDbEntity
  8
Layer 1
 62
     7
420
 16777215
370
    35
  0
POLYLINE
  5
2FA
330
1F
100
AcDbEntity
  8
Layer 1
 62
     7
420
 16777215
370
    35
100
AcDb2dPolyline
 66
     1
 10
0.0
 20
0.0
 30
0.0
  0
VERTEX
  5
2FB
330
2FA
100
AcDbEntity
  8
Layer 1
 62
     7
420
 16777215
370
    35
100
AcDbVertex
100
AcDb2dVertex
 10
602.6745799055901
 20
607.2539490113522
 30
0.0
  0
VERTEX
  5
2FC
330
2FA
100
AcDbEntity
  8
Layer 1
 62
     7
420
 16777215
370
    35
100
AcDbVertex
100
AcDb2dVertex
 10
609.7178584291311
 20
614.2972275348932
 30
0.0
  0
SEQEND
  5
2FD
330
2FA
100
AcDbEntity
  8
Layer 1
 62
     7
420
 16777215
370
    35
  0
POLYLINE
  5
2FE
330
1F
100
AcDbEntity
  8
Layer 1
 62
     7
420
 16777215
370
    35
100
AcDb2dPolyline
 66
     1
 10
0.0
 20
0.0
 30
0.0
  0
VERTEX
  5
2FF
330
2FE
100
AcDbEntity
  8
Layer 1
 62
     7
420
 16777215
370
    35
100
AcDbVertex
100
AcDb2dVertex
 10
-183.2365470720256
 20
607.2539490113522
 30
0.0
  0
VERTEX
  5
300
330
2FE
100
AcDbEntity
  8
Layer 1
 62
     7
420
 16777215
370
    35
100
AcDbVertex
100
AcDb2dVertex
 10
-190.2798255955672
 20
614.2972275348932
 30
0.0
  0
SEQEND
  5
301
330
2FE
100
AcDbEntity
  8
Layer 1
 62
     7
420
 16777215
370
    35
  0
MTEXT
  5
302
330
1F
100
AcDbEntity
  8
Layer 1
 62
     7
420
 16777215
100
AcDbMText
 10
-265.252251968418
 20
341.6824097388183
 30
0.0
 40
20.77763607929859
 41
0.0
 46
0.0
 71
     7
 72
     1
  1
\fMyriad Pro|b0|i0|c0|p34;\W1;405
 11
6.123233995736766E-17
 21
1.0
 31
0.0
 73
     1
 44
1.0
  0
MTEXT
  5
303
330
1F
100
AcDbEntity
  8
Layer 1
 62
     7
420
 16777215
100
AcDbMText
 10
-217.5613178136431
 20
489.5884790203218
 30
0.0
 40
20.77763607929859
 41
0.0
 46
0.0
 71
     7
 72
     1
  1
\fMyriad Pro|b0|i0|c0|p34;\W1;167.5
 11
6.123233995736766E-17
 21
1.0
 31
0.0
 73
     1
 44
1.0
  0
MTEXT
  5
304
330
1F
100
AcDbEntity
  8
Layer 1
 62
     7
420
 16777215
100
AcDbMText
 10
-311.7183959185962
 20
341.6824097388183
 30
0.0
 40
20.77763607929859
 41
0.0
 46
0.0
 71
     7
 72
     1
  1
\fMyriad Pro|b0|i0|c0|p34;\W1;500
 11
6.123233995736766E-17
 21
1.0
 31
0.0
 73
     1
 44
1.0
  0
POLYLINE
  5
305
330
1F
100
AcDbEntity
  8
Layer 1
 62
     7
420
 16777215
370
    20
100
AcDb2dPolyline
 66
     1
 10
0.0
 20
0.0
 30
0.0
  0
VERTEX
  5
306
330
305
100
AcDbEntity
  8
Layer 1
 62
     7
420
 16777215
370
    20
100
AcDbVertex
100
AcDb2dVertex
 10
-204.2583332822688
 20
614.2972243114041
 30
0.0
  0
VERTEX
  5
307
330
305
100
AcDbEntity
  8
Layer 1
 62
     7
420
 16777215
370
    20
100
AcDbVertex
100
AcDb2dVertex
 10
-330.7155531967166
 20
614.2972243199941
 30
0.0
  0
SEQEND
  5
308
330
305
100
AcDbEntity
  8
Layer 1
 62
     7
420
 16777215
370
    20
  0
POLYLINE
  5
309
330
1F
100
AcDbEntity
  8
Layer 1
 62
     7
420
 16777215
370
    20
100
AcDb2dPolyline
 66
     1
 10
0.0
 20
0.0
 30
0.0
  0
VERTEX
  5
30A
330
309
100
AcDbEntity
  8
Layer 1
 62
     7
420
 16777215
370
    20
100
AcDbVertex
100
AcDb2dVertex
 10
-204.2583332822688
 20
114.2252701059951
 30
0.0
  0
VERTEX
  5
30B
330
309
100
AcDbEntity
  8
Layer 1
 62
     7
420
 16777215
370
    20
100
AcDbVertex
100
AcDb2dVertex
 10
-330.7155532215392
 20
114.2252701130817
 30
0.0
  0
SEQEND
  5
30C
330
309
100
AcDbEntity
  8
Layer 1
 62
     7
420
 16777215
370
    20
  0
POLYLINE
  5
30D
330
1F
100
AcDbEntity
  8
Layer 1
 62
     7
420
 16777215
370
    20
100
AcDb2dPolyline
 66
     1
 10
0.0
 20
0.0
 30
0.0
  0
VERTEX
  5
30E
330
30D
100
AcDbEntity
  8
Layer 1
 62
     7
420
 16777215
370
    20
100
AcDbVertex
100
AcDb2dVertex
 10
-204.2583332822688
 20
566.7551689101339
 30
0.0
  0
VERTEX
  5
30F
330
30D
100
AcDbEntity
  8
Layer 1
 62
     7
420
 16777215
370
    20
100
AcDbVertex
100
AcDb2dVertex
 10
-293.7384155848976
 20
566.7551689175671
 30
0.0
  0
SEQEND
  5
310
330
30D
100
AcDbEntity
  8
Layer 1
 62
     7
420
 16777215
370
    20
  0
POLYLINE
  5
311
330
1F
100
AcDbEntity
  8
Layer 1
 62
     7
420
 16777215
370
    20
100
AcDb2dPolyline
 66
     1
 10
0.0
 20
0.0
 30
0.0
  0
VERTEX
  5
312
330
311
100
AcDbEntity
  8
Layer 1
 62
     7
420
 16777215
370
    20
100
AcDbVertex
100
AcDb2dVertex
 10
-204.2583332822688
 20
443.4979440155357
 30
0.0
  0
VERTEX
  5
313
330
311
100
AcDbEntity
  8
Layer 1
 62
     7
420
 16777215
370
    20
100
AcDbVertex
100
AcDb2dVertex
 10
-256.3103763848585
 20
443.4979440229649
 30
0.0
  0
SEQEND
  5
314
330
311
100
AcDbEntity
  8
Layer 1
 62
     7
420
 16777215
370
    20
  0
POLYLINE
  5
315
330
1F
100
AcDbEntity
  8
Layer 1
 62
     7
420
 16777215
370
    20
100
AcDb2dPolyline
 66
     1
 10
0.0
 20
0.0
 30
0.0
  0
VERTEX
  5
316
330
315
100
AcDbEntity
  8
Layer 1
 62
     7
420
 16777215
370
    20
100
AcDbVertex
100
AcDb2dVertex
 10
-204.2583332822688
 20
161.76732550386
 30
0.0
  0
VERTEX
  5
317
330
315
100
AcDbEntity
  8
Layer 1
 62
     7
420
 16777215
370
    20
100
AcDbVertex
100
AcDb2dVertex
 10
-293.7384156046397
 20
161.7673255121854
 30
0.0
  0
SEQEND
  5
318
330
315
100
AcDbEntity
  8
Layer 1
 62
     7
420
 16777215
370
    20
  0
INSERT
  5
31A
330
1F
100
AcDbEntity
  8
Layer 1
100
AcDbBlockReference
  2
block 2
 10
0.0
 20
0.0
 30
0.0
  0
INSERT
  5
32D
330
1F
100
AcDbEntity
  8
Layer 1
100
AcDbBlockReference
  2
block 4
 10
0.0
 20
0.0
 30
0.0
  0
INSERT
  5
340
330
1F
100
AcDbEntity
  8
Layer 1
100
AcDbBlockReference
  2
block 6
 10
0.0
 20
0.0
 30
0.0
  0
INSERT
  5
353
330
1F
100
AcDbEntity
  8
Layer 1
100
AcDbBlockReference
  2
block 8
 10
0.0
 20
0.0
 30
0.0
  0
INSERT
  5
366
330
1F
100
AcDbEntity
  8
Layer 1
100
AcDbBlockReference
  2
block 10
 10
0.0
 20
0.0
 30
0.0
  0
INSERT
  5
379
330
1F
100
AcDbEntity
  8
Layer 1
100
AcDbBlockReference
  2
block 12
 10
0.0
 20
0.0
 30
0.0
  0
MTEXT
  5
38B
330
1F
100
AcDbEntity
  8
Layer 1
 62
     7
420
 16777215
100
AcDbMText
 10
-79.1453285279602
 20
234.0630224054295
 30
0.0
 40
20.77763607929859
 41
0.0
 46
0.0
 71
     7
 72
     1
  1
\fMyriad Pro|b0|i0|c0|p34;\W1;R18
 73
     1
 44
1.0
  0
INSERT
  5
38D
330
1F
100
AcDbEntity
  8
Layer 1
100
AcDbBlockReference
  2
block 14
 10
0.0
 20
0.0
 30
0.0
  0
MTEXT
  5
3A0
330
1F
100
AcDbEntity
  8
Layer 1
 62
     7
420
 16777215
100
AcDbMText
 10
201.5158397204491
 20
2.289650367509808
 30
0.0
 40
20.77763607929859
 41
0.0
 46
0.0
 71
     7
 72
     1
  1
\fMyriad Pro|b0|i0|c0|p34;\W1;800
 73
     1
 44
1.0
  0
MTEXT
  5
3A1
330
1F
100
AcDbEntity
  8
Layer 1
 62
     7
420
 16777215
100
AcDbMText
 10
14.44226652892483
 20
71.8502164681135
 30
0.0
 40
20.77763607929859
 41
0.0
 46
0.0
 71
     7
 72
     1
  1
\fMyriad Pro|b0|i0|c0|p34;\W1;355
 73
     1
 44
1.0
  0
MTEXT
  5
3A2
330
1F
100
AcDbEntity
  8
Layer 1
 62
     7
420
 16777215
100
AcDbMText
 10
384.9368962752963
 20
71.95615607575071
 30
0.0
 40
20.77763607929859
 41
0.0
 46
0.0
 71
     7
 72
     1
  1
\fMyriad Pro|b0|i0|c0|p34;\W1;350
 73
     1
 44
1.0
  0
MTEXT
  5
3A3
330
1F
100
AcDbEntity
  8
Layer 1
 62
     7
420
 16777215
100
AcDbMText
 10
611.7093241539845
 20
-115.8320124018688
 30
0.0
 40
20.77763607929859
 41
0.0
 46
0.0
 71
     7
 72
     1
  1
\fMyriad Pro|b0|i0|c0|p34;\W1;7
 73
     1
 44
1.0
  0
POLYLINE
  5
3A4
330
1F
100
AcDbEntity
  8
Layer 1
 62
     7
420
 16777215
370
    20
100
AcDb2dPolyline
 66
     1
 10
0.0
 20
0.0
 30
0.0
  0
VERTEX
  5
3A5
330
3A4
100
AcDbEntity
  8
Layer 1
 62
     7
420
 16777215
370
    20
100
AcDbVertex
100
AcDb2dVertex
 10
610.5982589046798
 20
99.4833333084625
 30
0.0
  0
VERTEX
  5
3A6
330
3A4
100
AcDbEntity
  8
Layer 1
 62
     7
420
 16777215
370
    20
100
AcDbVertex
100
AcDb2dVertex
 10
610.5982588995155
 20
-3.50464935648932
 30
0.0
  0
SEQEND
  5
3A7
330
3A4
100
AcDbEntity
  8
Layer 1
 62
     7
420
 16777215
370
    20
  0
POLYLINE
  5
3A8
330
1F
100
AcDbEntity
  8
Layer 1
 62
     7
420
 16777215
370
    20
100
AcDb2dPolyline
 66
     1
 10
0.0
 20
0.0
 30
0.0
  0
VERTEX
  5
3A9
330
3A8
100
AcDbEntity
  8
Layer 1
 62
     7
420
 16777215
370
    20
100
AcDbVertex
100
AcDb2dVertex
 10
-190.2798256062124
 20
99.4833333084625
 30
0.0
  0
VERTEX
  5
3AA
330
3A8
100
AcDbEntity
  8
Layer 1
 62
     7
420
 16777215
370
    20
100
AcDbVertex
100
AcDb2dVertex
 10
-190.2798256114839
 20
-3.326257458847862
 30
0.0
  0
SEQEND
  5
3AB
330
3A8
100
AcDbEntity
  8
Layer 1
 62
     7
420
 16777215
370
    20
  0
POLYLINE
  5
3AC
330
1F
100
AcDbEntity
  8
Layer 1
 62
     7
420
 16777215
370
    20
100
AcDb2dPolyline
 66
     1
 10
0.0
 20
0.0
 30
0.0
  0
VERTEX
  5
3AD
330
3AC
100
AcDbEntity
  8
Layer 1
 62
     7
420
 16777215
370
    20
100
AcDbVertex
100
AcDb2dVertex
 10
212.3602831711913
 20
99.4833333084625
 30
0.0
  0
VERTEX
  5
3AE
330
3AC
100
AcDbEntity
  8
Layer 1
 62
     7
420
 16777215
370
    20
100
AcDbVertex
100
AcDb2dVertex
 10
212.3602831657645
 20
63.11913573219716
 30
0.0
  0
SEQEND
  5
3AF
330
3AC
100
AcDbEntity
  8
Layer 1
 62
     7
420
 16777215
370
    20
  0
POLYLINE
  5
3B0
330
1F
100
AcDbEntity
  8
Layer 1
 62
     7
420
 16777215
370
    20
100
AcDb2dPolyline
 66
     1
 10
0.0
 20
0.0
 30
0.0
  0
VERTEX
  5
3B1
330
3B0
100
AcDbEntity
  8
Layer 1
 62
     7
420
 16777215
370
    20
100
AcDbVertex
100
AcDb2dVertex
 10
-143.311041331949
 20
99.4833333084625
 30
0.0
  0
VERTEX
  5
3B2
330
3B0
100
AcDbEntity
  8
Layer 1
 62
     7
420
 16777215
370
    20
100
AcDbVertex
100
AcDb2dVertex
 10
-143.3110413373756
 20
63.11914507862581
 30
0.0
  0
SEQEND
  5
3B3
330
3B0
100
AcDbEntity
  8
Layer 1
 62
     7
420
 16777215
370
    20
  0
POLYLINE
  5
3B4
330
1F
100
AcDbEntity
  8
Layer 1
 62
     7
420
 16777215
370
    20
100
AcDb2dPolyline
 66
     1
 10
0.0
 20
0.0
 30
0.0
  0
VERTEX
  5
3B5
330
3B4
100
AcDbEntity
  8
Layer 1
 62
     7
420
 16777215
370
    20
100
AcDbVertex
100
AcDb2dVertex
 10
582.131808591742
 20
99.4833333084625
 30
0.0
  0
VERTEX
  5
3B6
330
3B4
100
AcDbEntity
  8
Layer 1
 62
     7
420
 16777215
370
    20
100
AcDbVertex
100
AcDb2dVertex
 10
582.1318085867362
 20
70.56183213466528
 30
0.0
  0
SEQEND
  5
3B7
330
3B4
100
AcDbEntity
  8
Layer 1
 62
     7
420
 16777215
370
    20
  0
POLYLINE
  5
3B8
330
1F
100
AcDbEntity
  8
Layer 1
 62
     7
420
 16777215
370
    20
100
AcDb2dPolyline
 66
     1
 10
0.0
 20
0.0
 30
0.0
  0
VERTEX
  5
3B9
330
3B8
100
AcDbEntity
  8
Layer 1
 62
     7
420
 16777215
370
    20
100
AcDbVertex
100
AcDb2dVertex
 10
232.9031291095086
 20
99.4833333084625
 30
0.0
  0
VERTEX
  5
3BA
330
3B8
100
AcDbEntity
  8
Layer 1
 62
     7
420
 16777215
370
    20
100
AcDbVertex
100
AcDb2dVertex
 10
232.9031291041614
 20
66.74672606141473
 30
0.0
  0
SEQEND
  5
3BB
330
3B8
100
AcDbEntity
  8
Layer 1
 62
     7
420
 16777215
370
    20
  0
INSERT
  5
3BD
330
1F
100
AcDbEntity
  8
Layer 1
100
AcDbBlockReference
  2
block 16
 10
0.0
 20
0.0
 30
0.0
  0
INSERT
  5
3D0
330
1F
100
AcDbEntity
  8
Layer 1
100
AcDbBlockReference
  2
block 18
 10
0.0
 20
0.0
 30
0.0
  0
INSERT
  5
3E3
330
1F
100
AcDbEntity
  8
Layer 1
100
AcDbBlockReference
  2
block 20
 10
0.0
 20
0.0
 30
0.0
  0
INSERT
  5
3F6
330
1F
100
AcDbEntity
  8
Layer 1
100
AcDbBlockReference
  2
block 22
 10
0.0
 20
0.0
 30
0.0
  0
INSERT
  5
409
330
1F
100
AcDbEntity
  8
Layer 1
100
AcDbBlockReference
  2
block 24
 10
0.0
 20
0.0
 30
0.0
  0
INSERT
  5
41C
330
1F
100
AcDbEntity
  8
Layer 1
100
AcDbBlockReference
  2
block 26
 10
0.0
 20
0.0
 30
0.0
  0
INSERT
  5
42F
330
1F
100
AcDbEntity
  8
Layer 1
100
AcDbBlockReference
  2
block 28
 10
0.0
 20
0.0
 30
0.0
  0
INSERT
  5
442
330
1F
100
AcDbEntity
  8
Layer 1
100
AcDbBlockReference
  2
block 30
 10
0.0
 20
0.0
 30
0.0
  0
MTEXT
  5
454
330
1F
100
AcDbEntity
  8
Layer 1
 62
     7
420
 16777215
100
AcDbMText
 10
-314.3457692721004
 20
-281.6411133671098
 30
0.0
 40
20.77763607929859
 41
0.0
 46
0.0
 71
     7
 72
     1
  1
\fMyriad Pro|b0|i0|c0|p34;\W1;200
 11
6.123233995736766E-17
 21
1.0
 31
0.0
 73
     1
 44
1.0
  0
POLYLINE
  5
455
330
1F
100
AcDbEntity
  8
Layer 1
 62
     7
420
 16777215
370
    20
100
AcDb2dPolyline
 66
     1
 10
0.0
 20
0.0
 30
0.0
  0
VERTEX
  5
456
330
455
100
AcDbEntity
  8
Layer 1
 62
     7
420
 16777215
370
    20
100
AcDbVertex
100
AcDb2dVertex
 10
-204.2583332822688
 20
-134.5110236871833
 30
0.0
  0
VERTEX
  5
457
330
455
100
AcDbEntity
  8
Layer 1
 62
     7
420
 16777215
370
    20
100
AcDbVertex
100
AcDb2dVertex
 10
-330.7155485715925
 20
-134.5110237066319
 30
0.0
  0
SEQEND
  5
458
330
455
100
AcDbEntity
  8
Layer 1
 62
     7
420
 16777215
370
    20
  0
POLYLINE
  5
459
330
1F
100
AcDbEntity
  8
Layer 1
 62
     7
420
 16777215
370
    20
100
AcDb2dPolyline
 66
     1
 10
0.0
 20
0.0
 30
0.0
  0
VERTEX
  5
45A
330
459
100
AcDbEntity
  8
Layer 1
 62
     7
420
 16777215
370
    20
100
AcDbVertex
100
AcDb2dVertex
 10
-204.2583332822688
 20
-384.5749345772871
 30
0.0
  0
VERTEX
  5
45B
330
459
100
AcDbEntity
  8
Layer 1
 62
     7
420
 16777215
370
    20
100
AcDbVertex
100
AcDb2dVertex
 10
-330.7155485423416
 20
-384.5749345943653
 30
0.0
  0
SEQEND
  5
45C
330
459
100
AcDbEntity
  8
Layer 1
 62
     7
420
 16777215
370
    20
  0
INSERT
  5
45E
330
1F
100
AcDbEntity
  8
Layer 1
100
AcDbBlockReference
  2
block 32
 10
0.0
 20
0.0
 30
0.0
  0
INSERT
  5
471
330
1F
100
AcDbEntity
  8
Layer 1
100
AcDbBlockReference
  2
block 34
 10
0.0
 20
0.0
 30
0.0
  0
INSERT
  5
484
330
1F
100
AcDbEntity
  8
Layer 1
100
AcDbBlockReference
  2
block 36
 10
0.0
 20
0.0
 30
0.0
  0
INSERT
  5
489
330
1F
100
AcDbEntity
  8
Layer 1
100
AcDbBlockReference
  2
block 37
 10
0.0
 20
0.0
 30
0.0
  0
INSERT
  5
48E
330
1F
100
AcDbEntity
  8
Layer 1
100
AcDbBlockReference
  2
block 38
 10
0.0
 20
0.0
 30
0.0
  0
INSERT
  5
494
330
1F
100
AcDbEntity
  8
Layer 1
100
AcDbBlockReference
  2
block 39
 10
0.0
 20
0.0
 30
0.0
  0
INSERT
  5
499
330
1F
100
AcDbEntity
  8
Layer 1
100
AcDbBlockReference
  2
block 40
 10
0.0
 20
0.0
 30
0.0
  0
INSERT
  5
49E
330
1F
100
AcDbEntity
  8
Layer 1
100
AcDbBlockReference
  2
block 41
 10
0.0
 20
0.0
 30
0.0
  0
INSERT
  5
4A3
330
1F
100
AcDbEntity
  8
Layer 1
100
AcDbBlockReference
  2
block 42
 10
0.0
 20
0.0
 30
0.0
  0
INSERT
  5
4A8
330
1F
100
AcDbEntity
  8
Layer 1
100
AcDbBlockReference
  2
block 43
 10
0.0
 20
0.0
 30
0.0
  0
INSERT
  5
4AD
330
1F
100
AcDbEntity
  8
Layer 1
100
AcDbBlockReference
  2
block 44
 10
0.0
 20
0.0
 30
0.0
  0
INSERT
  5
4B2
330
1F
100
AcDbEntity
  8
Layer 1
100
AcDbBlockReference
  2
block 45
 10
0.0
 20
0.0
 30
0.0
  0
INSERT
  5
4B7
330
1F
100
AcDbEntity
  8
Layer 1
100
AcDbBlockReference
  2
block 46
 10
0.0
 20
0.0
 30
0.0
  0
INSERT
  5
4C3
330
1F
100
AcDbEntity
  8
Layer 1
100
AcDbBlockReference
  2
block 47
 10
0.0
 20
0.0
 30
0.0
  0
INSERT
  5
4C8
330
1F
100
AcDbEntity
  8
Layer 1
100
AcDbBlockReference
  2
block 48
 10
0.0
 20
0.0
 30
0.0
  0
INSERT
  5
4CD
330
1F
100
AcDbEntity
  8
Layer 1
100
AcDbBlockReference
  2
block 49
 10
0.0
 20
0.0
 30
0.0
  0
INSERT
  5
4D2
330
1F
100
AcDbEntity
  8
Layer 1
100
AcDbBlockReference
  2
block 50
 10
0.0
 20
0.0
 30
0.0
  0
INSERT
  5
4D7
330
1F
100
AcDbEntity
  8
Layer 1
100
AcDbBlockReference
  2
block 51
 10
0.0
 20
0.0
 30
0.0
  0
ENDSEC
  0
SECTION
  2
OBJECTS
  0
DICTIONARY
  5
C
330
0
100
AcDbDictionary
281
     1
  3
ACAD_GROUP
350
D
  3
ACAD_LAYOUT
350
1A
  3
ACAD_MATERIAL
350
3B
  3
ACAD_MLEADERSTYLE
350
4E2
  3
ACAD_MLINESTYLE
350
17
  3
ACAD_PLOTSETTINGS
350
19
  3
ACAD_PLOTSTYLENAME
350
E
  3
ACAD_TABLESTYLE
350
4E1
  3
ACAD_VISUALSTYLE
350
2A
  0
SUN
  5
3F
330
29
100
AcDbSun
 90
        1
290
     0
 63
     7
421
 16777215
 40
1.0
291
     1
 91
  2455826
 92
 54000000
292
     0
 70
     2
 71
   256
280
     1
  0
DICTIONARY
  5
D
102
{ACAD_REACTORS
330
C
102
}
330
C
100
AcDbDictionary
281
     1
  0
DICTIONARY
  5
1A
102
{ACAD_REACTORS
330
C
102
}
330
C
100
AcDbDictionary
281
     1
  3
Layout1
350
1E
  3
Layout2
350
26
  3
Model
350
22
  0
DICTIONARY
  5
3B
102
{ACAD_REACTORS
330
C
102
}
330
C
100
AcDbDictionary
281
     1
  3
ByBlock
350
3D
  3
ByLayer
350
3C
  3
Global
350
3E
  0
DICTIONARY
  5
4E2
102
{ACAD_REACTORS
330
C
102
}
330
C
100
AcDbDictionary
281
     1
  0
DICTIONARY
  5
17
102
{ACAD_REACTORS
330
C
102
}
330
C
100
AcDbDictionary
281
     1
  3
Standard
350
18
  0
DICTIONARY
  5
19
102
{ACAD_REACTORS
330
C
102
}
330
C
100
AcDbDictionary
281
     1
  0
ACDBDICTIONARYWDFLT
  5
E
102
{ACAD_REACTORS
330
C
102
}
330
C
100
AcDbDictionary
281
     1
  3
Normal
350
F
100
AcDbDictionaryWithDefault
340
F
  0
DICTIONARY
  5
4E1
102
{ACAD_REACTORS
330
C
102
}
330
C
100
AcDbDictionary
281
     1
  0
DICTIONARY
  5
2A
102
{ACAD_REACTORS
330
C
102
}
330
C
100
AcDbDictionary
281
     1
  3
2dWireframe
350
2F
  3
3D Hidden
350
31
  3
3dWireframe
350
30
  3
Basic
350
32
  3
Brighten
350
36
  3
ColorChange
350
3A
  3
Conceptual
350
34
  3
Dim
350
35
  3
Facepattern
350
39
  3
Flat
350
2B
  3
FlatWithEdges
350
2C
  3
Gouraud
350
2D
  3
GouraudWithEdges
350
2E
  3
Linepattern
350
38
  3
Realistic
350
33
  3
Thicken
350
37
  0
LAYOUT
  5
1E
102
{ACAD_REACTORS
330
1A
102
}
330
1A
100
AcDbPlotSettings
  1

  2
none_device
  4

  6

 40
0.0
 41
0.0
 42
0.0
 43
0.0
 44
0.0
 45
0.0
 46
0.0
 47
0.0
 48
0.0
 49
0.0
140
0.0
141
0.0
142
1.0
143
1.0
 70
   688
 72
     0
 73
     0
 74
     5
  7

 75
    16
 76
     0
 77
     2
 78
   300
147
1.0
148
0.0
149
0.0
100
AcDbLayout
  1
Layout1
 70
     1
 71
     1
 10
0.0
 20
0.0
 11
12.0
 21
9.0
 12
0.0
 22
0.0
 32
0.0
 14
1.000000000000000E+20
 24
1.000000000000000E+20
 34
1.000000000000000E+20
 15
-1.000000000000000E+20
 25
-1.000000000000000E+20
 35
-1.000000000000000E+20
146
0.0
 13
0.0
 23
0.0
 33
0.0
 16
1.0
 26
0.0
 36
0.0
 17
0.0
 27
1.0
 37
0.0
 76
     0
330
1B
  0
LAYOUT
  5
26
102
{ACAD_REACTORS
330
1A
102
}
330
1A
100
AcDbPlotSettings
  1

  2
none_device
  4

  6

 40
0.0
 41
0.0
 42
0.0
 43
0.0
 44
0.0
 45
0.0
 46
0.0
 47
0.0
 48
0.0
 49
0.0
140
0.0
141
0.0
142
1.0
143
1.0
 70
   688
 72
     0
 73
     0
 74
     5
  7

 75
    16
 76
     0
 77
     2
 78
   300
147
1.0
148
0.0
149
0.0
100
AcDbLayout
  1
Layout2
 70
     1
 71
     2
 10
0.0
 20
0.0
 11
0.0
 21
0.0
 12
0.0
 22
0.0
 32
0.0
 14
0.0
 24
0.0
 34
0.0
 15
0.0
 25
0.0
 35
0.0
146
0.0
 13
0.0
 23
0.0
 33
0.0
 16
1.0
 26
0.0
 36
0.0
 17
0.0
 27
1.0
 37
0.0
 76
     0
330
23
  0
LAYOUT
  5
22
102
{ACAD_REACTORS
330
1A
102
}
330
1A
100
AcDbPlotSettings
  1

  2
none_device
  4

  6

 40
0.0
 41
0.0
 42
0.0
 43
0.0
 44
0.0
 45
0.0
 46
0.0
 47
0.0
 48
0.0
 49
0.0
140
0.0
141
0.0
142
1.0
143
1.0
 70
  1712
 72
     0
 73
     0
 74
     0
  7

 75
     0
 76
     0
 77
     2
 78
   300
147
1.0
148
0.0
149
0.0
100
AcDbLayout
  1
Model
 70
     1
 71
     0
 10
0.0
 20
0.0
 11
12.0
 21
9.0
 12
0.0
 22
0.0
 32
0.0
 14
1.000000000000000E+20
 24
1.000000000000000E+20
 34
1.000000000000000E+20
 15
-1.000000000000000E+20
 25
-1.000000000000000E+20
 35
-1.000000000000000E+20
146
0.0
 13
0.0
 23
0.0
 33
0.0
 16
1.0
 26
0.0
 36
0.0
 17
0.0
 27
1.0
 37
0.0
 76
     0
330
1F
331
29
  0
MATERIAL
  5
3D
102
{ACAD_REACTORS
330
3B
102
}
330
3B
100
AcDbMaterial
  1
ByBlock
 72
     1
 94
      127
  0
MATERIAL
  5
3C
102
{ACAD_REACTORS
330
3B
102
}
330
3B
100
AcDbMaterial
  1
ByLayer
 72
     1
 94
      127
  0
MATERIAL
  5
3E
102
{ACAD_REACTORS
330
3B
102
}
330
3B
100
AcDbMaterial
  1
Global
 72
     1
 94
      127
  0
MLINESTYLE
  5
18
102
{ACAD_REACTORS
330
17
102
}
330
17
100
AcDbMlineStyle
  2
Standard
 70
     0
  3

 62
   256
 51
90.0
 52
90.0
 71
     2
 49
0.5
 62
   256
  6
BYLAYER
 49
-0.5
 62
   256
  6
BYLAYER
  0
ACDBPLACEHOLDER
  5
F
102
{ACAD_REACTORS
330
E
102
}
330
E
  0
VISUALSTYLE
  5
2F
102
{ACAD_REACTORS
330
2A
102
}
330
2A
100
AcDbVisualStyle
  2
2dWireframe
 70
     4
177
     2
291
     0
 71
     0
176
     1
 72
     2
176
     1
 73
     0
176
     1
 90
        0
176
     1
 40
-0.6
176
     1
 41
-30.0
176
     1
 62
     5
 63
     7
421
 16777215
176
     1
 74
     1
176
     1
 91
        4
176
     1
 64
     7
176
     1
 65
   257
176
     1
 75
     1
176
     1
175
     1
176
     1
 42
1.0
176
     1
 92
        0
176
     1
 66
   257
176
     1
 43
1.0
176
     1
 76
     1
176
     1
 77
     6
176
     1
 78
     2
176
     1
 67
     7
176
     1
 79
     5
176
     1
170
     0
176
     1
171
     0
176
     1
290
     0
176
     1
 93
        1
176
     1
 44
0.0
176
     1
173
     0
176
     1
  0
VISUALSTYLE
  5
31
102
{ACAD_REACTORS
330
2A
102
}
330
2A
100
AcDbVisualStyle
  2
3D Hidden
 70
     6
177
     2
291
     0
 71
     1
176
     1
 72
     2
176
     1
 73
     2
176
     1
 90
        0
176
     1
 40
-0.6
176
     1
 41
-30.0
176
     1
 62
     5
 63
     7
421
 16777215
176
     1
 74
     2
176
     1
 91
        2
176
     1
 64
     7
176
     1
 65
   257
176
     1
 75
     2
176
     1
175
     1
176
     1
 42
40.0
176
     1
 92
        0
176
     1
 66
   257
176
     1
 43
1.0
176
     1
 76
     1
176
     1
 77
     6
176
     1
 78
     2
176
     1
 67
     7
176
     1
 79
     3
176
     1
170
     0
176
     1
171
     0
176
     1
290
     0
176
     1
 93
        1
176
     1
 44
0.0
176
     1
173
     0
176
     1
  0
VISUALSTYLE
  5
30
102
{ACAD_REACTORS
330
2A
102
}
330
2A
100
AcDbVisualStyle
  2
3dWireframe
 70
     5
177
     2
291
     0
 71
     0
176
     1
 72
     2
176
     1
 73
     0
176
     1
 90
        0
176
     1
 40
-0.6
176
     1
 41
-30.0
176
     1
 62
     5
 63
     7
421
 16777215
176
     1
 74
     1
176
     1
 91
        4
176
     1
 64
     7
176
     1
 65
   257
176
     1
 75
     1
176
     1
175
     1
176
     1
 42
1.0
176
     1
 92
        0
176
     1
 66
   257
176
     1
 43
1.0
176
     1
 76
     1
176
     1
 77
     6
176
     1
 78
     2
176
     1
 67
     7
176
     1
 79
     5
176
     1
170
     0
176
     1
171
     0
176
     1
290
     0
176
     1
 93
        1
176
     1
 44
0.0
176
     1
173
     0
176
     1
  0
VISUALSTYLE
  5
32
102
{ACAD_REACTORS
330
2A
102
}
330
2A
100
AcDbVisualStyle
  2
Basic
 70
     7
177
     2
291
     1
 71
     1
176
     1
 72
     0
176
     1
 73
     1
176
     1
 90
        0
176
     1
 40
-0.6
176
     1
 41
-30.0
176
     1
 62
     5
 63
     7
421
 16777215
176
     1
 74
     0
176
     1
 91
        4
176
     1
 64
     7
176
     1
 65
   257
176
     1
 75
     1
176
     1
175
     1
176
     1
 42
1.0
176
     1
 92
        8
176
     1
 66
     7
176
     1
 43
1.0
176
     1
 76
     1
176
     1
 77
     6
176
     1
 78
     2
176
     1
 67
     7
176
     1
 79
     5
176
     1
170
     0
176
     1
171
     0
176
     1
290
     0
176
     1
 93
        1
176
     1
 44
0.0
176
     1
173
     0
176
     1
  0
VISUALSTYLE
  5
36
102
{ACAD_REACTORS
330
2A
102
}
330
2A
100
AcDbVisualStyle
  2
Brighten
 70
    12
177
     2
291
     1
 71
     2
176
     1
 72
     2
176
     1
 73
     0
176
     1
 90
        0
176
     1
 40
-0.6
176
     1
 41
-30.0
176
     1
 62
     5
 63
     7
421
 16777215
176
     1
 74
     1
176
     1
 91
        4
176
     1
 64
     7
176
     1
 65
   257
176
     1
 75
     1
176
     1
175
     1
176
     1
 42
1.0
176
     1
 92
        8
176
     1
 66
     7
176
     1
 43
1.0
176
     1
 76
     1
176
     1
 77
     6
176
     1
 78
     2
176
     1
 67
     7
176
     1
 79
     5
176
     1
170
     0
176
     1
171
     0
176
     1
290
     0
176
     1
 93
        1
176
     1
 44
50.0
176
     1
173
     0
176
     1
  0
VISUALSTYLE
  5
3A
102
{ACAD_REACTORS
330
2A
102
}
330
2A
100
AcDbVisualStyle
  2
ColorChange
 70
    16
177
     2
291
     1
 71
     2
176
     1
 72
     2
176
     1
 73
     3
176
     1
 90
        0
176
     1
 40
-0.6
176
     1
 41
-30.0
176
     1
 62
     5
 63
     8
421
  8421504
176
     1
 74
     1
176
     1
 91
        4
176
     1
 64
     7
176
     1
 65
   257
176
     1
 75
     1
176
     1
175
     1
176
     1
 42
1.0
176
     1
 92
        8
176
     1
 66
     8
424
  8421504
176
     1
 43
1.0
176
     1
 76
     1
176
     1
 77
     6
176
     1
 78
     2
176
     1
 67
     7
176
     1
 79
     5
176
     1
170
     0
176
     1
171
     0
176
     1
290
     0
176
     1
 93
        1
176
     1
 44
0.0
176
     1
173
     0
176
     1
  0
VISUALSTYLE
  5
34
102
{ACAD_REACTORS
330
2A
102
}
330
2A
100
AcDbVisualStyle
  2
Conceptual
 70
     9
177
     2
291
     0
 71
     3
176
     1
 72
     2
176
     1
 73
     0
176
     1
 90
        0
176
     1
 40
-0.6
176
     1
 41
-30.0
176
     1
 62
     5
 63
     7
421
 16777215
176
     1
 74
     2
176
     1
 91
        2
176
     1
 64
     7
176
     1
 65
   257
176
     1
 75
     1
176
     1
175
     1
176
     1
 42
40.0
176
     1
 92
        8
176
     1
 66
     7
176
     1
 43
1.0
176
     1
 76
     1
176
     1
 77
     6
176
     1
 78
     2
176
     1
 67
     7
176
     1
 79
     3
176
     1
170
     0
176
     1
171
     0
176
     1
290
     0
176
     1
 93
        1
176
     1
 44
0.0
176
     1
173
     0
176
     1
  0
VISUALSTYLE
  5
35
102
{ACAD_REACTORS
330
2A
102
}
330
2A
100
AcDbVisualStyle
  2
Dim
 70
    11
177
     2
291
     1
 71
     2
176
     1
 72
     2
176
     1
 73
     0
176
     1
 90
        0
176
     1
 40
-0.6
176
     1
 41
-30.0
176
     1
 62
     5
 63
     7
421
 16777215
176
     1
 74
     1
176
     1
 91
        4
176
     1
 64
     7
176
     1
 65
   257
176
     1
 75
     1
176
     1
175
     1
176
     1
 42
1.0
176
     1
 92
        8
176
     1
 66
     7
176
     1
 43
1.0
176
     1
 76
     1
176
     1
 77
     6
176
     1
 78
     2
176
     1
 67
     7
176
     1
 79
     5
176
     1
170
     0
176
     1
171
     0
176
     1
290
     0
176
     1
 93
        1
176
     1
 44
-50.0
176
     1
173
     0
176
     1
  0
VISUALSTYLE
  5
39
102
{ACAD_REACTORS
330
2A
102
}
330
2A
100
AcDbVisualStyle
  2
Facepattern
 70
    15
177
     2
291
     1
 71
     2
176
     1
 72
     2
176
     1
 73
     0
176
     1
 90
        0
176
     1
 40
-0.6
176
     1
 41
-30.0
176
     1
 62
     5
 63
     7
421
 16777215
176
     1
 74
     1
176
     1
 91
        4
176
     1
 64
     7
176
     1
 65
   257
176
     1
 75
     1
176
     1
175
     1
176
     1
 42
1.0
176
     1
 92
        8
176
     1
 66
     7
176
     1
 43
1.0
176
     1
 76
     1
176
     1
 77
     6
176
     1
 78
     2
176
     1
 67
     7
176
     1
 79
     5
176
     1
170
     0
176
     1
171
     0
176
     1
290
     0
176
     1
 93
        1
176
     1
 44
0.0
176
     1
173
     0
176
     1
  0
VISUALSTYLE
  5
2B
102
{ACAD_REACTORS
330
2A
102
}
330
2A
100
AcDbVisualStyle
  2
Flat
 70
     0
177
     2
291
     1
 71
     2
176
     1
 72
     1
176
     1
 73
     1
176
     1
 90
        2
176
     1
 40
-0.6
176
     1
 41
30.0
176
     1
 62
     5
 63
     7
421
 16777215
176
     1
 74
     0
176
     1
 91
        4
176
     1
 64
     7
176
     1
 65
   257
176
     1
 75
     1
176
     1
175
     1
176
     1
 42
1.0
176
     1
 92
        8
176
     1
 66
     7
176
     1
 43
1.0
176
     1
 76
     1
176
     1
 77
     6
176
     1
 78
     2
176
     1
 67
     7
176
     1
 79
     5
176
     1
170
     0
176
     1
171
     0
176
     1
290
     0
176
     1
 93
       13
176
     1
 44
0.0
176
     1
173
     0
176
     1
  0
VISUALSTYLE
  5
2C
102
{ACAD_REACTORS
330
2A
102
}
330
2A
100
AcDbVisualStyle
  2
FlatWithEdges
 70
     1
177
     2
291
     1
 71
     2
176
     1
 72
     1
176
     1
 73
     1
176
     1
 90
        2
176
     1
 40
-0.6
176
     1
 41
30.0
176
     1
 62
     5
 63
     7
421
 16777215
176
     1
 74
     1
176
     1
 91
        4
176
     1
 64
     7
176
     1
 65
   257
176
     1
 75
     1
176
     1
175
     1
176
     1
 42
1.0
176
     1
 92
        0
176
     1
 66
   257
176
     1
 43
1.0
176
     1
 76
     1
176
     1
 77
     6
176
     1
 78
     2
176
     1
 67
     7
176
     1
 79
     5
176
     1
170
     0
176
     1
171
     0
176
     1
290
     0
176
     1
 93
       13
176
     1
 44
0.0
176
     1
173
     0
176
     1
  0
VISUALSTYLE
  5
2D
102
{ACAD_REACTORS
330
2A
102
}
330
2A
100
AcDbVisualStyle
  2
Gouraud
 70
     2
177
     2
291
     1
 71
     2
176
     1
 72
     2
176
     1
 73
     1
176
     1
 90
        2
176
     1
 40
-0.6
176
     1
 41
30.0
176
     1
 62
     5
 63
     7
421
 16777215
176
     1
 74
     0
176
     1
 91
        4
176
     1
 64
     7
176
     1
 65
   257
176
     1
 75
     1
176
     1
175
     1
176
     1
 42
1.0
176
     1
 92
        0
176
     1
 66
     7
176
     1
 43
1.0
176
     1
 76
     1
176
     1
 77
     6
176
     1
 78
     2
176
     1
 67
     7
176
     1
 79
     5
176
     1
170
     0
176
     1
171
     0
176
     1
290
     0
176
     1
 93
       13
176
     1
 44
0.0
176
     1
173
     0
176
     1
  0
VISUALSTYLE
  5
2E
102
{ACAD_REACTORS
330
2A
102
}
330
2A
100
AcDbVisualStyle
  2
GouraudWithEdges
 70
     3
177
     2
291
     1
 71
     2
176
     1
 72
     2
176
     1
 73
     1
176
     1
 90
        2
176
     1
 40
-0.6
176
     1
 41
30.0
176
     1
 62
     5
 63
     7
421
 16777215
176
     1
 74
     1
176
     1
 91
        4
176
     1
 64
     7
176
     1
 65
   257
176
     1
 75
     1
176
     1
175
     1
176
     1
 42
1.0
176
     1
 92
        0
176
     1
 66
   257
176
     1
 43
1.0
176
     1
 76
     1
176
     1
 77
     6
176
     1
 78
     2
176
     1
 67
     7
176
     1
 79
     5
176
     1
170
     0
176
     1
171
     0
176
     1
290
     0
176
     1
 93
       13
176
     1
 44
0.0
176
     1
173
     0
176
     1
  0
VISUALSTYLE
  5
38
102
{ACAD_REACTORS
330
2A
102
}
330
2A
100
AcDbVisualStyle
  2
Linepattern
 70
    14
177
     2
291
     1
 71
     2
176
     1
 72
     2
176
     1
 73
     0
176
     1
 90
        0
176
     1
 40
-0.6
176
     1
 41
-30.0
176
     1
 62
     5
 63
     7
421
 16777215
176
     1
 74
     1
176
     1
 91
        4
176
     1
 64
     7
176
     1
 65
   257
176
     1
 75
     7
176
     1
175
     7
176
     1
 42
1.0
176
     1
 92
        8
176
     1
 66
     7
176
     1
 43
1.0
176
     1
 76
     1
176
     1
 77
     6
176
     1
 78
     2
176
     1
 67
     7
176
     1
 79
     5
176
     1
170
     0
176
     1
171
     0
176
     1
290
     0
176
     1
 93
        1
176
     1
 44
0.0
176
     1
173
     0
176
     1
  0
VISUALSTYLE
  5
33
102
{ACAD_REACTORS
330
2A
102
}
330
2A
100
AcDbVisualStyle
  2
Realistic
 70
     8
177
     2
291
     0
 71
     2
176
     1
 72
     2
176
     1
 73
     0
176
     1
 90
        0
176
     1
 40
-0.6
176
     1
 41
-30.0
176
     1
 62
     5
 63
     7
421
 16777215
176
     1
 74
     1
176
     1
 91
        0
176
     1
 64
     7
176
     1
 65
   257
176
     1
 75
     1
176
     1
175
     1
176
     1
 42
1.0
176
     1
 92
        8
176
     1
 66
     8
424
  7895160
176
     1
 43
1.0
176
     1
 76
     1
176
     1
 77
     6
176
     1
 78
     2
176
     1
 67
     7
176
     1
 79
     5
176
     1
170
     0
176
     1
171
     0
176
     1
290
     0
176
     1
 93
       13
176
     1
 44
0.0
176
     1
173
     0
176
     1
  0
VISUALSTYLE
  5
37
102
{ACAD_REACTORS
330
2A
102
}
330
2A
100
AcDbVisualStyle
  2
Thicken
 70
    13
177
     2
291
     1
 71
     2
176
     1
 72
     2
176
     1
 73
     0
176
     1
 90
        0
176
     1
 40
-0.6
176
     1
 41
-30.0
176
     1
 62
     5
 63
     7
421
 16777215
176
     1
 74
     1
176
     1
 91
        4
176
     1
 64
     7
176
     1
 65
   257
176
     1
 75
     1
176
     1
175
     1
176
     1
 42
1.0
176
     1
 92
       12
176
     1
 66
     7
176
     1
 43
1.0
176
     1
 76
     1
176
     1
 77
     6
176
     1
 78
     2
176
     1
 67
     7
176
     1
 79
     5
176
     1
170
     0
176
     1
171
     0
176
     1
290
     0
176
     1
 93
        1
176
     1
 44
0.0
176
     1
173
     0
176
     1
  0
ENDSEC
  0
EOF
