  0
SECTION
  2
HEADER
  9
$ACADVER
  1
AC1024
  9
$ACADMAINTVER
 70
     6
  9
$DWGCODEPAGE
  3
ANSI_1252
  9
$INSBASE
 10
0.0
 20
0.0
 30
0.0
  9
$EXTMIN
 10
1.000000000000000E+20
 20
1.000000000000000E+20
 30
1.000000000000000E+20
  9
$EXTMAX
 10
-1.000000000000000E+20
 20
-1.000000000000000E+20
 30
-1.000000000000000E+20
  9
$LIMMIN
 10
0.0
 20
0.0
  9
$LIMMAX
 10
12.0
 20
9.0
  9
$ORTHOMODE
 70
     0
  9
$REGENMODE
 70
     1
  9
$FILLMODE
 70
     1
  9
$QTEXTMODE
 70
     0
  9
$MIRRTEXT
 70
     1
  9
$LTSCALE
 40
1.0
  9
$ATTMODE
 70
     1
  9
$TEXTSIZE
 40
0.2
  9
$TRACEWID
 40
0.05
  9
$TEXTSTYLE
  7
Standard
  9
$CLAYER
  8
0
  9
$CELTYPE
  6
ByLayer
  9
$CECOLOR
 62
   256
  9
$CELTSCALE
 40
1.0
  9
$DISPSILH
 70
     0
  9
$DIMSCALE
 40
1.0
  9
$DIMASZ
 40
0.18
  9
$DIMEXO
 40
0.0625
  9
$DIMDLI
 40
0.38
  9
$DIMRND
 40
0.0
  9
$DIMDLE
 40
0.0
  9
$DIMEXE
 40
0.18
  9
$DIMTP
 40
0.0
  9
$DIMTM
 40
0.0
  9
$DIMTXT
 40
0.18
  9
$DIMCEN
 40
0.09
  9
$DIMTSZ
 40
0.0
  9
$DIMTOL
 70
     0
  9
$DIMLIM
 70
     0
  9
$DIMTIH
 70
     1
  9
$DIMTOH
 70
     1
  9
$DIMSE1
 70
     0
  9
$DIMSE2
 70
     0
  9
$DIMTAD
 70
     0
  9
$DIMZIN
 70
     0
  9
$DIMBLK
  1

  9
$DIMASO
 70
     1
  9
$DIMSHO
 70
     1
  9
$DIMPOST
  1

  9
$DIMAPOST
  1

  9
$DIMALT
 70
     0
  9
$DIMALTD
 70
     2
  9
$DIMALTF
 40
25.4
  9
$DIMLFAC
 40
1.0
  9
$DIMTOFL
 70
     0
  9
$DIMTVP
 40
0.0
  9
$DIMTIX
 70
     0
  9
$DIMSOXD
 70
     0
  9
$DIMSAH
 70
     0
  9
$DIMBLK1
  1

  9
$DIMBLK2
  1

  9
$DIMSTYLE
  2
Standard
  9
$DIMCLRD
 70
     0
  9
$DIMCLRE
 70
     0
  9
$DIMCLRT
 70
     0
  9
$DIMTFAC
 40
1.0
  9
$DIMGAP
 40
0.09
  9
$DIMJUST
 70
     0
  9
$DIMSD1
 70
     0
  9
$DIMSD2
 70
     0
  9
$DIMTOLJ
 70
     1
  9
$DIMTZIN
 70
     0
  9
$DIMALTZ
 70
     0
  9
$DIMALTTZ
 70
     0
  9
$DIMUPT
 70
     0
  9
$DIMDEC
 70
     4
  9
$DIMTDEC
 70
     4
  9
$DIMALTU
 70
     2
  9
$DIMALTTD
 70
     2
  9
$DIMTXSTY
  7
Standard
  9
$DIMAUNIT
 70
     0
  9
$DIMADEC
 70
     0
  9
$DIMALTRND
 40
0.0
  9
$DIMAZIN
 70
     0
  9
$DIMDSEP
 70
    46
  9
$DIMATFIT
 70
     3
  9
$DIMFRAC
 70
     0
  9
$DIMLDRBLK
  1

  9
$DIMLUNIT
 70
     2
  9
$DIMLWD
 70
    -2
  9
$DIMLWE
 70
    -2
  9
$DIMTMOVE
 70
     0
  9
$DIMFXL
 40
1.0
  9
$DIMFXLON
 70
     0
  9
$DIMJOGANG
 40
0.7853981633974483
  9
$DIMTFILL
 70
     0
  9
$DIMTFILLCLR
 70
     0
  9
$DIMARCSYM
 70
     0
  9
$DIMLTYPE
  6

  9
$DIMLTEX1
  6

  9
$DIMLTEX2
  6

  9
$DIMTXTDIRECTION
 70
     0
  9
$LUNITS
 70
     2
  9
$LUPREC
 70
     4
  9
$SKETCHINC
 40
0.1
  9
$FILLETRAD
 40
0.5
  9
$AUNITS
 70
     0
  9
$AUPREC
 70
     0
  9
$MENU
  1
.
  9
$ELEVATION
 40
0.0
  9
$PELEVATION
 40
0.0
  9
$THICKNESS
 40
0.0
  9
$LIMCHECK
 70
     0
  9
$CHAMFERA
 40
0.5
  9
$CHAMFERB
 40
0.5
  9
$CHAMFERC
 40
1.0
  9
$CHAMFERD
 40
0.0
  9
$SKPOLY
 70
     0
  9
$TDCREATE
 40
2456993.579458206
  9
$TDUCREATE
 40
2456993.141958206
  9
$TDUPDATE
 40
2456993.579458565
  9
$TDUUPDATE
 40
2456993.141958565
  9
$TDINDWG
 40
0.0000000116
  9
$TDUSRTIMER
 40
0.0000000116
  9
$USRTIMER
 70
     1
  9
$ANGBASE
 50
0.0
  9
$ANGDIR
 70
     0
  9
$PDMODE
 70
     0
  9
$PDSIZE
 40
0.0
  9
$PLINEWID
 40
0.0
  9
$SPLFRAME
 70
     0
  9
$SPLINETYPE
 70
     6
  9
$SPLINESEGS
 70
     8
  9
$HANDSEED
  5
609
  9
$SURFTAB1
 70
     6
  9
$SURFTAB2
 70
     6
  9
$SURFTYPE
 70
     6
  9
$SURFU
 70
     6
  9
$SURFV
 70
     6
  9
$UCSBASE
  2

  9
$UCSNAME
  2

  9
$UCSORG
 10
0.0
 20
0.0
 30
0.0
  9
$UCSXDIR
 10
1.0
 20
0.0
 30
0.0
  9
$UCSYDIR
 10
0.0
 20
1.0
 30
0.0
  9
$UCSORTHOREF
  2

  9
$UCSORTHOVIEW
 70
     0
  9
$UCSORGTOP
 10
0.0
 20
0.0
 30
0.0
  9
$UCSORGBOTTOM
 10
0.0
 20
0.0
 30
0.0
  9
$UCSORGLEFT
 10
0.0
 20
0.0
 30
0.0
  9
$UCSORGRIGHT
 10
0.0
 20
0.0
 30
0.0
  9
$UCSORGFRONT
 10
0.0
 20
0.0
 30
0.0
  9
$UCSORGBACK
 10
0.0
 20
0.0
 30
0.0
  9
$PUCSBASE
  2

  9
$PUCSNAME
  2

  9
$PUCSORG
 10
0.0
 20
0.0
 30
0.0
  9
$PUCSXDIR
 10
1.0
 20
0.0
 30
0.0
  9
$PUCSYDIR
 10
0.0
 20
1.0
 30
0.0
  9
$PUCSORTHOREF
  2

  9
$PUCSORTHOVIEW
 70
     0
  9
$PUCSORGTOP
 10
0.0
 20
0.0
 30
0.0
  9
$PUCSORGBOTTOM
 10
0.0
 20
0.0
 30
0.0
  9
$PUCSORGLEFT
 10
0.0
 20
0.0
 30
0.0
  9
$PUCSORGRIGHT
 10
0.0
 20
0.0
 30
0.0
  9
$PUCSORGFRONT
 10
0.0
 20
0.0
 30
0.0
  9
$PUCSORGBACK
 10
0.0
 20
0.0
 30
0.0
  9
$USERI1
 70
     0
  9
$USERI2
 70
     0
  9
$USERI3
 70
     0
  9
$USERI4
 70
     0
  9
$USERI5
 70
     0
  9
$USERR1
 40
0.0
  9
$USERR2
 40
0.0
  9
$USERR3
 40
0.0
  9
$USERR4
 40
0.0
  9
$USERR5
 40
0.0
  9
$WORLDVIEW
 70
     1
  9
$SHADEDGE
 70
     3
  9
$SHADEDIF
 70
    70
  9
$TILEMODE
 70
     1
  9
$MAXACTVP
 70
    64
  9
$PINSBASE
 10
0.0
 20
0.0
 30
0.0
  9
$PLIMCHECK
 70
     0
  9
$PEXTMIN
 10
1.000000000000000E+20
 20
1.000000000000000E+20
 30
1.000000000000000E+20
  9
$PEXTMAX
 10
-1.000000000000000E+20
 20
-1.000000000000000E+20
 30
-1.000000000000000E+20
  9
$PLIMMIN
 10
0.0
 20
0.0
  9
$PLIMMAX
 10
12.0
 20
9.0
  9
$UNITMODE
 70
     0
  9
$VISRETAIN
 70
     1
  9
$PLINEGEN
 70
     0
  9
$PSLTSCALE
 70
     1
  9
$TREEDEPTH
 70
  3020
  9
$CMLSTYLE
  2
Standard
  9
$CMLJUST
 70
     0
  9
$CMLSCALE
 40
1.0
  9
$PROXYGRAPHICS
 70
     1
  9
$MEASUREMENT
 70
     0
  9
$CELWEIGHT
370
    -1
  9
$ENDCAPS
280
     0
  9
$JOINSTYLE
280
     0
  9
$LWDISPLAY
290
     1
  9
$INSUNITS
 70
     1
  9
$HYPERLINKBASE
  1

  9
$STYLESHEET
  1

  9
$XEDIT
290
     1
  9
$CEPSNTYPE
380
     0
  9
$PSTYLEMODE
290
     1
  9
$FINGERPRINTGUID
  2
{0BB689C4-77F3-4814-BEDE-59A442241781}
  9
$VERSIONGUID
  2
{FAEB1C32-E019-11D5-929B-00C0DF256EC4}
  9
$EXTNAMES
290
     1
  9
$PSVPSCALE
 40
0.0
  9
$OLESTARTUP
290
     0
  9
$SORTENTS
280
   127
  9
$INDEXCTL
280
     0
  9
$HIDETEXT
280
     1
  9
$XCLIPFRAME
280
     2
  9
$HALOGAP
280
     0
  9
$OBSCOLOR
 70
   257
  9
$OBSLTYPE
280
     0
  9
$INTERSECTIONDISPLAY
280
     0
  9
$INTERSECTIONCOLOR
 70
   257
  9
$DIMASSOC
280
     2
  9
$PROJECTNAME
  1

  9
$CAMERADISPLAY
290
     0
  9
$LENSLENGTH
 40
50.0
  9
$CAMERAHEIGHT
 40
0.0
  9
$STEPSPERSEC
 40
2.0
  9
$STEPSIZE
 40
6.0
  9
$3DDWFPREC
 40
2.0
  9
$PSOLWIDTH
 40
0.25
  9
$PSOLHEIGHT
 40
4.0
  9
$LOFTANG1
 40
1.570796326794897
  9
$LOFTANG2
 40
1.570796326794897
  9
$LOFTMAG1
 40
0.0
  9
$LOFTMAG2
 40
0.0
  9
$LOFTPARAM
 70
     7
  9
$LOFTNORMALS
280
     1
  9
$LATITUDE
 40
37.795
  9
$LONGITUDE
 40
-122.394
  9
$NORTHDIRECTION
 40
0.0
  9
$TIMEZONE
 70
 -8000
  9
$LIGHTGLYPHDISPLAY
280
     1
  9
$TILEMODELIGHTSYNCH
280
     1
  9
$CMATERIAL
347
3C
  9
$SOLIDHIST
280
     1
  9
$SHOWHIST
280
     1
  9
$DWFFRAME
280
     2
  9
$DGNFRAME
280
     2
  9
$REALWORLDSCALE
290
     1
  9
$INTERFERECOLOR
 62
   256
  9
$CSHADOW
280
     0
  9
$SHADOWPLANELOCATION
 40
0.0
  0
ENDSEC
  0
SECTION
  2
CLASSES
  0
CLASS
  1
ACDBDICTIONARYWDFLT
  2
AcDbDictionaryWithDefault
  3
ObjectDBX Classes
 90
        0
 91
        4
280
     0
281
     0
  0
CLASS
  1
VISUALSTYLE
  2
AcDbVisualStyle
  3
ObjectDBX Classes
 90
     4095
 91
        4
280
     0
281
     0
  0
CLASS
  1
MATERIAL
  2
AcDbMaterial
  3
ObjectDBX Classes
 90
     1153
 91
        4
280
     0
281
     0
  0
CLASS
  1
SUN
  2
AcDbSun
  3
SCENEOE
 90
     1024
 91
        4
280
     0
281
     0
  0
ENDSEC
  0
SECTION
  2
TABLES
  0
TABLE
  2
VPORT
  5
8
330
0
100
AcDbSymbolTable
 70
     1
  0
VPORT
  5
29
330
8
100
AcDbSymbolTableRecord
100
AcDbViewportTableRecord
  2
*Active
 70
     0
 10
0.0
 20
0.0
 11
1.0
 21
1.0
 12
0.0
 22
0.0
 13
0.0
 23
0.0
 14
0.5
 24
0.5
 15
0.5
 25
0.5
 16
0.0
 26
0.0
 36
1.0
 17
75.28387820553417
 27
152.2628673884504
 37
0.0
 40
1654.902352449035
 41
1.332480818414321
 42
50.0
 43
0.0
 44
0.0
 50
0.0
 51
0.0
 71
     0
 72
   100
 73
     1
 74
     3
 75
     0
 76
     0
 77
     0
 78
     0
281
     0
 65
     1
110
0.0
120
0.0
130
0.0
111
1.0
121
0.0
131
0.0
112
0.0
122
1.0
132
0.0
 79
     0
146
0.0
 60
     3
 61
     5
292
     1
282
     1
141
0.0
142
0.0
 63
   250
361
3F
  0
ENDTAB
  0
TABLE
  2
LTYPE
  5
5
330
0
100
AcDbSymbolTable
 70
     1
  0
LTYPE
  5
14
330
5
100
AcDbSymbolTableRecord
100
AcDbLinetypeTableRecord
  2
ByBlock
 70
     0
  3

 72
    65
 73
     0
 40
0.0
  0
LTYPE
  5
15
330
5
100
AcDbSymbolTableRecord
100
AcDbLinetypeTableRecord
  2
ByLayer
 70
     0
  3

 72
    65
 73
     0
 40
0.0
  0
LTYPE
  5
16
330
5
100
AcDbSymbolTableRecord
100
AcDbLinetypeTableRecord
  2
Continuous
 70
     0
  3
Solid line
 72
    65
 73
     0
 40
0.0
  0
ENDTAB
  0
TABLE
  2
LAYER
  5
2
330
0
100
AcDbSymbolTable
 70
     2
  0
LAYER
  5
10
330
2
100
AcDbSymbolTableRecord
100
AcDbLayerTableRecord
  2
0
 70
     0
 62
     7
  6
Continuous
370
    -3
390
F
347
3E
  0
LAYER
  5
40
330
2
100
AcDbSymbolTableRecord
100
AcDbLayerTableRecord
  2
Layer 1
 70
     0
 62
     7
  6
Continuous
370
    -3
390
F
347
3E
  0
ENDTAB
  0
TABLE
  2
STYLE
  5
3
330
0
100
AcDbSymbolTable
 70
     1
  0
STYLE
  5
11
330
3
100
AcDbSymbolTableRecord
100
AcDbTextStyleTableRecord
  2
Standard
 70
     0
 40
0.0
 41
1.0
 50
0.0
 71
     0
 42
0.2
  3
txt
  4

  0
ENDTAB
  0
TABLE
  2
VIEW
  5
6
330
0
100
AcDbSymbolTable
 70
     0
  0
ENDTAB
  0
TABLE
  2
UCS
  5
7
330
0
100
AcDbSymbolTable
 70
     0
  0
ENDTAB
  0
TABLE
  2
APPID
  5
9
330
0
100
AcDbSymbolTable
 70
     1
  0
APPID
  5
12
330
9
100
AcDbSymbolTableRecord
100
AcDbRegAppTableRecord
  2
ACAD
 70
     0
  0
ENDTAB
  0
TABLE
  2
DIMSTYLE
  5
A
330
0
100
AcDbSymbolTable
 70
     1
100
AcDbDimStyleTable
  0
DIMSTYLE
105
27
330
A
100
AcDbSymbolTableRecord
100
AcDbDimStyleTableRecord
  2
Standard
 70
     0
178
     0
340
11
  0
ENDTAB
  0
TABLE
  2
BLOCK_RECORD
  5
1
330
0
100
AcDbSymbolTable
 70
    61
  0
BLOCK_RECORD
  5
1F
330
1
100
AcDbSymbolTableRecord
100
AcDbBlockTableRecord
  2
*Model_Space
340
22
 70
     0
280
     1
281
     0
  0
BLOCK_RECORD
  5
1B
330
1
100
AcDbSymbolTableRecord
100
AcDbBlockTableRecord
  2
*Paper_Space
340
1E
 70
     0
280
     1
281
     0
  0
BLOCK_RECORD
  5
23
330
1
100
AcDbSymbolTableRecord
100
AcDbBlockTableRecord
  2
*Paper_Space0
340
26
 70
     0
280
     1
281
     0
  0
BLOCK_RECORD
  5
55
330
1
100
AcDbSymbolTableRecord
100
AcDbBlockTableRecord
  2
block 2
340
0
102
{BLKREFS
331
56
102
}
 70
     0
280
     1
281
     0
  0
BLOCK_RECORD
  5
23D
330
1
100
AcDbSymbolTableRecord
100
AcDbBlockTableRecord
  2
block 3
340
0
102
{BLKREFS
331
23E
102
}
 70
     0
280
     1
281
     0
  0
BLOCK_RECORD
  5
245
330
1
100
AcDbSymbolTableRecord
100
AcDbBlockTableRecord
  2
block 4
340
0
102
{BLKREFS
331
246
102
}
 70
     0
280
     1
281
     0
  0
BLOCK_RECORD
  5
250
330
1
100
AcDbSymbolTableRecord
100
AcDbBlockTableRecord
  2
block 5
340
0
102
{BLKREFS
331
251
102
}
 70
     0
280
     1
281
     0
  0
BLOCK_RECORD
  5
258
330
1
100
AcDbSymbolTableRecord
100
AcDbBlockTableRecord
  2
block 6
340
0
102
{BLKREFS
331
259
102
}
 70
     0
280
     1
281
     0
  0
BLOCK_RECORD
  5
263
330
1
100
AcDbSymbolTableRecord
100
AcDbBlockTableRecord
  2
block 7
340
0
102
{BLKREFS
331
264
102
}
 70
     0
280
     1
281
     0
  0
BLOCK_RECORD
  5
26B
330
1
100
AcDbSymbolTableRecord
100
AcDbBlockTableRecord
  2
block 8
340
0
102
{BLKREFS
331
26C
102
}
 70
     0
280
     1
281
     0
  0
BLOCK_RECORD
  5
276
330
1
100
AcDbSymbolTableRecord
100
AcDbBlockTableRecord
  2
block 9
340
0
102
{BLKREFS
331
277
102
}
 70
     0
280
     1
281
     0
  0
BLOCK_RECORD
  5
27E
330
1
100
AcDbSymbolTableRecord
100
AcDbBlockTableRecord
  2
block 10
340
0
102
{BLKREFS
331
27F
102
}
 70
     0
280
     1
281
     0
  0
BLOCK_RECORD
  5
289
330
1
100
AcDbSymbolTableRecord
100
AcDbBlockTableRecord
  2
block 11
340
0
102
{BLKREFS
331
28A
102
}
 70
     0
280
     1
281
     0
  0
BLOCK_RECORD
  5
291
330
1
100
AcDbSymbolTableRecord
100
AcDbBlockTableRecord
  2
block 12
340
0
102
{BLKREFS
331
292
102
}
 70
     0
280
     1
281
     0
  0
BLOCK_RECORD
  5
29C
330
1
100
AcDbSymbolTableRecord
100
AcDbBlockTableRecord
  2
block 13
340
0
102
{BLKREFS
331
29D
102
}
 70
     0
280
     1
281
     0
  0
BLOCK_RECORD
  5
2A4
330
1
100
AcDbSymbolTableRecord
100
AcDbBlockTableRecord
  2
block 14
340
0
102
{BLKREFS
331
2A5
102
}
 70
     0
280
     1
281
     0
  0
BLOCK_RECORD
  5
2B0
330
1
100
AcDbSymbolTableRecord
100
AcDbBlockTableRecord
  2
block 15
340
0
102
{BLKREFS
331
2B1
102
}
 70
     0
280
     1
281
     0
  0
BLOCK_RECORD
  5
2B9
330
1
100
AcDbSymbolTableRecord
100
AcDbBlockTableRecord
  2
block 16
340
0
102
{BLKREFS
331
2BA
102
}
 70
     0
280
     1
281
     0
  0
BLOCK_RECORD
  5
2D1
330
1
100
AcDbSymbolTableRecord
100
AcDbBlockTableRecord
  2
block 17
340
0
102
{BLKREFS
331
2D2
102
}
 70
     0
280
     1
281
     0
  0
BLOCK_RECORD
  5
2D9
330
1
100
AcDbSymbolTableRecord
100
AcDbBlockTableRecord
  2
block 18
340
0
102
{BLKREFS
331
2DA
102
}
 70
     0
280
     1
281
     0
  0
BLOCK_RECORD
  5
2E4
330
1
100
AcDbSymbolTableRecord
100
AcDbBlockTableRecord
  2
block 19
340
0
102
{BLKREFS
331
2E5
102
}
 70
     0
280
     1
281
     0
  0
BLOCK_RECORD
  5
2EC
330
1
100
AcDbSymbolTableRecord
100
AcDbBlockTableRecord
  2
block 20
340
0
102
{BLKREFS
331
2ED
102
}
 70
     0
280
     1
281
     0
  0
BLOCK_RECORD
  5
31D
330
1
100
AcDbSymbolTableRecord
100
AcDbBlockTableRecord
  2
block 21
340
0
102
{BLKREFS
331
31E
102
}
 70
     0
280
     1
281
     0
  0
BLOCK_RECORD
  5
325
330
1
100
AcDbSymbolTableRecord
100
AcDbBlockTableRecord
  2
block 22
340
0
102
{BLKREFS
331
326
102
}
 70
     0
280
     1
281
     0
  0
BLOCK_RECORD
  5
330
330
1
100
AcDbSymbolTableRecord
100
AcDbBlockTableRecord
  2
block 23
340
0
102
{BLKREFS
331
331
102
}
 70
     0
280
     1
281
     0
  0
BLOCK_RECORD
  5
338
330
1
100
AcDbSymbolTableRecord
100
AcDbBlockTableRecord
  2
block 24
340
0
102
{BLKREFS
331
339
102
}
 70
     0
280
     1
281
     0
  0
BLOCK_RECORD
  5
343
330
1
100
AcDbSymbolTableRecord
100
AcDbBlockTableRecord
  2
block 25
340
0
102
{BLKREFS
331
344
102
}
 70
     0
280
     1
281
     0
  0
BLOCK_RECORD
  5
34B
330
1
100
AcDbSymbolTableRecord
100
AcDbBlockTableRecord
  2
block 26
340
0
102
{BLKREFS
331
34C
102
}
 70
     0
280
     1
281
     0
  0
BLOCK_RECORD
  5
356
330
1
100
AcDbSymbolTableRecord
100
AcDbBlockTableRecord
  2
block 27
340
0
102
{BLKREFS
331
357
102
}
 70
     0
280
     1
281
     0
  0
BLOCK_RECORD
  5
35E
330
1
100
AcDbSymbolTableRecord
100
AcDbBlockTableRecord
  2
block 28
340
0
102
{BLKREFS
331
35F
102
}
 70
     0
280
     1
281
     0
  0
BLOCK_RECORD
  5
369
330
1
100
AcDbSymbolTableRecord
100
AcDbBlockTableRecord
  2
block 29
340
0
102
{BLKREFS
331
36A
102
}
 70
     0
280
     1
281
     0
  0
BLOCK_RECORD
  5
371
330
1
100
AcDbSymbolTableRecord
100
AcDbBlockTableRecord
  2
block 30
340
0
102
{BLKREFS
331
372
102
}
 70
     0
280
     1
281
     0
  0
BLOCK_RECORD
  5
37C
330
1
100
AcDbSymbolTableRecord
100
AcDbBlockTableRecord
  2
block 31
340
0
102
{BLKREFS
331
37D
102
}
 70
     0
280
     1
281
     0
  0
BLOCK_RECORD
  5
384
330
1
100
AcDbSymbolTableRecord
100
AcDbBlockTableRecord
  2
block 32
340
0
102
{BLKREFS
331
385
102
}
 70
     0
280
     1
281
     0
  0
BLOCK_RECORD
  5
38F
330
1
100
AcDbSymbolTableRecord
100
AcDbBlockTableRecord
  2
block 33
340
0
102
{BLKREFS
331
390
102
}
 70
     0
280
     1
281
     0
  0
BLOCK_RECORD
  5
397
330
1
100
AcDbSymbolTableRecord
100
AcDbBlockTableRecord
  2
block 34
340
0
102
{BLKREFS
331
398
102
}
 70
     0
280
     1
281
     0
  0
BLOCK_RECORD
  5
3A2
330
1
100
AcDbSymbolTableRecord
100
AcDbBlockTableRecord
  2
block 35
340
0
102
{BLKREFS
331
3A3
102
}
 70
     0
280
     1
281
     0
  0
BLOCK_RECORD
  5
3AA
330
1
100
AcDbSymbolTableRecord
100
AcDbBlockTableRecord
  2
block 36
340
0
102
{BLKREFS
331
3AB
102
}
 70
     0
280
     1
281
     0
  0
BLOCK_RECORD
  5
3B5
330
1
100
AcDbSymbolTableRecord
100
AcDbBlockTableRecord
  2
block 37
340
0
102
{BLKREFS
331
3B6
102
}
 70
     0
280
     1
281
     0
  0
BLOCK_RECORD
  5
3BA
330
1
100
AcDbSymbolTableRecord
100
AcDbBlockTableRecord
  2
block 38
340
0
102
{BLKREFS
331
3BB
102
}
 70
     0
280
     1
281
     0
  0
BLOCK_RECORD
  5
3BF
330
1
100
AcDbSymbolTableRecord
100
AcDbBlockTableRecord
  2
block 39
340
0
102
{BLKREFS
331
3C0
102
}
 70
     0
280
     1
281
     0
  0
BLOCK_RECORD
  5
3C5
330
1
100
AcDbSymbolTableRecord
100
AcDbBlockTableRecord
  2
block 40
340
0
102
{BLKREFS
331
3C6
102
}
 70
     0
280
     1
281
     0
  0
BLOCK_RECORD
  5
3CA
330
1
100
AcDbSymbolTableRecord
100
AcDbBlockTableRecord
  2
block 41
340
0
102
{BLKREFS
331
3CB
102
}
 70
     0
280
     1
281
     0
  0
BLOCK_RECORD
  5
3CF
330
1
100
AcDbSymbolTableRecord
100
AcDbBlockTableRecord
  2
block 42
340
0
102
{BLKREFS
331
3D0
102
}
 70
     0
280
     1
281
     0
  0
BLOCK_RECORD
  5
3D4
330
1
100
AcDbSymbolTableRecord
100
AcDbBlockTableRecord
  2
block 43
340
0
102
{BLKREFS
331
3D5
102
}
 70
     0
280
     1
281
     0
  0
BLOCK_RECORD
  5
3D9
330
1
100
AcDbSymbolTableRecord
100
AcDbBlockTableRecord
  2
block 44
340
0
102
{BLKREFS
331
3DA
102
}
 70
     0
280
     1
281
     0
  0
BLOCK_RECORD
  5
3DE
330
1
100
AcDbSymbolTableRecord
100
AcDbBlockTableRecord
  2
block 45
340
0
102
{BLKREFS
331
3DF
102
}
 70
     0
280
     1
281
     0
  0
BLOCK_RECORD
  5
3E3
330
1
100
AcDbSymbolTableRecord
100
AcDbBlockTableRecord
  2
block 46
340
0
102
{BLKREFS
331
3E4
102
}
 70
     0
280
     1
281
     0
  0
BLOCK_RECORD
  5
3E8
330
1
100
AcDbSymbolTableRecord
100
AcDbBlockTableRecord
  2
block 47
340
0
102
{BLKREFS
331
3E9
102
}
 70
     0
280
     1
281
     0
  0
BLOCK_RECORD
  5
3F4
330
1
100
AcDbSymbolTableRecord
100
AcDbBlockTableRecord
  2
block 48
340
0
102
{BLKREFS
331
3F5
102
}
 70
     0
280
     1
281
     0
  0
BLOCK_RECORD
  5
3F9
330
1
100
AcDbSymbolTableRecord
100
AcDbBlockTableRecord
  2
block 49
340
0
102
{BLKREFS
331
3FA
102
}
 70
     0
280
     1
281
     0
  0
BLOCK_RECORD
  5
3FE
330
1
100
AcDbSymbolTableRecord
100
AcDbBlockTableRecord
  2
block 50
340
0
102
{BLKREFS
331
3FF
102
}
 70
     0
280
     1
281
     0
  0
BLOCK_RECORD
  5
403
330
1
100
AcDbSymbolTableRecord
100
AcDbBlockTableRecord
  2
block 51
340
0
102
{BLKREFS
331
404
102
}
 70
     0
280
     1
281
     0
  0
BLOCK_RECORD
  5
408
330
1
100
AcDbSymbolTableRecord
100
AcDbBlockTableRecord
  2
block 52
340
0
102
{BLKREFS
331
409
102
}
 70
     0
280
     1
281
     0
  0
BLOCK_RECORD
  5
41D
330
1
100
AcDbSymbolTableRecord
100
AcDbBlockTableRecord
  2
block 53
340
0
102
{BLKREFS
331
41E
102
}
 70
     0
280
     1
281
     0
  0
BLOCK_RECORD
  5
5A8
330
1
100
AcDbSymbolTableRecord
100
AcDbBlockTableRecord
  2
block 54
340
0
102
{BLKREFS
331
5A9
102
}
 70
     0
280
     1
281
     0
  0
BLOCK_RECORD
  5
5B0
330
1
100
AcDbSymbolTableRecord
100
AcDbBlockTableRecord
  2
block 55
340
0
102
{BLKREFS
331
5B1
102
}
 70
     0
280
     1
281
     0
  0
BLOCK_RECORD
  5
5BB
330
1
100
AcDbSymbolTableRecord
100
AcDbBlockTableRecord
  2
block 56
340
0
102
{BLKREFS
331
5BC
102
}
 70
     0
280
     1
281
     0
  0
BLOCK_RECORD
  5
5C3
330
1
100
AcDbSymbolTableRecord
100
AcDbBlockTableRecord
  2
block 57
340
0
102
{BLKREFS
331
5C4
102
}
 70
     0
280
     1
281
     0
  0
BLOCK_RECORD
  5
5DB
330
1
100
AcDbSymbolTableRecord
100
AcDbBlockTableRecord
  2
block 58
340
0
102
{BLKREFS
331
5DC
102
}
 70
     0
280
     1
281
     0
  0
BLOCK_RECORD
  5
5E3
330
1
100
AcDbSymbolTableRecord
100
AcDbBlockTableRecord
  2
block 59
340
0
102
{BLKREFS
331
5E4
102
}
 70
     0
280
     1
281
     0
  0
BLOCK_RECORD
  5
5E9
330
1
100
AcDbSymbolTableRecord
100
AcDbBlockTableRecord
  2
block 60
340
0
102
{BLKREFS
331
5EA
102
}
 70
     0
280
     1
281
     0
  0
BLOCK_RECORD
  5
5F1
330
1
100
AcDbSymbolTableRecord
100
AcDbBlockTableRecord
  2
block 61
340
0
102
{BLKREFS
331
5F2
102
}
 70
     0
280
     1
281
     0
  0
ENDTAB
  0
ENDSEC
  0
SECTION
  2
BLOCKS
  0
BLOCK
  5
20
330
1F
100
AcDbEntity
  8
0
100
AcDbBlockBegin
  2
*Model_Space
 70
     0
 10
0.0
 20
0.0
 30
0.0
  3
*Model_Space
  1

  0
ENDBLK
  5
21
330
1F
100
AcDbEntity
  8
0
100
AcDbBlockEnd
  0
BLOCK
  5
1C
330
1B
100
AcDbEntity
 67
     1
  8
0
100
AcDbBlockBegin
  2
*Paper_Space
 70
     0
 10
0.0
 20
0.0
 30
0.0
  3
*Paper_Space
  1

  0
ENDBLK
  5
1D
330
1B
100
AcDbEntity
 67
     1
  8
0
100
AcDbBlockEnd
  0
BLOCK
  5
24
330
23
100
AcDbEntity
  8
0
100
AcDbBlockBegin
  2
*Paper_Space0
 70
     0
 10
0.0
 20
0.0
 30
0.0
  3
*Paper_Space0
  1

  0
ENDBLK
  5
25
330
23
100
AcDbEntity
  8
0
100
AcDbBlockEnd
  0
BLOCK
  5
57
330
55
100
AcDbEntity
  8
0
100
AcDbBlockBegin
  2
block 2
 70
     0
 10
0.0
 20
0.0
 30
0.0
  3
block 2
  1

  0
POLYLINE
  5
59
330
55
100
AcDbEntity
  8
Layer 1
 62
     7
420
 16777215
370
    35
100
AcDb2dPolyline
 66
     1
 10
0.0
 20
0.0
 30
0.0
  0
VERTEX
  5
5A
330
59
100
AcDbEntity
  8
Layer 1
 62
     7
420
 16777215
370
    35
100
AcDbVertex
100
AcDb2dVertex
 10
-412.8498356983785
 20
186.4213919933042
 30
0.0
  0
VERTEX
  5
5B
330
59
100
AcDbEntity
  8
Layer 1
 62
     7
420
 16777215
370
    35
100
AcDbVertex
100
AcDb2dVertex
 10
-412.8498356983785
 20
686.2011145042054
 30
0.0
  0
VERTEX
  5
5C
330
59
100
AcDbEntity
  8
Layer 1
 62
     7
420
 16777215
370
    35
100
AcDbVertex
100
AcDb2dVertex
 10
787.1525018292463
 20
686.2011145042054
 30
0.0
  0
VERTEX
  5
5D
330
59
100
AcDbEntity
  8
Layer 1
 62
     7
420
 16777215
370
    35
100
AcDbVertex
100
AcDb2dVertex
 10
787.1525018292463
 20
186.4213919933042
 30
0.0
  0
VERTEX
  5
5E
330
59
100
AcDbEntity
  8
Layer 1
 62
     7
420
 16777215
370
    35
100
AcDbVertex
100
AcDb2dVertex
 10
-412.8498356983785
 20
186.4213919933042
 30
0.0
  0
SEQEND
  5
5F
330
59
100
AcDbEntity
  8
Layer 1
 62
     7
420
 16777215
370
    35
  0
POLYLINE
  5
60
330
55
100
AcDbEntity
  8
Layer 1
 62
     7
420
 16777215
370
    35
100
AcDb2dPolyline
 66
     1
 10
0.0
 20
0.0
 30
0.0
  0
VERTEX
  5
61
330
60
100
AcDbEntity
  8
Layer 1
 62
     7
420
 16777215
370
    35
100
AcDbVertex
100
AcDb2dVertex
 10
-406.2126717125953
 20
193.058555979088
 30
0.0
  0
VERTEX
  5
62
330
60
100
AcDbEntity
  8
Layer 1
 62
     7
420
 16777215
370
    35
100
AcDbVertex
100
AcDb2dVertex
 10
-406.2126717125953
 20
678.9001750425583
 30
0.0
  0
VERTEX
  5
63
330
60
100
AcDbEntity
  8
Layer 1
 62
     7
420
 16777215
370
    35
100
AcDbVertex
100
AcDb2dVertex
 10
779.8515623676024
 20
678.9001750425583
 30
0.0
  0
VERTEX
  5
64
330
60
100
AcDbEntity
  8
Layer 1
 62
     7
420
 16777215
370
    35
100
AcDbVertex
100
AcDb2dVertex
 10
779.8515623676024
 20
193.058555979088
 30
0.0
  0
VERTEX
  5
65
330
60
100
AcDbEntity
  8
Layer 1
 62
     7
420
 16777215
370
    35
100
AcDbVertex
100
AcDb2dVertex
 10
-406.2126717125953
 20
193.058555979088
 30
0.0
  0
SEQEND
  5
66
330
60
100
AcDbEntity
  8
Layer 1
 62
     7
420
 16777215
370
    35
  0
POLYLINE
  5
67
330
55
100
AcDbEntity
  8
Layer 1
 62
     7
420
 16777215
370
    35
100
AcDb2dPolyline
 66
     1
 10
0.0
 20
0.0
 30
0.0
  0
VERTEX
  5
68
330
67
100
AcDbEntity
  8
Layer 1
 62
     7
420
 16777215
370
    35
100
AcDbVertex
100
AcDb2dVertex
 10
-390.2834528278768
 20
222.9258783112329
 30
0.0
  0
VERTEX
  5
69
330
67
100
AcDbEntity
  8
Layer 1
 62
     7
420
 16777215
370
    35
100
AcDbVertex
100
AcDb2dVertex
 10
-390.2834528278768
 20
649.0328949084738
 30
0.0
  0
SEQEND
  5
6A
330
67
100
AcDbEntity
  8
Layer 1
 62
     7
420
 16777215
370
    35
  0
POLYLINE
  5
6B
330
55
100
AcDbEntity
  8
Layer 1
 62
     7
420
 16777215
370
    35
100
AcDb2dPolyline
 66
     1
 10
0.0
 20
0.0
 30
0.0
  0
VERTEX
  5
6C
330
6B
100
AcDbEntity
  8
Layer 1
 62
     7
420
 16777215
370
    35
100
AcDbVertex
100
AcDb2dVertex
 10
-386.3011375571853
 20
222.9258783112329
 30
0.0
  0
VERTEX
  5
6D
330
6B
100
AcDbEntity
  8
Layer 1
 62
     7
420
 16777215
370
    35
100
AcDbVertex
100
AcDb2dVertex
 10
-386.3011375571853
 20
649.0328949084738
 30
0.0
  0
SEQEND
  5
6E
330
6B
100
AcDbEntity
  8
Layer 1
 62
     7
420
 16777215
370
    35
  0
POLYLINE
  5
6F
330
55
100
AcDbEntity
  8
Layer 1
 62
     7
420
 16777215
370
    35
100
AcDb2dPolyline
 66
     1
 10
0.0
 20
0.0
 30
0.0
  0
VERTEX
  5
70
330
6F
100
AcDbEntity
  8
Layer 1
 62
     7
420
 16777215
370
    35
100
AcDbVertex
100
AcDb2dVertex
 10
-386.3011375571853
 20
222.9258783112329
 30
0.0
  0
VERTEX
  5
71
330
6F
100
AcDbEntity
  8
Layer 1
 62
     7
420
 16777215
370
    35
100
AcDbVertex
100
AcDb2dVertex
 10
-384.9737131996396
 20
218.2798719607963
 30
0.0
  0
VERTEX
  5
72
330
6F
100
AcDbEntity
  8
Layer 1
 62
     7
420
 16777215
370
    35
100
AcDbVertex
100
AcDb2dVertex
 10
-380.9913979289446
 20
214.2975566901026
 30
0.0
  0
VERTEX
  5
73
330
6F
100
AcDbEntity
  8
Layer 1
 62
     7
420
 16777215
370
    35
100
AcDbVertex
100
AcDb2dVertex
 10
-375.6816583007075
 20
212.9701323325572
 30
0.0
  0
SEQEND
  5
74
330
6F
100
AcDbEntity
  8
Layer 1
 62
     7
420
 16777215
370
    35
  0
POLYLINE
  5
75
330
55
100
AcDbEntity
  8
Layer 1
 62
     7
420
 16777215
370
    35
100
AcDb2dPolyline
 66
     1
 10
0.0
 20
0.0
 30
0.0
  0
VERTEX
  5
76
330
75
100
AcDbEntity
  8
Layer 1
 62
     7
420
 16777215
370
    35
100
AcDbVertex
100
AcDb2dVertex
 10
-390.2834528278768
 20
222.9258783112329
 30
0.0
  0
VERTEX
  5
77
330
75
100
AcDbEntity
  8
Layer 1
 62
     7
420
 16777215
370
    35
100
AcDbVertex
100
AcDb2dVertex
 10
-388.9559862722738
 20
217.6161386829938
 30
0.0
  0
VERTEX
  5
78
330
75
100
AcDbEntity
  8
Layer 1
 62
     7
420
 16777215
370
    35
100
AcDbVertex
100
AcDb2dVertex
 10
-385.6374042793822
 20
212.9701323325572
 30
0.0
  0
VERTEX
  5
79
330
75
100
AcDbEntity
  8
Layer 1
 62
     7
420
 16777215
370
    35
100
AcDbVertex
100
AcDb2dVertex
 10
-381.6550890086872
 20
210.3152414194082
 30
0.0
  0
VERTEX
  5
7A
330
75
100
AcDbEntity
  8
Layer 1
 62
     7
420
 16777215
370
    35
100
AcDbVertex
100
AcDb2dVertex
 10
-375.6816583007075
 20
208.9878170618638
 30
0.0
  0
SEQEND
  5
7B
330
75
100
AcDbEntity
  8
Layer 1
 62
     7
420
 16777215
370
    35
  0
POLYLINE
  5
7C
330
55
100
AcDbEntity
  8
Layer 1
 62
     7
420
 16777215
370
    35
100
AcDb2dPolyline
 66
     1
 10
0.0
 20
0.0
 30
0.0
  0
VERTEX
  5
7D
330
7C
100
AcDbEntity
  8
Layer 1
 62
     7
420
 16777215
370
    35
100
AcDbVertex
100
AcDb2dVertex
 10
-365.7258701239722
 20
248.8108853726841
 30
0.0
  0
VERTEX
  5
7E
330
7C
100
AcDbEntity
  8
Layer 1
 62
     7
420
 16777215
370
    35
100
AcDbVertex
100
AcDb2dVertex
 10
-365.7258701239722
 20
623.8116211248232
 30
0.0
  0
SEQEND
  5
7F
330
7C
100
AcDbEntity
  8
Layer 1
 62
     7
420
 16777215
370
    35
  0
POLYLINE
  5
80
330
55
100
AcDbEntity
  8
Layer 1
 62
     7
420
 16777215
370
    35
100
AcDb2dPolyline
 66
     1
 10
0.0
 20
0.0
 30
0.0
  0
VERTEX
  5
81
330
80
100
AcDbEntity
  8
Layer 1
 62
     7
420
 16777215
370
    35
100
AcDbVertex
100
AcDb2dVertex
 10
-350.4603423189985
 20
638.4134156519957
 30
0.0
  0
VERTEX
  5
82
330
80
100
AcDbEntity
  8
Layer 1
 62
     7
420
 16777215
370
    35
100
AcDbVertex
100
AcDb2dVertex
 10
-356.4338152250401
 20
637.0859490963927
 30
0.0
  0
VERTEX
  5
83
330
80
100
AcDbEntity
  8
Layer 1
 62
     7
420
 16777215
370
    35
100
AcDbVertex
100
AcDb2dVertex
 10
-361.0798215754776
 20
634.431100381301
 30
0.0
  0
VERTEX
  5
84
330
80
100
AcDbEntity
  8
Layer 1
 62
     7
420
 16777215
370
    35
100
AcDbVertex
100
AcDb2dVertex
 10
-364.3984457664262
 20
629.1213185550031
 30
0.0
  0
VERTEX
  5
85
330
80
100
AcDbEntity
  8
Layer 1
 62
     7
420
 16777215
370
    35
100
AcDbVertex
100
AcDb2dVertex
 10
-365.7258701239722
 20
623.8116211248232
 30
0.0
  0
SEQEND
  5
86
330
80
100
AcDbEntity
  8
Layer 1
 62
     7
420
 16777215
370
    35
  0
POLYLINE
  5
87
330
55
100
AcDbEntity
  8
Layer 1
 62
     7
420
 16777215
370
    35
100
AcDb2dPolyline
 66
     1
 10
0.0
 20
0.0
 30
0.0
  0
VERTEX
  5
88
330
87
100
AcDbEntity
  8
Layer 1
 62
     7
420
 16777215
370
    35
100
AcDbVertex
100
AcDb2dVertex
 10
-10.63666852724187
 20
248.8108853726841
 30
0.0
  0
VERTEX
  5
89
330
87
100
AcDbEntity
  8
Layer 1
 62
     7
420
 16777215
370
    35
100
AcDbVertex
100
AcDb2dVertex
 10
-10.63666852724187
 20
623.8116211248232
 30
0.0
  0
SEQEND
  5
8A
330
87
100
AcDbEntity
  8
Layer 1
 62
     7
420
 16777215
370
    35
  0
POLYLINE
  5
8B
330
55
100
AcDbEntity
  8
Layer 1
 62
     7
420
 16777215
370
    35
100
AcDb2dPolyline
 66
     1
 10
0.0
 20
0.0
 30
0.0
  0
VERTEX
  5
8C
330
8B
100
AcDbEntity
  8
Layer 1
 62
     7
420
 16777215
370
    35
100
AcDbVertex
100
AcDb2dVertex
 10
-25.23846305441375
 20
233.5453575677105
 30
0.0
  0
VERTEX
  5
8D
330
8B
100
AcDbEntity
  8
Layer 1
 62
     7
420
 16777215
370
    35
100
AcDbVertex
100
AcDb2dVertex
 10
-19.92876562423419
 20
234.8728241233147
 30
0.0
  0
VERTEX
  5
8E
330
8B
100
AcDbEntity
  8
Layer 1
 62
     7
420
 16777215
370
    35
100
AcDbVertex
100
AcDb2dVertex
 10
-14.61898379793622
 20
238.1914061162066
 30
0.0
  0
VERTEX
  5
8F
330
8B
100
AcDbEntity
  8
Layer 1
 62
     7
420
 16777215
370
    35
100
AcDbVertex
100
AcDb2dVertex
 10
-11.96413508284645
 20
242.8374124666432
 30
0.0
  0
VERTEX
  5
90
330
8B
100
AcDbEntity
  8
Layer 1
 62
     7
420
 16777215
370
    35
100
AcDbVertex
100
AcDb2dVertex
 10
-10.63666852724187
 20
248.8108853726841
 30
0.0
  0
SEQEND
  5
91
330
8B
100
AcDbEntity
  8
Layer 1
 62
     7
420
 16777215
370
    35
  0
POLYLINE
  5
92
330
55
100
AcDbEntity
  8
Layer 1
 62
     7
420
 16777215
370
    35
100
AcDb2dPolyline
 66
     1
 10
0.0
 20
0.0
 30
0.0
  0
VERTEX
  5
93
330
92
100
AcDbEntity
  8
Layer 1
 62
     7
420
 16777215
370
    35
100
AcDbVertex
100
AcDb2dVertex
 10
345.1161819511709
 20
218.2798719607963
 30
0.0
  0
VERTEX
  5
94
330
92
100
AcDbEntity
  8
Layer 1
 62
     7
420
 16777215
370
    35
100
AcDbVertex
100
AcDb2dVertex
 10
345.1161819511709
 20
277.3507833472843
 30
0.0
  0
SEQEND
  5
95
330
92
100
AcDbEntity
  8
Layer 1
 62
     7
420
 16777215
370
    35
  0
POLYLINE
  5
96
330
55
100
AcDbEntity
  8
Layer 1
 62
     7
420
 16777215
370
    35
100
AcDb2dPolyline
 66
     1
 10
0.0
 20
0.0
 30
0.0
  0
VERTEX
  5
97
330
96
100
AcDbEntity
  8
Layer 1
 62
     7
420
 16777215
370
    35
100
AcDbVertex
100
AcDb2dVertex
 10
339.806484520992
 20
212.9701323325572
 30
0.0
  0
VERTEX
  5
98
330
96
100
AcDbEntity
  8
Layer 1
 62
     7
420
 16777215
370
    35
100
AcDbVertex
100
AcDb2dVertex
 10
343.7887997916857
 20
214.2975566901026
 30
0.0
  0
VERTEX
  5
99
330
96
100
AcDbEntity
  8
Layer 1
 62
     7
420
 16777215
370
    35
100
AcDbVertex
100
AcDb2dVertex
 10
345.1161819511709
 20
218.2798719607963
 30
0.0
  0
SEQEND
  5
9A
330
96
100
AcDbEntity
  8
Layer 1
 62
     7
420
 16777215
370
    35
  0
POLYLINE
  5
9B
330
55
100
AcDbEntity
  8
Layer 1
 62
     7
420
 16777215
370
    35
100
AcDb2dPolyline
 66
     1
 10
0.0
 20
0.0
 30
0.0
  0
VERTEX
  5
9C
330
9B
100
AcDbEntity
  8
Layer 1
 62
     7
420
 16777215
370
    35
100
AcDbVertex
100
AcDb2dVertex
 10
-375.6816583007075
 20
662.9709983559003
 30
0.0
  0
VERTEX
  5
9D
330
9B
100
AcDbEntity
  8
Layer 1
 62
     7
420
 16777215
370
    35
100
AcDbVertex
100
AcDb2dVertex
 10
19.23061160684352
 20
662.9709983559003
 30
0.0
  0
SEQEND
  5
9E
330
9B
100
AcDbEntity
  8
Layer 1
 62
     7
420
 16777215
370
    35
  0
POLYLINE
  5
9F
330
55
100
AcDbEntity
  8
Layer 1
 62
     7
420
 16777215
370
    35
100
AcDb2dPolyline
 66
     1
 10
0.0
 20
0.0
 30
0.0
  0
VERTEX
  5
A0
330
9F
100
AcDbEntity
  8
Layer 1
 62
     7
420
 16777215
370
    35
100
AcDbVertex
100
AcDb2dVertex
 10
-375.6816583007075
 20
658.9886830852091
 30
0.0
  0
VERTEX
  5
A1
330
9F
100
AcDbEntity
  8
Layer 1
 62
     7
420
 16777215
370
    35
100
AcDbVertex
100
AcDb2dVertex
 10
19.23061160684352
 20
658.9886830852091
 30
0.0
  0
SEQEND
  5
A2
330
9F
100
AcDbEntity
  8
Layer 1
 62
     7
420
 16777215
370
    35
  0
POLYLINE
  5
A3
330
55
100
AcDbEntity
  8
Layer 1
 62
     7
420
 16777215
370
    35
100
AcDb2dPolyline
 66
     1
 10
0.0
 20
0.0
 30
0.0
  0
VERTEX
  5
A4
330
A3
100
AcDbEntity
  8
Layer 1
 62
     7
420
 16777215
370
    35
100
AcDbVertex
100
AcDb2dVertex
 10
345.1161819511709
 20
527.572447944547
 30
0.0
  0
VERTEX
  5
A5
330
A3
100
AcDbEntity
  8
Layer 1
 62
     7
420
 16777215
370
    35
100
AcDbVertex
100
AcDb2dVertex
 10
345.1161819511709
 20
581.9973951786573
 30
0.0
  0
SEQEND
  5
A6
330
A3
100
AcDbEntity
  8
Layer 1
 62
     7
420
 16777215
370
    35
  0
POLYLINE
  5
A7
330
55
100
AcDbEntity
  8
Layer 1
 62
     7
420
 16777215
370
    35
100
AcDb2dPolyline
 66
     1
 10
0.0
 20
0.0
 30
0.0
  0
VERTEX
  5
A8
330
A7
100
AcDbEntity
  8
Layer 1
 62
     7
420
 16777215
370
    35
100
AcDbVertex
100
AcDb2dVertex
 10
345.1161819511709
 20
451.9086265935982
 30
0.0
  0
VERTEX
  5
A9
330
A7
100
AcDbEntity
  8
Layer 1
 62
     7
420
 16777215
370
    35
100
AcDbVertex
100
AcDb2dVertex
 10
345.1161819511709
 20
506.333489431591
 30
0.0
  0
SEQEND
  5
AA
330
A7
100
AcDbEntity
  8
Layer 1
 62
     7
420
 16777215
370
    35
  0
POLYLINE
  5
AB
330
55
100
AcDbEntity
  8
Layer 1
 62
     7
420
 16777215
370
    35
100
AcDb2dPolyline
 66
     1
 10
0.0
 20
0.0
 30
0.0
  0
VERTEX
  5
AC
330
AB
100
AcDbEntity
  8
Layer 1
 62
     7
420
 16777215
370
    35
100
AcDbVertex
100
AcDb2dVertex
 10
345.1161819511709
 20
375.5810297667892
 30
0.0
  0
VERTEX
  5
AD
330
AB
100
AcDbEntity
  8
Layer 1
 62
     7
420
 16777215
370
    35
100
AcDbVertex
100
AcDb2dVertex
 10
345.1161819511709
 20
430.0058926047818
 30
0.0
  0
SEQEND
  5
AE
330
AB
100
AcDbEntity
  8
Layer 1
 62
     7
420
 16777215
370
    35
  0
POLYLINE
  5
AF
330
55
100
AcDbEntity
  8
Layer 1
 62
     7
420
 16777215
370
    35
100
AcDb2dPolyline
 66
     1
 10
0.0
 20
0.0
 30
0.0
  0
VERTEX
  5
B0
330
AF
100
AcDbEntity
  8
Layer 1
 62
     7
420
 16777215
370
    35
100
AcDbVertex
100
AcDb2dVertex
 10
345.1161819511709
 20
299.2534751380412
 30
0.0
  0
VERTEX
  5
B1
330
AF
100
AcDbEntity
  8
Layer 1
 62
     7
420
 16777215
370
    35
100
AcDbVertex
100
AcDb2dVertex
 10
345.1161819511709
 20
353.6783379760337
 30
0.0
  0
SEQEND
  5
B2
330
AF
100
AcDbEntity
  8
Layer 1
 62
     7
420
 16777215
370
    35
  0
POLYLINE
  5
B3
330
55
100
AcDbEntity
  8
Layer 1
 62
     7
420
 16777215
370
    35
100
AcDb2dPolyline
 66
     1
 10
0.0
 20
0.0
 30
0.0
  0
VERTEX
  5
B4
330
B3
100
AcDbEntity
  8
Layer 1
 62
     7
420
 16777215
370
    35
100
AcDbVertex
100
AcDb2dVertex
 10
-375.6816583007075
 20
658.9886830852091
 30
0.0
  0
VERTEX
  5
B5
330
B3
100
AcDbEntity
  8
Layer 1
 62
     7
420
 16777215
370
    35
100
AcDbVertex
100
AcDb2dVertex
 10
-380.9913979289446
 20
657.6612165296023
 30
0.0
  0
VERTEX
  5
B6
330
B3
100
AcDbEntity
  8
Layer 1
 62
     7
420
 16777215
370
    35
100
AcDbVertex
100
AcDb2dVertex
 10
-384.9737131996396
 20
653.6789012589112
 30
0.0
  0
VERTEX
  5
B7
330
B3
100
AcDbEntity
  8
Layer 1
 62
     7
420
 16777215
370
    35
100
AcDbVertex
100
AcDb2dVertex
 10
-386.3011375571853
 20
649.0328949084738
 30
0.0
  0
SEQEND
  5
B8
330
B3
100
AcDbEntity
  8
Layer 1
 62
     7
420
 16777215
370
    35
  0
POLYLINE
  5
B9
330
55
100
AcDbEntity
  8
Layer 1
 62
     7
420
 16777215
370
    35
100
AcDb2dPolyline
 66
     1
 10
0.0
 20
0.0
 30
0.0
  0
VERTEX
  5
BA
330
B9
100
AcDbEntity
  8
Layer 1
 62
     7
420
 16777215
370
    35
100
AcDbVertex
100
AcDb2dVertex
 10
-375.6816583007075
 20
662.9709983559003
 30
0.0
  0
VERTEX
  5
BB
330
B9
100
AcDbEntity
  8
Layer 1
 62
     7
420
 16777215
370
    35
100
AcDbVertex
100
AcDb2dVertex
 10
-381.6550890086872
 20
661.6435318002973
 30
0.0
  0
VERTEX
  5
BC
330
B9
100
AcDbEntity
  8
Layer 1
 62
     7
420
 16777215
370
    35
100
AcDbVertex
100
AcDb2dVertex
 10
-385.6374042793822
 20
658.9886830852091
 30
0.0
  0
VERTEX
  5
BD
330
B9
100
AcDbEntity
  8
Layer 1
 62
     7
420
 16777215
370
    35
100
AcDbVertex
100
AcDb2dVertex
 10
-388.9559862722738
 20
654.3426767347715
 30
0.0
  0
VERTEX
  5
BE
330
B9
100
AcDbEntity
  8
Layer 1
 62
     7
420
 16777215
370
    35
100
AcDbVertex
100
AcDb2dVertex
 10
-390.2834528278768
 20
649.0328949084738
 30
0.0
  0
SEQEND
  5
BF
330
B9
100
AcDbEntity
  8
Layer 1
 62
     7
420
 16777215
370
    35
  0
POLYLINE
  5
C0
330
55
100
AcDbEntity
  8
Layer 1
 62
     7
420
 16777215
370
    35
100
AcDb2dPolyline
 66
     1
 10
0.0
 20
0.0
 30
0.0
  0
VERTEX
  5
C1
330
C0
100
AcDbEntity
  8
Layer 1
 62
     7
420
 16777215
370
    35
100
AcDbVertex
100
AcDb2dVertex
 10
24.5403934331415
 20
601.9088871360068
 30
0.0
  0
VERTEX
  5
C2
330
C0
100
AcDbEntity
  8
Layer 1
 62
     7
420
 16777215
370
    35
100
AcDbVertex
100
AcDb2dVertex
 10
24.5403934331415
 20
653.6789012589112
 30
0.0
  0
VERTEX
  5
C3
330
C0
100
AcDbEntity
  8
Layer 1
 62
     7
420
 16777215
370
    35
100
AcDbVertex
100
AcDb2dVertex
 10
23.21292687753724
 20
657.6612165296023
 30
0.0
  0
VERTEX
  5
C4
330
C0
100
AcDbEntity
  8
Layer 1
 62
     7
420
 16777215
370
    35
100
AcDbVertex
100
AcDb2dVertex
 10
19.23061160684352
 20
658.9886830852091
 30
0.0
  0
SEQEND
  5
C5
330
C0
100
AcDbEntity
  8
Layer 1
 62
     7
420
 16777215
370
    35
  0
POLYLINE
  5
C6
330
55
100
AcDbEntity
  8
Layer 1
 62
     7
420
 16777215
370
    35
100
AcDb2dPolyline
 66
     1
 10
0.0
 20
0.0
 30
0.0
  0
VERTEX
  5
C7
330
C6
100
AcDbEntity
  8
Layer 1
 62
     7
420
 16777215
370
    35
100
AcDbVertex
100
AcDb2dVertex
 10
759.9399860141319
 20
587.3070926088375
 30
0.0
  0
VERTEX
  5
C8
330
C6
100
AcDbEntity
  8
Layer 1
 62
     7
420
 16777215
370
    35
100
AcDbVertex
100
AcDb2dVertex
 10
349.7621883016075
 20
587.3070926088375
 30
0.0
  0
VERTEX
  5
C9
330
C6
100
AcDbEntity
  8
Layer 1
 62
     7
420
 16777215
370
    35
100
AcDbVertex
100
AcDb2dVertex
 10
346.4436485067752
 20
585.9797104493523
 30
0.0
  0
VERTEX
  5
CA
330
C6
100
AcDbEntity
  8
Layer 1
 62
     7
420
 16777215
370
    35
100
AcDbVertex
100
AcDb2dVertex
 10
345.1161819511709
 20
581.9973951786573
 30
0.0
  0
SEQEND
  5
CB
330
C6
100
AcDbEntity
  8
Layer 1
 62
     7
420
 16777215
370
    35
  0
POLYLINE
  5
CC
330
55
100
AcDbEntity
  8
Layer 1
 62
     7
420
 16777215
370
    35
100
AcDb2dPolyline
 66
     1
 10
0.0
 20
0.0
 30
0.0
  0
VERTEX
  5
CD
330
CC
100
AcDbEntity
  8
Layer 1
 62
     7
420
 16777215
370
    35
100
AcDbVertex
100
AcDb2dVertex
 10
27.19524214823159
 20
599.2540384209183
 30
0.0
  0
VERTEX
  5
CE
330
CC
100
AcDbEntity
  8
Layer 1
 62
     7
420
 16777215
370
    35
100
AcDbVertex
100
AcDb2dVertex
 10
759.9399860141319
 20
599.2540384209183
 30
0.0
  0
SEQEND
  5
CF
330
CC
100
AcDbEntity
  8
Layer 1
 62
     7
420
 16777215
370
    35
  0
POLYLINE
  5
D0
330
55
100
AcDbEntity
  8
Layer 1
 62
     7
420
 16777215
370
    35
100
AcDb2dPolyline
 66
     1
 10
0.0
 20
0.0
 30
0.0
  0
VERTEX
  5
D1
330
D0
100
AcDbEntity
  8
Layer 1
 62
     7
420
 16777215
370
    35
100
AcDbVertex
100
AcDb2dVertex
 10
349.7621883016075
 20
358.9880776042709
 30
0.0
  0
VERTEX
  5
D2
330
D0
100
AcDbEntity
  8
Layer 1
 62
     7
420
 16777215
370
    35
100
AcDbVertex
100
AcDb2dVertex
 10
346.4436485067752
 20
356.9969199689249
 30
0.0
  0
VERTEX
  5
D3
330
D0
100
AcDbEntity
  8
Layer 1
 62
     7
420
 16777215
370
    35
100
AcDbVertex
100
AcDb2dVertex
 10
345.1161819511709
 20
353.6783379760337
 30
0.0
  0
SEQEND
  5
D4
330
D0
100
AcDbEntity
  8
Layer 1
 62
     7
420
 16777215
370
    35
  0
POLYLINE
  5
D5
330
55
100
AcDbEntity
  8
Layer 1
 62
     7
420
 16777215
370
    35
100
AcDb2dPolyline
 66
     1
 10
0.0
 20
0.0
 30
0.0
  0
VERTEX
  5
D6
330
D5
100
AcDbEntity
  8
Layer 1
 62
     7
420
 16777215
370
    35
100
AcDbVertex
100
AcDb2dVertex
 10
24.5403934331415
 20
601.9088871360068
 30
0.0
  0
VERTEX
  5
D7
330
D5
100
AcDbEntity
  8
Layer 1
 62
     7
420
 16777215
370
    35
100
AcDbVertex
100
AcDb2dVertex
 10
25.20408451288442
 20
599.9177295006609
 30
0.0
  0
VERTEX
  5
D8
330
D5
100
AcDbEntity
  8
Layer 1
 62
     7
420
 16777215
370
    35
100
AcDbVertex
100
AcDb2dVertex
 10
27.19524214823159
 20
599.2540384209183
 30
0.0
  0
SEQEND
  5
D9
330
D5
100
AcDbEntity
  8
Layer 1
 62
     7
420
 16777215
370
    35
  0
POLYLINE
  5
DA
330
55
100
AcDbEntity
  8
Layer 1
 62
     7
420
 16777215
370
    35
100
AcDb2dPolyline
 66
     1
 10
0.0
 20
0.0
 30
0.0
  0
VERTEX
  5
DB
330
DA
100
AcDbEntity
  8
Layer 1
 62
     7
420
 16777215
370
    35
100
AcDbVertex
100
AcDb2dVertex
 10
349.7621883016075
 20
510.9794957820283
 30
0.0
  0
VERTEX
  5
DC
330
DA
100
AcDbEntity
  8
Layer 1
 62
     7
420
 16777215
370
    35
100
AcDbVertex
100
AcDb2dVertex
 10
759.9399860141319
 20
510.9794957820283
 30
0.0
  0
SEQEND
  5
DD
330
DA
100
AcDbEntity
  8
Layer 1
 62
     7
420
 16777215
370
    35
  0
POLYLINE
  5
DE
330
55
100
AcDbEntity
  8
Layer 1
 62
     7
420
 16777215
370
    35
100
AcDb2dPolyline
 66
     1
 10
0.0
 20
0.0
 30
0.0
  0
VERTEX
  5
DF
330
DE
100
AcDbEntity
  8
Layer 1
 62
     7
420
 16777215
370
    35
100
AcDbVertex
100
AcDb2dVertex
 10
345.1161819511709
 20
375.5810297667892
 30
0.0
  0
VERTEX
  5
E0
330
DE
100
AcDbEntity
  8
Layer 1
 62
     7
420
 16777215
370
    35
100
AcDbVertex
100
AcDb2dVertex
 10
346.4436485067752
 20
372.2624477738977
 30
0.0
  0
VERTEX
  5
E1
330
DE
100
AcDbEntity
  8
Layer 1
 62
     7
420
 16777215
370
    35
100
AcDbVertex
100
AcDb2dVertex
 10
349.7621883016075
 20
370.2712901385521
 30
0.0
  0
SEQEND
  5
E2
330
DE
100
AcDbEntity
  8
Layer 1
 62
     7
420
 16777215
370
    35
  0
POLYLINE
  5
E3
330
55
100
AcDbEntity
  8
Layer 1
 62
     7
420
 16777215
370
    35
100
AcDb2dPolyline
 66
     1
 10
0.0
 20
0.0
 30
0.0
  0
VERTEX
  5
E4
330
E3
100
AcDbEntity
  8
Layer 1
 62
     7
420
 16777215
370
    35
100
AcDbVertex
100
AcDb2dVertex
 10
349.7621883016075
 20
510.9794957820283
 30
0.0
  0
VERTEX
  5
E5
330
E3
100
AcDbEntity
  8
Layer 1
 62
     7
420
 16777215
370
    35
100
AcDbVertex
100
AcDb2dVertex
 10
346.4436485067752
 20
509.6521136225431
 30
0.0
  0
VERTEX
  5
E6
330
E3
100
AcDbEntity
  8
Layer 1
 62
     7
420
 16777215
370
    35
100
AcDbVertex
100
AcDb2dVertex
 10
345.1161819511709
 20
506.333489431591
 30
0.0
  0
SEQEND
  5
E7
330
E3
100
AcDbEntity
  8
Layer 1
 62
     7
420
 16777215
370
    35
  0
POLYLINE
  5
E8
330
55
100
AcDbEntity
  8
Layer 1
 62
     7
420
 16777215
370
    35
100
AcDb2dPolyline
 66
     1
 10
0.0
 20
0.0
 30
0.0
  0
VERTEX
  5
E9
330
E8
100
AcDbEntity
  8
Layer 1
 62
     7
420
 16777215
370
    35
100
AcDbVertex
100
AcDb2dVertex
 10
349.7621883016075
 20
522.9264415941094
 30
0.0
  0
VERTEX
  5
EA
330
E8
100
AcDbEntity
  8
Layer 1
 62
     7
420
 16777215
370
    35
100
AcDbVertex
100
AcDb2dVertex
 10
759.9399860141319
 20
522.9264415941094
 30
0.0
  0
SEQEND
  5
EB
330
E8
100
AcDbEntity
  8
Layer 1
 62
     7
420
 16777215
370
    35
  0
POLYLINE
  5
EC
330
55
100
AcDbEntity
  8
Layer 1
 62
     7
420
 16777215
370
    35
100
AcDb2dPolyline
 66
     1
 10
0.0
 20
0.0
 30
0.0
  0
VERTEX
  5
ED
330
EC
100
AcDbEntity
  8
Layer 1
 62
     7
420
 16777215
370
    35
100
AcDbVertex
100
AcDb2dVertex
 10
345.1161819511709
 20
527.572447944547
 30
0.0
  0
VERTEX
  5
EE
330
EC
100
AcDbEntity
  8
Layer 1
 62
     7
420
 16777215
370
    35
100
AcDbVertex
100
AcDb2dVertex
 10
346.4436485067752
 20
524.2539081497124
 30
0.0
  0
VERTEX
  5
EF
330
EC
100
AcDbEntity
  8
Layer 1
 62
     7
420
 16777215
370
    35
100
AcDbVertex
100
AcDb2dVertex
 10
349.7621883016075
 20
522.9264415941094
 30
0.0
  0
SEQEND
  5
F0
330
EC
100
AcDbEntity
  8
Layer 1
 62
     7
420
 16777215
370
    35
  0
POLYLINE
  5
F1
330
55
100
AcDbEntity
  8
Layer 1
 62
     7
420
 16777215
370
    35
100
AcDb2dPolyline
 66
     1
 10
0.0
 20
0.0
 30
0.0
  0
VERTEX
  5
F2
330
F1
100
AcDbEntity
  8
Layer 1
 62
     7
420
 16777215
370
    35
100
AcDbVertex
100
AcDb2dVertex
 10
759.9399860141319
 20
434.6519833513372
 30
0.0
  0
VERTEX
  5
F3
330
F1
100
AcDbEntity
  8
Layer 1
 62
     7
420
 16777215
370
    35
100
AcDbVertex
100
AcDb2dVertex
 10
349.7621883016075
 20
434.6519833513372
 30
0.0
  0
VERTEX
  5
F4
330
F1
100
AcDbEntity
  8
Layer 1
 62
     7
420
 16777215
370
    35
100
AcDbVertex
100
AcDb2dVertex
 10
346.4436485067752
 20
433.3245167957342
 30
0.0
  0
VERTEX
  5
F5
330
F1
100
AcDbEntity
  8
Layer 1
 62
     7
420
 16777215
370
    35
100
AcDbVertex
100
AcDb2dVertex
 10
345.1161819511709
 20
430.0058926047818
 30
0.0
  0
SEQEND
  5
F6
330
F1
100
AcDbEntity
  8
Layer 1
 62
     7
420
 16777215
370
    35
  0
POLYLINE
  5
F7
330
55
100
AcDbEntity
  8
Layer 1
 62
     7
420
 16777215
370
    35
100
AcDb2dPolyline
 66
     1
 10
0.0
 20
0.0
 30
0.0
  0
VERTEX
  5
F8
330
F7
100
AcDbEntity
  8
Layer 1
 62
     7
420
 16777215
370
    35
100
AcDbVertex
100
AcDb2dVertex
 10
349.7621883016075
 20
446.5988447673002
 30
0.0
  0
VERTEX
  5
F9
330
F7
100
AcDbEntity
  8
Layer 1
 62
     7
420
 16777215
370
    35
100
AcDbVertex
100
AcDb2dVertex
 10
759.9399860141319
 20
446.5988447673002
 30
0.0
  0
SEQEND
  5
FA
330
F7
100
AcDbEntity
  8
Layer 1
 62
     7
420
 16777215
370
    35
  0
POLYLINE
  5
FB
330
55
100
AcDbEntity
  8
Layer 1
 62
     7
420
 16777215
370
    35
100
AcDb2dPolyline
 66
     1
 10
0.0
 20
0.0
 30
0.0
  0
VERTEX
  5
FC
330
FB
100
AcDbEntity
  8
Layer 1
 62
     7
420
 16777215
370
    35
100
AcDbVertex
100
AcDb2dVertex
 10
345.1161819511709
 20
451.9086265935982
 30
0.0
  0
VERTEX
  5
FD
330
FB
100
AcDbEntity
  8
Layer 1
 62
     7
420
 16777215
370
    35
100
AcDbVertex
100
AcDb2dVertex
 10
346.4436485067752
 20
447.9263113229035
 30
0.0
  0
VERTEX
  5
FE
330
FB
100
AcDbEntity
  8
Layer 1
 62
     7
420
 16777215
370
    35
100
AcDbVertex
100
AcDb2dVertex
 10
349.7621883016075
 20
446.5988447673002
 30
0.0
  0
SEQEND
  5
FF
330
FB
100
AcDbEntity
  8
Layer 1
 62
     7
420
 16777215
370
    35
  0
POLYLINE
  5
100
330
55
100
AcDbEntity
  8
Layer 1
 62
     7
420
 16777215
370
    35
100
AcDb2dPolyline
 66
     1
 10
0.0
 20
0.0
 30
0.0
  0
VERTEX
  5
101
330
100
100
AcDbEntity
  8
Layer 1
 62
     7
420
 16777215
370
    35
100
AcDbVertex
100
AcDb2dVertex
 10
759.9399860141319
 20
649.0328949084738
 30
0.0
  0
VERTEX
  5
102
330
100
100
AcDbEntity
  8
Layer 1
 62
     7
420
 16777215
370
    35
100
AcDbVertex
100
AcDb2dVertex
 10
759.9399860141319
 20
222.9258783112329
 30
0.0
  0
SEQEND
  5
103
330
100
100
AcDbEntity
  8
Layer 1
 62
     7
420
 16777215
370
    35
  0
POLYLINE
  5
104
330
55
100
AcDbEntity
  8
Layer 1
 62
     7
420
 16777215
370
    35
100
AcDb2dPolyline
 66
     1
 10
0.0
 20
0.0
 30
0.0
  0
VERTEX
  5
105
330
104
100
AcDbEntity
  8
Layer 1
 62
     7
420
 16777215
370
    35
100
AcDbVertex
100
AcDb2dVertex
 10
349.7621883016075
 20
370.2712901385521
 30
0.0
  0
VERTEX
  5
106
330
104
100
AcDbEntity
  8
Layer 1
 62
     7
420
 16777215
370
    35
100
AcDbVertex
100
AcDb2dVertex
 10
759.9399860141319
 20
370.2712901385521
 30
0.0
  0
SEQEND
  5
107
330
104
100
AcDbEntity
  8
Layer 1
 62
     7
420
 16777215
370
    35
  0
POLYLINE
  5
108
330
55
100
AcDbEntity
  8
Layer 1
 62
     7
420
 16777215
370
    35
100
AcDb2dPolyline
 66
     1
 10
0.0
 20
0.0
 30
0.0
  0
VERTEX
  5
109
330
108
100
AcDbEntity
  8
Layer 1
 62
     7
420
 16777215
370
    35
100
AcDbVertex
100
AcDb2dVertex
 10
763.9223012848269
 20
649.0328949084738
 30
0.0
  0
VERTEX
  5
10A
330
108
100
AcDbEntity
  8
Layer 1
 62
     7
420
 16777215
370
    35
100
AcDbVertex
100
AcDb2dVertex
 10
763.9223012848269
 20
222.9258783112329
 30
0.0
  0
SEQEND
  5
10B
330
108
100
AcDbEntity
  8
Layer 1
 62
     7
420
 16777215
370
    35
  0
POLYLINE
  5
10C
330
55
100
AcDbEntity
  8
Layer 1
 62
     7
420
 16777215
370
    35
100
AcDb2dPolyline
 66
     1
 10
0.0
 20
0.0
 30
0.0
  0
VERTEX
  5
10D
330
10C
100
AcDbEntity
  8
Layer 1
 62
     7
420
 16777215
370
    35
100
AcDbVertex
100
AcDb2dVertex
 10
349.7621883016075
 20
358.9880776042709
 30
0.0
  0
VERTEX
  5
10E
330
10C
100
AcDbEntity
  8
Layer 1
 62
     7
420
 16777215
370
    35
100
AcDbVertex
100
AcDb2dVertex
 10
759.9399860141319
 20
358.9880776042709
 30
0.0
  0
SEQEND
  5
10F
330
10C
100
AcDbEntity
  8
Layer 1
 62
     7
420
 16777215
370
    35
  0
POLYLINE
  5
110
330
55
100
AcDbEntity
  8
Layer 1
 62
     7
420
 16777215
370
    35
100
AcDb2dPolyline
 66
     1
 10
0.0
 20
0.0
 30
0.0
  0
VERTEX
  5
111
330
110
100
AcDbEntity
  8
Layer 1
 62
     7
420
 16777215
370
    35
100
AcDbVertex
100
AcDb2dVertex
 10
349.7621883016075
 20
282.6605229755228
 30
0.0
  0
VERTEX
  5
112
330
110
100
AcDbEntity
  8
Layer 1
 62
     7
420
 16777215
370
    35
100
AcDbVertex
100
AcDb2dVertex
 10
346.4436485067752
 20
281.3330564199185
 30
0.0
  0
VERTEX
  5
113
330
110
100
AcDbEntity
  8
Layer 1
 62
     7
420
 16777215
370
    35
100
AcDbVertex
100
AcDb2dVertex
 10
345.1161819511709
 20
277.3507833472843
 30
0.0
  0
SEQEND
  5
114
330
110
100
AcDbEntity
  8
Layer 1
 62
     7
420
 16777215
370
    35
  0
POLYLINE
  5
115
330
55
100
AcDbEntity
  8
Layer 1
 62
     7
420
 16777215
370
    35
100
AcDb2dPolyline
 66
     1
 10
0.0
 20
0.0
 30
0.0
  0
VERTEX
  5
116
330
115
100
AcDbEntity
  8
Layer 1
 62
     7
420
 16777215
370
    35
100
AcDbVertex
100
AcDb2dVertex
 10
349.7621883016075
 20
282.6605229755228
 30
0.0
  0
VERTEX
  5
117
330
115
100
AcDbEntity
  8
Layer 1
 62
     7
420
 16777215
370
    35
100
AcDbVertex
100
AcDb2dVertex
 10
759.9399860141319
 20
282.6605229755228
 30
0.0
  0
SEQEND
  5
118
330
115
100
AcDbEntity
  8
Layer 1
 62
     7
420
 16777215
370
    35
  0
POLYLINE
  5
119
330
55
100
AcDbEntity
  8
Layer 1
 62
     7
420
 16777215
370
    35
100
AcDb2dPolyline
 66
     1
 10
0.0
 20
0.0
 30
0.0
  0
VERTEX
  5
11A
330
119
100
AcDbEntity
  8
Layer 1
 62
     7
420
 16777215
370
    35
100
AcDbVertex
100
AcDb2dVertex
 10
759.9399860141319
 20
649.0328949084738
 30
0.0
  0
VERTEX
  5
11B
330
119
100
AcDbEntity
  8
Layer 1
 62
     7
420
 16777215
370
    35
100
AcDbVertex
100
AcDb2dVertex
 10
758.6126038546467
 20
653.6789012589112
 30
0.0
  0
VERTEX
  5
11C
330
119
100
AcDbEntity
  8
Layer 1
 62
     7
420
 16777215
370
    35
100
AcDbVertex
100
AcDb2dVertex
 10
754.6302885839517
 20
657.6612165296023
 30
0.0
  0
VERTEX
  5
11D
330
119
100
AcDbEntity
  8
Layer 1
 62
     7
420
 16777215
370
    35
100
AcDbVertex
100
AcDb2dVertex
 10
749.9842822335145
 20
658.9886830852091
 30
0.0
  0
SEQEND
  5
11E
330
119
100
AcDbEntity
  8
Layer 1
 62
     7
420
 16777215
370
    35
  0
POLYLINE
  5
11F
330
55
100
AcDbEntity
  8
Layer 1
 62
     7
420
 16777215
370
    35
100
AcDb2dPolyline
 66
     1
 10
0.0
 20
0.0
 30
0.0
  0
VERTEX
  5
120
330
11F
100
AcDbEntity
  8
Layer 1
 62
     7
420
 16777215
370
    35
100
AcDbVertex
100
AcDb2dVertex
 10
339.806484520992
 20
212.9701323325572
 30
0.0
  0
VERTEX
  5
121
330
11F
100
AcDbEntity
  8
Layer 1
 62
     7
420
 16777215
370
    35
100
AcDbVertex
100
AcDb2dVertex
 10
-375.6816583007075
 20
212.9701323325572
 30
0.0
  0
SEQEND
  5
122
330
11F
100
AcDbEntity
  8
Layer 1
 62
     7
420
 16777215
370
    35
  0
POLYLINE
  5
123
330
55
100
AcDbEntity
  8
Layer 1
 62
     7
420
 16777215
370
    35
100
AcDb2dPolyline
 66
     1
 10
0.0
 20
0.0
 30
0.0
  0
VERTEX
  5
124
330
123
100
AcDbEntity
  8
Layer 1
 62
     7
420
 16777215
370
    35
100
AcDbVertex
100
AcDb2dVertex
 10
763.9223012848269
 20
649.0328949084738
 30
0.0
  0
VERTEX
  5
125
330
123
100
AcDbEntity
  8
Layer 1
 62
     7
420
 16777215
370
    35
100
AcDbVertex
100
AcDb2dVertex
 10
762.5949191253417
 20
654.3426767347715
 30
0.0
  0
VERTEX
  5
126
330
123
100
AcDbEntity
  8
Layer 1
 62
     7
420
 16777215
370
    35
100
AcDbVertex
100
AcDb2dVertex
 10
759.9399860141319
 20
658.9886830852091
 30
0.0
  0
VERTEX
  5
127
330
123
100
AcDbEntity
  8
Layer 1
 62
     7
420
 16777215
370
    35
100
AcDbVertex
100
AcDb2dVertex
 10
755.2939796636946
 20
661.6435318002973
 30
0.0
  0
VERTEX
  5
128
330
123
100
AcDbEntity
  8
Layer 1
 62
     7
420
 16777215
370
    35
100
AcDbVertex
100
AcDb2dVertex
 10
749.9842822335145
 20
662.9709983559003
 30
0.0
  0
SEQEND
  5
129
330
123
100
AcDbEntity
  8
Layer 1
 62
     7
420
 16777215
370
    35
  0
POLYLINE
  5
12A
330
55
100
AcDbEntity
  8
Layer 1
 62
     7
420
 16777215
370
    35
100
AcDb2dPolyline
 66
     1
 10
0.0
 20
0.0
 30
0.0
  0
VERTEX
  5
12B
330
12A
100
AcDbEntity
  8
Layer 1
 62
     7
420
 16777215
370
    35
100
AcDbVertex
100
AcDb2dVertex
 10
349.7621883016075
 20
294.607426589545
 30
0.0
  0
VERTEX
  5
12C
330
12A
100
AcDbEntity
  8
Layer 1
 62
     7
420
 16777215
370
    35
100
AcDbVertex
100
AcDb2dVertex
 10
759.9399860141319
 20
294.607426589545
 30
0.0
  0
SEQEND
  5
12D
330
12A
100
AcDbEntity
  8
Layer 1
 62
     7
420
 16777215
370
    35
  0
POLYLINE
  5
12E
330
55
100
AcDbEntity
  8
Layer 1
 62
     7
420
 16777215
370
    35
100
AcDb2dPolyline
 66
     1
 10
0.0
 20
0.0
 30
0.0
  0
VERTEX
  5
12F
330
12E
100
AcDbEntity
  8
Layer 1
 62
     7
420
 16777215
370
    35
100
AcDbVertex
100
AcDb2dVertex
 10
19.23061160684352
 20
658.9886830852091
 30
0.0
  0
VERTEX
  5
130
330
12E
100
AcDbEntity
  8
Layer 1
 62
     7
420
 16777215
370
    35
100
AcDbVertex
100
AcDb2dVertex
 10
749.9842822335145
 20
658.9886830852091
 30
0.0
  0
SEQEND
  5
131
330
12E
100
AcDbEntity
  8
Layer 1
 62
     7
420
 16777215
370
    35
  0
POLYLINE
  5
132
330
55
100
AcDbEntity
  8
Layer 1
 62
     7
420
 16777215
370
    35
100
AcDb2dPolyline
 66
     1
 10
0.0
 20
0.0
 30
0.0
  0
VERTEX
  5
133
330
132
100
AcDbEntity
  8
Layer 1
 62
     7
420
 16777215
370
    35
100
AcDbVertex
100
AcDb2dVertex
 10
345.1161819511709
 20
299.2534751380412
 30
0.0
  0
VERTEX
  5
134
330
132
100
AcDbEntity
  8
Layer 1
 62
     7
420
 16777215
370
    35
100
AcDbVertex
100
AcDb2dVertex
 10
346.4436485067752
 20
295.9348931451493
 30
0.0
  0
VERTEX
  5
135
330
132
100
AcDbEntity
  8
Layer 1
 62
     7
420
 16777215
370
    35
100
AcDbVertex
100
AcDb2dVertex
 10
349.7621883016075
 20
294.607426589545
 30
0.0
  0
SEQEND
  5
136
330
132
100
AcDbEntity
  8
Layer 1
 62
     7
420
 16777215
370
    35
  0
POLYLINE
  5
137
330
55
100
AcDbEntity
  8
Layer 1
 62
     7
420
 16777215
370
    35
100
AcDb2dPolyline
 66
     1
 10
0.0
 20
0.0
 30
0.0
  0
VERTEX
  5
138
330
137
100
AcDbEntity
  8
Layer 1
 62
     7
420
 16777215
370
    35
100
AcDbVertex
100
AcDb2dVertex
 10
19.23061160684352
 20
662.9709983559003
 30
0.0
  0
VERTEX
  5
139
330
137
100
AcDbEntity
  8
Layer 1
 62
     7
420
 16777215
370
    35
100
AcDbVertex
100
AcDb2dVertex
 10
749.9842822335145
 20
662.9709983559003
 30
0.0
  0
SEQEND
  5
13A
330
137
100
AcDbEntity
  8
Layer 1
 62
     7
420
 16777215
370
    35
  0
POLYLINE
  5
13B
330
55
100
AcDbEntity
  8
Layer 1
 62
     7
420
 16777215
370
    35
100
AcDb2dPolyline
 66
     1
 10
0.0
 20
0.0
 30
0.0
  0
VERTEX
  5
13C
330
13B
100
AcDbEntity
  8
Layer 1
 62
     7
420
 16777215
370
    35
100
AcDbVertex
100
AcDb2dVertex
 10
-350.4603423189985
 20
638.4134156519957
 30
0.0
  0
VERTEX
  5
13D
330
13B
100
AcDbEntity
  8
Layer 1
 62
     7
420
 16777215
370
    35
100
AcDbVertex
100
AcDb2dVertex
 10
-25.23846305441375
 20
638.4134156519957
 30
0.0
  0
SEQEND
  5
13E
330
13B
100
AcDbEntity
  8
Layer 1
 62
     7
420
 16777215
370
    35
  0
POLYLINE
  5
13F
330
55
100
AcDbEntity
  8
Layer 1
 62
     7
420
 16777215
370
    35
100
AcDb2dPolyline
 66
     1
 10
0.0
 20
0.0
 30
0.0
  0
VERTEX
  5
140
330
13F
100
AcDbEntity
  8
Layer 1
 62
     7
420
 16777215
370
    35
100
AcDbVertex
100
AcDb2dVertex
 10
-10.63666852724187
 20
623.8116211248232
 30
0.0
  0
VERTEX
  5
141
330
13F
100
AcDbEntity
  8
Layer 1
 62
     7
420
 16777215
370
    35
100
AcDbVertex
100
AcDb2dVertex
 10
-11.96413508284645
 20
629.1213185550031
 30
0.0
  0
VERTEX
  5
142
330
13F
100
AcDbEntity
  8
Layer 1
 62
     7
420
 16777215
370
    35
100
AcDbVertex
100
AcDb2dVertex
 10
-14.61898379793622
 20
634.431100381301
 30
0.0
  0
VERTEX
  5
143
330
13F
100
AcDbEntity
  8
Layer 1
 62
     7
420
 16777215
370
    35
100
AcDbVertex
100
AcDb2dVertex
 10
-19.92876562423419
 20
637.0859490963927
 30
0.0
  0
VERTEX
  5
144
330
13F
100
AcDbEntity
  8
Layer 1
 62
     7
420
 16777215
370
    35
100
AcDbVertex
100
AcDb2dVertex
 10
-25.23846305441375
 20
638.4134156519957
 30
0.0
  0
SEQEND
  5
145
330
13F
100
AcDbEntity
  8
Layer 1
 62
     7
420
 16777215
370
    35
  0
POLYLINE
  5
146
330
55
100
AcDbEntity
  8
Layer 1
 62
     7
420
 16777215
370
    35
100
AcDb2dPolyline
 66
     1
 10
0.0
 20
0.0
 30
0.0
  0
VERTEX
  5
147
330
146
100
AcDbEntity
  8
Layer 1
 62
     7
420
 16777215
370
    35
100
AcDbVertex
100
AcDb2dVertex
 10
339.806484520992
 20
208.9878170618638
 30
0.0
  0
VERTEX
  5
148
330
146
100
AcDbEntity
  8
Layer 1
 62
     7
420
 16777215
370
    35
100
AcDbVertex
100
AcDb2dVertex
 10
749.9842822335145
 20
208.9878170618638
 30
0.0
  0
SEQEND
  5
149
330
146
100
AcDbEntity
  8
Layer 1
 62
     7
420
 16777215
370
    35
  0
POLYLINE
  5
14A
330
55
100
AcDbEntity
  8
Layer 1
 62
     7
420
 16777215
370
    35
100
AcDb2dPolyline
 66
     1
 10
0.0
 20
0.0
 30
0.0
  0
VERTEX
  5
14B
330
14A
100
AcDbEntity
  8
Layer 1
 62
     7
420
 16777215
370
    35
100
AcDbVertex
100
AcDb2dVertex
 10
339.806484520992
 20
212.9701323325572
 30
0.0
  0
VERTEX
  5
14C
330
14A
100
AcDbEntity
  8
Layer 1
 62
     7
420
 16777215
370
    35
100
AcDbVertex
100
AcDb2dVertex
 10
749.9842822335145
 20
212.9701323325572
 30
0.0
  0
SEQEND
  5
14D
330
14A
100
AcDbEntity
  8
Layer 1
 62
     7
420
 16777215
370
    35
  0
POLYLINE
  5
14E
330
55
100
AcDbEntity
  8
Layer 1
 62
     7
420
 16777215
370
    35
100
AcDb2dPolyline
 66
     1
 10
0.0
 20
0.0
 30
0.0
  0
VERTEX
  5
14F
330
14E
100
AcDbEntity
  8
Layer 1
 62
     7
420
 16777215
370
    35
100
AcDbVertex
100
AcDb2dVertex
 10
749.9842822335145
 20
212.9701323325572
 30
0.0
  0
VERTEX
  5
150
330
14E
100
AcDbEntity
  8
Layer 1
 62
     7
420
 16777215
370
    35
100
AcDbVertex
100
AcDb2dVertex
 10
754.6302885839517
 20
214.2975566901026
 30
0.0
  0
VERTEX
  5
151
330
14E
100
AcDbEntity
  8
Layer 1
 62
     7
420
 16777215
370
    35
100
AcDbVertex
100
AcDb2dVertex
 10
758.6126038546467
 20
218.2798719607963
 30
0.0
  0
VERTEX
  5
152
330
14E
100
AcDbEntity
  8
Layer 1
 62
     7
420
 16777215
370
    35
100
AcDbVertex
100
AcDb2dVertex
 10
759.9399860141319
 20
222.9258783112329
 30
0.0
  0
SEQEND
  5
153
330
14E
100
AcDbEntity
  8
Layer 1
 62
     7
420
 16777215
370
    35
  0
POLYLINE
  5
154
330
55
100
AcDbEntity
  8
Layer 1
 62
     7
420
 16777215
370
    35
100
AcDb2dPolyline
 66
     1
 10
0.0
 20
0.0
 30
0.0
  0
VERTEX
  5
155
330
154
100
AcDbEntity
  8
Layer 1
 62
     7
420
 16777215
370
    35
100
AcDbVertex
100
AcDb2dVertex
 10
749.9842822335145
 20
208.9878170618638
 30
0.0
  0
VERTEX
  5
156
330
154
100
AcDbEntity
  8
Layer 1
 62
     7
420
 16777215
370
    35
100
AcDbVertex
100
AcDb2dVertex
 10
755.2939796636946
 20
210.3152414194082
 30
0.0
  0
VERTEX
  5
157
330
154
100
AcDbEntity
  8
Layer 1
 62
     7
420
 16777215
370
    35
100
AcDbVertex
100
AcDb2dVertex
 10
759.9399860141319
 20
212.9701323325572
 30
0.0
  0
VERTEX
  5
158
330
154
100
AcDbEntity
  8
Layer 1
 62
     7
420
 16777215
370
    35
100
AcDbVertex
100
AcDb2dVertex
 10
762.5949191253417
 20
217.6161386829938
 30
0.0
  0
VERTEX
  5
159
330
154
100
AcDbEntity
  8
Layer 1
 62
     7
420
 16777215
370
    35
100
AcDbVertex
100
AcDb2dVertex
 10
763.9223012848269
 20
222.9258783112329
 30
0.0
  0
SEQEND
  5
15A
330
154
100
AcDbEntity
  8
Layer 1
 62
     7
420
 16777215
370
    35
  0
POLYLINE
  5
15B
330
55
100
AcDbEntity
  8
Layer 1
 62
     7
420
 16777215
370
    35
100
AcDb2dPolyline
 66
     1
 10
0.0
 20
0.0
 30
0.0
  0
VERTEX
  5
15C
330
15B
100
AcDbEntity
  8
Layer 1
 62
     7
420
 16777215
370
    35
100
AcDbVertex
100
AcDb2dVertex
 10
-25.23846305441375
 20
233.5453575677105
 30
0.0
  0
VERTEX
  5
15D
330
15B
100
AcDbEntity
  8
Layer 1
 62
     7
420
 16777215
370
    35
100
AcDbVertex
100
AcDb2dVertex
 10
-350.4603423189985
 20
233.5453575677105
 30
0.0
  0
SEQEND
  5
15E
330
15B
100
AcDbEntity
  8
Layer 1
 62
     7
420
 16777215
370
    35
  0
POLYLINE
  5
15F
330
55
100
AcDbEntity
  8
Layer 1
 62
     7
420
 16777215
370
    35
100
AcDb2dPolyline
 66
     1
 10
0.0
 20
0.0
 30
0.0
  0
VERTEX
  5
160
330
15F
100
AcDbEntity
  8
Layer 1
 62
     7
420
 16777215
370
    35
100
AcDbVertex
100
AcDb2dVertex
 10
-365.7258701239722
 20
248.8108853726841
 30
0.0
  0
VERTEX
  5
161
330
15F
100
AcDbEntity
  8
Layer 1
 62
     7
420
 16777215
370
    35
100
AcDbVertex
100
AcDb2dVertex
 10
-364.3984457664262
 20
242.8374124666432
 30
0.0
  0
VERTEX
  5
162
330
15F
100
AcDbEntity
  8
Layer 1
 62
     7
420
 16777215
370
    35
100
AcDbVertex
100
AcDb2dVertex
 10
-361.0798215754776
 20
238.1914061162066
 30
0.0
  0
VERTEX
  5
163
330
15F
100
AcDbEntity
  8
Layer 1
 62
     7
420
 16777215
370
    35
100
AcDbVertex
100
AcDb2dVertex
 10
-356.4338152250401
 20
234.8728241233147
 30
0.0
  0
VERTEX
  5
164
330
15F
100
AcDbEntity
  8
Layer 1
 62
     7
420
 16777215
370
    35
100
AcDbVertex
100
AcDb2dVertex
 10
-350.4603423189985
 20
233.5453575677105
 30
0.0
  0
SEQEND
  5
165
330
15F
100
AcDbEntity
  8
Layer 1
 62
     7
420
 16777215
370
    35
  0
POLYLINE
  5
166
330
55
100
AcDbEntity
  8
Layer 1
 62
     7
420
 16777215
370
    35
100
AcDb2dPolyline
 66
     1
 10
0.0
 20
0.0
 30
0.0
  0
VERTEX
  5
167
330
166
100
AcDbEntity
  8
Layer 1
 62
     7
420
 16777215
370
    35
100
AcDbVertex
100
AcDb2dVertex
 10
-140.7254371122997
 20
518.2804352436718
 30
0.0
  0
VERTEX
  5
168
330
166
100
AcDbEntity
  8
Layer 1
 62
     7
420
 16777215
370
    35
100
AcDbVertex
100
AcDb2dVertex
 10
-142.052903667904
 20
528.89991450015
 30
0.0
  0
VERTEX
  5
169
330
166
100
AcDbEntity
  8
Layer 1
 62
     7
420
 16777215
370
    35
100
AcDbVertex
100
AcDb2dVertex
 10
-145.3714434627364
 20
538.8557026768852
 30
0.0
  0
VERTEX
  5
16A
330
166
100
AcDbEntity
  8
Layer 1
 62
     7
420
 16777215
370
    35
100
AcDbVertex
100
AcDb2dVertex
 10
-151.3449163687772
 20
548.14771537776
 30
0.0
  0
VERTEX
  5
16B
330
166
100
AcDbEntity
  8
Layer 1
 62
     7
420
 16777215
370
    35
100
AcDbVertex
100
AcDb2dVertex
 10
-158.6458558304224
 20
555.4486548394036
 30
0.0
  0
VERTEX
  5
16C
330
166
100
AcDbEntity
  8
Layer 1
 62
     7
420
 16777215
370
    35
100
AcDbVertex
100
AcDb2dVertex
 10
-167.2741774515534
 20
561.4221277454442
 30
0.0
  0
VERTEX
  5
16D
330
166
100
AcDbEntity
  8
Layer 1
 62
     7
420
 16777215
370
    35
100
AcDbVertex
100
AcDb2dVertex
 10
-177.229965628288
 20
564.7406675402785
 30
0.0
  0
VERTEX
  5
16E
330
166
100
AcDbEntity
  8
Layer 1
 62
     7
420
 16777215
370
    35
100
AcDbVertex
100
AcDb2dVertex
 10
-187.8494448847655
 20
566.0681340958815
 30
0.0
  0
VERTEX
  5
16F
330
166
100
AcDbEntity
  8
Layer 1
 62
     7
420
 16777215
370
    35
100
AcDbVertex
100
AcDb2dVertex
 10
-198.468924141243
 20
564.7406675402785
 30
0.0
  0
VERTEX
  5
170
330
166
100
AcDbEntity
  8
Layer 1
 62
     7
420
 16777215
370
    35
100
AcDbVertex
100
AcDb2dVertex
 10
-208.424712317978
 20
561.4221277454442
 30
0.0
  0
VERTEX
  5
171
330
166
100
AcDbEntity
  8
Layer 1
 62
     7
420
 16777215
370
    35
100
AcDbVertex
100
AcDb2dVertex
 10
-217.7167250188509
 20
555.4486548394036
 30
0.0
  0
VERTEX
  5
172
330
166
100
AcDbEntity
  8
Layer 1
 62
     7
420
 16777215
370
    35
100
AcDbVertex
100
AcDb2dVertex
 10
-225.0176644804964
 20
548.14771537776
 30
0.0
  0
VERTEX
  5
173
330
166
100
AcDbEntity
  8
Layer 1
 62
     7
420
 16777215
370
    35
100
AcDbVertex
100
AcDb2dVertex
 10
-230.3273619106756
 20
538.8557026768852
 30
0.0
  0
VERTEX
  5
174
330
166
100
AcDbEntity
  8
Layer 1
 62
     7
420
 16777215
370
    35
100
AcDbVertex
100
AcDb2dVertex
 10
-234.3096771813693
 20
528.89991450015
 30
0.0
  0
VERTEX
  5
175
330
166
100
AcDbEntity
  8
Layer 1
 62
     7
420
 16777215
370
    35
100
AcDbVertex
100
AcDb2dVertex
 10
-234.9733682611122
 20
518.2804352436718
 30
0.0
  0
VERTEX
  5
176
330
166
100
AcDbEntity
  8
Layer 1
 62
     7
420
 16777215
370
    35
100
AcDbVertex
100
AcDb2dVertex
 10
-234.3096771813693
 20
508.3246470669366
 30
0.0
  0
VERTEX
  5
177
330
166
100
AcDbEntity
  8
Layer 1
 62
     7
420
 16777215
370
    35
100
AcDbVertex
100
AcDb2dVertex
 10
-230.3273619106756
 20
498.3688588902049
 30
0.0
  0
VERTEX
  5
178
330
166
100
AcDbEntity
  8
Layer 1
 62
     7
420
 16777215
370
    35
100
AcDbVertex
100
AcDb2dVertex
 10
-225.0176644804964
 20
489.07684618933
 30
0.0
  0
VERTEX
  5
179
330
166
100
AcDbEntity
  8
Layer 1
 62
     7
420
 16777215
370
    35
100
AcDbVertex
100
AcDb2dVertex
 10
-217.7167250188509
 20
481.7759067276864
 30
0.0
  0
VERTEX
  5
17A
330
166
100
AcDbEntity
  8
Layer 1
 62
     7
420
 16777215
370
    35
100
AcDbVertex
100
AcDb2dVertex
 10
-208.424712317978
 20
475.8024338216424
 30
0.0
  0
VERTEX
  5
17B
330
166
100
AcDbEntity
  8
Layer 1
 62
     7
420
 16777215
370
    35
100
AcDbVertex
100
AcDb2dVertex
 10
-198.468924141243
 20
472.4838940268116
 30
0.0
  0
VERTEX
  5
17C
330
166
100
AcDbEntity
  8
Layer 1
 62
     7
420
 16777215
370
    35
100
AcDbVertex
100
AcDb2dVertex
 10
-187.8494448847655
 20
471.1564274712086
 30
0.0
  0
VERTEX
  5
17D
330
166
100
AcDbEntity
  8
Layer 1
 62
     7
420
 16777215
370
    35
100
AcDbVertex
100
AcDb2dVertex
 10
-177.229965628288
 20
472.4838940268116
 30
0.0
  0
VERTEX
  5
17E
330
166
100
AcDbEntity
  8
Layer 1
 62
     7
420
 16777215
370
    35
100
AcDbVertex
100
AcDb2dVertex
 10
-167.2741774515534
 20
475.8024338216424
 30
0.0
  0
VERTEX
  5
17F
330
166
100
AcDbEntity
  8
Layer 1
 62
     7
420
 16777215
370
    35
100
AcDbVertex
100
AcDb2dVertex
 10
-158.6458558304224
 20
481.7759067276864
 30
0.0
  0
VERTEX
  5
180
330
166
100
AcDbEntity
  8
Layer 1
 62
     7
420
 16777215
370
    35
100
AcDbVertex
100
AcDb2dVertex
 10
-151.3449163687772
 20
489.07684618933
 30
0.0
  0
VERTEX
  5
181
330
166
100
AcDbEntity
  8
Layer 1
 62
     7
420
 16777215
370
    35
100
AcDbVertex
100
AcDb2dVertex
 10
-145.3714434627364
 20
498.3688588902049
 30
0.0
  0
VERTEX
  5
182
330
166
100
AcDbEntity
  8
Layer 1
 62
     7
420
 16777215
370
    35
100
AcDbVertex
100
AcDb2dVertex
 10
-142.052903667904
 20
508.3246470669366
 30
0.0
  0
VERTEX
  5
183
330
166
100
AcDbEntity
  8
Layer 1
 62
     7
420
 16777215
370
    35
100
AcDbVertex
100
AcDb2dVertex
 10
-140.7254371122997
 20
518.2804352436718
 30
0.0
  0
SEQEND
  5
184
330
166
100
AcDbEntity
  8
Layer 1
 62
     7
420
 16777215
370
    35
  0
POLYLINE
  5
185
330
55
100
AcDbEntity
  8
Layer 1
 62
     7
420
 16777215
370
    35
100
AcDb2dPolyline
 66
     1
 10
0.0
 20
0.0
 30
0.0
  0
VERTEX
  5
186
330
185
100
AcDbEntity
  8
Layer 1
 62
     7
420
 16777215
370
    35
100
AcDbVertex
100
AcDb2dVertex
 10
-131.4334244114264
 20
518.2804352436718
 30
0.0
  0
VERTEX
  5
187
330
185
100
AcDbEntity
  8
Layer 1
 62
     7
420
 16777215
370
    35
100
AcDbVertex
100
AcDb2dVertex
 10
-132.760806570912
 20
530.8910721354956
 30
0.0
  0
VERTEX
  5
188
330
185
100
AcDbEntity
  8
Layer 1
 62
     7
420
 16777215
370
    35
100
AcDbVertex
100
AcDb2dVertex
 10
-136.743121841606
 20
542.8380179475803
 30
0.0
  0
VERTEX
  5
189
330
185
100
AcDbEntity
  8
Layer 1
 62
     7
420
 16777215
370
    35
100
AcDbVertex
100
AcDb2dVertex
 10
-144.0440613032512
 20
553.4574972040581
 30
0.0
  0
VERTEX
  5
18A
330
185
100
AcDbEntity
  8
Layer 1
 62
     7
420
 16777215
370
    35
100
AcDbVertex
100
AcDb2dVertex
 10
-152.6723829243815
 20
562.7495099049294
 30
0.0
  0
VERTEX
  5
18B
330
185
100
AcDbEntity
  8
Layer 1
 62
     7
420
 16777215
370
    35
100
AcDbVertex
100
AcDb2dVertex
 10
-163.291862180859
 20
569.3867582868339
 30
0.0
  0
VERTEX
  5
18C
330
185
100
AcDbEntity
  8
Layer 1
 62
     7
420
 16777215
370
    35
100
AcDbVertex
100
AcDb2dVertex
 10
-175.2388079929408
 20
573.369073557525
 30
0.0
  0
VERTEX
  5
18D
330
185
100
AcDbEntity
  8
Layer 1
 62
     7
420
 16777215
370
    35
100
AcDbVertex
100
AcDb2dVertex
 10
-187.8494448847655
 20
575.3601467967528
 30
0.0
  0
VERTEX
  5
18E
330
185
100
AcDbEntity
  8
Layer 1
 62
     7
420
 16777215
370
    35
100
AcDbVertex
100
AcDb2dVertex
 10
-200.4600817765902
 20
573.369073557525
 30
0.0
  0
VERTEX
  5
18F
330
185
100
AcDbEntity
  8
Layer 1
 62
     7
420
 16777215
370
    35
100
AcDbVertex
100
AcDb2dVertex
 10
-212.407027588672
 20
569.3867582868339
 30
0.0
  0
VERTEX
  5
190
330
185
100
AcDbEntity
  8
Layer 1
 62
     7
420
 16777215
370
    35
100
AcDbVertex
100
AcDb2dVertex
 10
-223.0265068451495
 20
562.7495099049294
 30
0.0
  0
VERTEX
  5
191
330
185
100
AcDbEntity
  8
Layer 1
 62
     7
420
 16777215
370
    35
100
AcDbVertex
100
AcDb2dVertex
 10
-232.3185195460228
 20
553.4574972040581
 30
0.0
  0
VERTEX
  5
192
330
185
100
AcDbEntity
  8
Layer 1
 62
     7
420
 16777215
370
    35
100
AcDbVertex
100
AcDb2dVertex
 10
-238.955683531806
 20
542.8380179475803
 30
0.0
  0
VERTEX
  5
193
330
185
100
AcDbEntity
  8
Layer 1
 62
     7
420
 16777215
370
    35
100
AcDbVertex
100
AcDb2dVertex
 10
-242.9379988025
 20
530.8910721354956
 30
0.0
  0
VERTEX
  5
194
330
185
100
AcDbEntity
  8
Layer 1
 62
     7
420
 16777215
370
    35
100
AcDbVertex
100
AcDb2dVertex
 10
-244.2654653581046
 20
518.2804352436718
 30
0.0
  0
VERTEX
  5
195
330
185
100
AcDbEntity
  8
Layer 1
 62
     7
420
 16777215
370
    35
100
AcDbVertex
100
AcDb2dVertex
 10
-242.9379988025
 20
505.6697983518484
 30
0.0
  0
VERTEX
  5
196
330
185
100
AcDbEntity
  8
Layer 1
 62
     7
420
 16777215
370
    35
100
AcDbVertex
100
AcDb2dVertex
 10
-238.955683531806
 20
493.7228525397672
 30
0.0
  0
VERTEX
  5
197
330
185
100
AcDbEntity
  8
Layer 1
 62
     7
420
 16777215
370
    35
100
AcDbVertex
100
AcDb2dVertex
 10
-232.3185195460228
 20
483.1033732832894
 30
0.0
  0
VERTEX
  5
198
330
185
100
AcDbEntity
  8
Layer 1
 62
     7
420
 16777215
370
    35
100
AcDbVertex
100
AcDb2dVertex
 10
-223.0265068451495
 20
474.4750516621572
 30
0.0
  0
VERTEX
  5
199
330
185
100
AcDbEntity
  8
Layer 1
 62
     7
420
 16777215
370
    35
100
AcDbVertex
100
AcDb2dVertex
 10
-212.407027588672
 20
467.837887676374
 30
0.0
  0
VERTEX
  5
19A
330
185
100
AcDbEntity
  8
Layer 1
 62
     7
420
 16777215
370
    35
100
AcDbVertex
100
AcDb2dVertex
 10
-200.4600817765902
 20
463.1917969298186
 30
0.0
  0
VERTEX
  5
19B
330
185
100
AcDbEntity
  8
Layer 1
 62
     7
420
 16777215
370
    35
100
AcDbVertex
100
AcDb2dVertex
 10
-187.8494448847655
 20
461.8644147703334
 30
0.0
  0
VERTEX
  5
19C
330
185
100
AcDbEntity
  8
Layer 1
 62
     7
420
 16777215
370
    35
100
AcDbVertex
100
AcDb2dVertex
 10
-175.2388079929408
 20
463.1917969298186
 30
0.0
  0
VERTEX
  5
19D
330
185
100
AcDbEntity
  8
Layer 1
 62
     7
420
 16777215
370
    35
100
AcDbVertex
100
AcDb2dVertex
 10
-163.291862180859
 20
467.837887676374
 30
0.0
  0
VERTEX
  5
19E
330
185
100
AcDbEntity
  8
Layer 1
 62
     7
420
 16777215
370
    35
100
AcDbVertex
100
AcDb2dVertex
 10
-152.6723829243815
 20
474.4750516621572
 30
0.0
  0
VERTEX
  5
19F
330
185
100
AcDbEntity
  8
Layer 1
 62
     7
420
 16777215
370
    35
100
AcDbVertex
100
AcDb2dVertex
 10
-144.0440613032512
 20
483.1033732832894
 30
0.0
  0
VERTEX
  5
1A0
330
185
100
AcDbEntity
  8
Layer 1
 62
     7
420
 16777215
370
    35
100
AcDbVertex
100
AcDb2dVertex
 10
-136.743121841606
 20
493.7228525397672
 30
0.0
  0
VERTEX
  5
1A1
330
185
100
AcDbEntity
  8
Layer 1
 62
     7
420
 16777215
370
    35
100
AcDbVertex
100
AcDb2dVertex
 10
-132.760806570912
 20
505.6697983518484
 30
0.0
  0
VERTEX
  5
1A2
330
185
100
AcDbEntity
  8
Layer 1
 62
     7
420
 16777215
370
    35
100
AcDbVertex
100
AcDb2dVertex
 10
-131.4334244114264
 20
518.2804352436718
 30
0.0
  0
SEQEND
  5
1A3
330
185
100
AcDbEntity
  8
Layer 1
 62
     7
420
 16777215
370
    35
  0
POLYLINE
  5
1A4
330
55
100
AcDbEntity
  8
Layer 1
 62
     7
420
 16777215
370
    25
100
AcDb2dPolyline
 66
     1
 10
0.0
 20
0.0
 30
0.0
  0
VERTEX
  5
1A5
330
1A4
100
AcDbEntity
  8
Layer 1
 62
     7
420
 16777215
370
    25
100
AcDbVertex
100
AcDb2dVertex
 10
-158.6458558304224
 20
470.4927363914657
 30
0.0
  0
VERTEX
  5
1A6
330
1A4
100
AcDbEntity
  8
Layer 1
 62
     7
420
 16777215
370
    25
100
AcDbVertex
100
AcDb2dVertex
 10
-20.59245670397711
 20
243.501145744445
 30
0.0
  0
SEQEND
  5
1A7
330
1A4
100
AcDbEntity
  8
Layer 1
 62
     7
420
 16777215
370
    25
  0
POLYLINE
  5
1A8
330
55
100
AcDbEntity
  8
Layer 1
 62
     7
420
 16777215
370
    25
100
AcDb2dPolyline
 66
     1
 10
0.0
 20
0.0
 30
0.0
  0
VERTEX
  5
1A9
330
1A8
100
AcDbEntity
  8
Layer 1
 62
     7
420
 16777215
370
    25
100
AcDbVertex
100
AcDb2dVertex
 10
-355.7700819472366
 20
243.501145744445
 30
0.0
  0
VERTEX
  5
1AA
330
1A8
100
AcDbEntity
  8
Layer 1
 62
     7
420
 16777215
370
    25
100
AcDbVertex
100
AcDb2dVertex
 10
-217.7167250188509
 20
470.4927363914657
 30
0.0
  0
SEQEND
  5
1AB
330
1A8
100
AcDbEntity
  8
Layer 1
 62
     7
420
 16777215
370
    25
  0
POLYLINE
  5
1AC
330
55
100
AcDbEntity
  8
Layer 1
 62
     7
420
 16777215
370
    25
100
AcDb2dPolyline
 66
     1
 10
0.0
 20
0.0
 30
0.0
  0
VERTEX
  5
1AD
330
1AC
100
AcDbEntity
  8
Layer 1
 62
     7
420
 16777215
370
    25
100
AcDbVertex
100
AcDb2dVertex
 10
-140.7254371122997
 20
549.475181933363
 30
0.0
  0
VERTEX
  5
1AE
330
1AC
100
AcDbEntity
  8
Layer 1
 62
     7
420
 16777215
370
    25
100
AcDbVertex
100
AcDb2dVertex
 10
-20.59245670397711
 20
628.4576274752604
 30
0.0
  0
SEQEND
  5
1AF
330
1AC
100
AcDbEntity
  8
Layer 1
 62
     7
420
 16777215
370
    25
  0
POLYLINE
  5
1B0
330
55
100
AcDbEntity
  8
Layer 1
 62
     7
420
 16777215
370
    25
100
AcDb2dPolyline
 66
     1
 10
0.0
 20
0.0
 30
0.0
  0
VERTEX
  5
1B1
330
1B0
100
AcDbEntity
  8
Layer 1
 62
     7
420
 16777215
370
    25
100
AcDbVertex
100
AcDb2dVertex
 10
-355.7700819472366
 20
628.4576274752604
 30
0.0
  0
VERTEX
  5
1B2
330
1B0
100
AcDbEntity
  8
Layer 1
 62
     7
420
 16777215
370
    25
100
AcDbVertex
100
AcDb2dVertex
 10
-234.9733682611122
 20
549.475181933363
 30
0.0
  0
SEQEND
  5
1B3
330
1B0
100
AcDbEntity
  8
Layer 1
 62
     7
420
 16777215
370
    25
  0
POLYLINE
  5
1B4
330
55
100
AcDbEntity
  8
Layer 1
 62
     7
420
 16777215
370
    35
100
AcDb2dPolyline
 66
     1
 10
0.0
 20
0.0
 30
0.0
  0
VERTEX
  5
1B5
330
1B4
100
AcDbEntity
  8
Layer 1
 62
     7
420
 16777215
370
    35
100
AcDbVertex
100
AcDb2dVertex
 10
24.5403934331415
 20
563.4132853807898
 30
0.0
  0
VERTEX
  5
1B6
330
1B4
100
AcDbEntity
  8
Layer 1
 62
     7
420
 16777215
370
    35
100
AcDbVertex
100
AcDb2dVertex
 10
24.5403934331415
 20
248.8108853726841
 30
0.0
  0
VERTEX
  5
1B7
330
1B4
100
AcDbEntity
  8
Layer 1
 62
     7
420
 16777215
370
    35
100
AcDbVertex
100
AcDb2dVertex
 10
25.86777559262702
 20
242.8374124666432
 30
0.0
  0
VERTEX
  5
1B8
330
1B4
100
AcDbEntity
  8
Layer 1
 62
     7
420
 16777215
370
    35
100
AcDbVertex
100
AcDb2dVertex
 10
29.18639978357813
 20
238.1914061162066
 30
0.0
  0
VERTEX
  5
1B9
330
1B4
100
AcDbEntity
  8
Layer 1
 62
     7
420
 16777215
370
    35
100
AcDbVertex
100
AcDb2dVertex
 10
33.83240613401476
 20
234.8728241233147
 30
0.0
  0
VERTEX
  5
1BA
330
1B4
100
AcDbEntity
  8
Layer 1
 62
     7
420
 16777215
370
    35
100
AcDbVertex
100
AcDb2dVertex
 10
39.80587904005597
 20
233.5453575677105
 30
0.0
  0
SEQEND
  5
1BB
330
1B4
100
AcDbEntity
  8
Layer 1
 62
     7
420
 16777215
370
    35
  0
POLYLINE
  5
1BC
330
55
100
AcDbEntity
  8
Layer 1
 62
     7
420
 16777215
370
    35
100
AcDb2dPolyline
 66
     1
 10
0.0
 20
0.0
 30
0.0
  0
VERTEX
  5
1BD
330
1BC
100
AcDbEntity
  8
Layer 1
 62
     7
420
 16777215
370
    35
100
AcDbVertex
100
AcDb2dVertex
 10
324.5409145179588
 20
248.8108853726841
 30
0.0
  0
VERTEX
  5
1BE
330
1BC
100
AcDbEntity
  8
Layer 1
 62
     7
420
 16777215
370
    35
100
AcDbVertex
100
AcDb2dVertex
 10
324.5409145179588
 20
563.4132853807898
 30
0.0
  0
VERTEX
  5
1BF
330
1BC
100
AcDbEntity
  8
Layer 1
 62
     7
420
 16777215
370
    35
100
AcDbVertex
100
AcDb2dVertex
 10
323.2135323584736
 20
569.3867582868339
 30
0.0
  0
VERTEX
  5
1C0
330
1BC
100
AcDbEntity
  8
Layer 1
 62
     7
420
 16777215
370
    35
100
AcDbVertex
100
AcDb2dVertex
 10
319.8949081675221
 20
574.0327646372676
 30
0.0
  0
VERTEX
  5
1C1
330
1BC
100
AcDbEntity
  8
Layer 1
 62
     7
420
 16777215
370
    35
100
AcDbVertex
100
AcDb2dVertex
 10
315.2489018170855
 20
577.3513044321022
 30
0.0
  0
VERTEX
  5
1C2
330
1BC
100
AcDbEntity
  8
Layer 1
 62
     7
420
 16777215
370
    35
100
AcDbVertex
100
AcDb2dVertex
 10
309.2754289110446
 20
578.6787709877052
 30
0.0
  0
VERTEX
  5
1C3
330
1BC
100
AcDbEntity
  8
Layer 1
 62
     7
420
 16777215
370
    35
100
AcDbVertex
100
AcDb2dVertex
 10
39.80587904005597
 20
578.6787709877052
 30
0.0
  0
VERTEX
  5
1C4
330
1BC
100
AcDbEntity
  8
Layer 1
 62
     7
420
 16777215
370
    35
100
AcDbVertex
100
AcDb2dVertex
 10
33.83240613401476
 20
577.3513044321022
 30
0.0
  0
VERTEX
  5
1C5
330
1BC
100
AcDbEntity
  8
Layer 1
 62
     7
420
 16777215
370
    35
100
AcDbVertex
100
AcDb2dVertex
 10
29.18639978357813
 20
574.0327646372676
 30
0.0
  0
VERTEX
  5
1C6
330
1BC
100
AcDbEntity
  8
Layer 1
 62
     7
420
 16777215
370
    35
100
AcDbVertex
100
AcDb2dVertex
 10
25.86777559262702
 20
569.3867582868339
 30
0.0
  0
VERTEX
  5
1C7
330
1BC
100
AcDbEntity
  8
Layer 1
 62
     7
420
 16777215
370
    35
100
AcDbVertex
100
AcDb2dVertex
 10
24.5403934331415
 20
563.4132853807898
 30
0.0
  0
SEQEND
  5
1C8
330
1BC
100
AcDbEntity
  8
Layer 1
 62
     7
420
 16777215
370
    35
  0
POLYLINE
  5
1C9
330
55
100
AcDbEntity
  8
Layer 1
 62
     7
420
 16777215
370
    35
100
AcDb2dPolyline
 66
     1
 10
0.0
 20
0.0
 30
0.0
  0
VERTEX
  5
1CA
330
1C9
100
AcDbEntity
  8
Layer 1
 62
     7
420
 16777215
370
    35
100
AcDbVertex
100
AcDb2dVertex
 10
39.80587904005597
 20
233.5453575677105
 30
0.0
  0
VERTEX
  5
1CB
330
1C9
100
AcDbEntity
  8
Layer 1
 62
     7
420
 16777215
370
    35
100
AcDbVertex
100
AcDb2dVertex
 10
309.2754289110446
 20
233.5453575677105
 30
0.0
  0
VERTEX
  5
1CC
330
1C9
100
AcDbEntity
  8
Layer 1
 62
     7
420
 16777215
370
    35
100
AcDbVertex
100
AcDb2dVertex
 10
315.2489018170855
 20
234.8728241233147
 30
0.0
  0
VERTEX
  5
1CD
330
1C9
100
AcDbEntity
  8
Layer 1
 62
     7
420
 16777215
370
    35
100
AcDbVertex
100
AcDb2dVertex
 10
319.8949081675221
 20
238.1914061162066
 30
0.0
  0
VERTEX
  5
1CE
330
1C9
100
AcDbEntity
  8
Layer 1
 62
     7
420
 16777215
370
    35
100
AcDbVertex
100
AcDb2dVertex
 10
323.2135323584736
 20
242.8374124666432
 30
0.0
  0
VERTEX
  5
1CF
330
1C9
100
AcDbEntity
  8
Layer 1
 62
     7
420
 16777215
370
    35
100
AcDbVertex
100
AcDb2dVertex
 10
324.5409145179588
 20
248.8108853726841
 30
0.0
  0
SEQEND
  5
1D0
330
1C9
100
AcDbEntity
  8
Layer 1
 62
     7
420
 16777215
370
    35
  0
POLYLINE
  5
1D1
330
55
100
AcDbEntity
  8
Layer 1
 62
     7
420
 16777215
370
    35
100
AcDb2dPolyline
 66
     1
 10
0.0
 20
0.0
 30
0.0
  0
VERTEX
  5
1D2
330
1D1
100
AcDbEntity
  8
Layer 1
 62
     7
420
 16777215
370
    35
100
AcDbVertex
100
AcDb2dVertex
 10
221.6646617480159
 20
458.5457905793813
 30
0.0
  0
VERTEX
  5
1D3
330
1D1
100
AcDbEntity
  8
Layer 1
 62
     7
420
 16777215
370
    35
100
AcDbVertex
100
AcDb2dVertex
 10
220.3371951924117
 20
469.1652698358592
 30
0.0
  0
VERTEX
  5
1D4
330
1D1
100
AcDbEntity
  8
Layer 1
 62
     7
420
 16777215
370
    35
100
AcDbVertex
100
AcDb2dVertex
 10
217.0185710014602
 20
479.1210580125947
 30
0.0
  0
VERTEX
  5
1D5
330
1D1
100
AcDbEntity
  8
Layer 1
 62
     7
420
 16777215
370
    35
100
AcDbVertex
100
AcDb2dVertex
 10
211.7088735712807
 20
487.749379633727
 30
0.0
  0
VERTEX
  5
1D6
330
1D1
100
AcDbEntity
  8
Layer 1
 62
     7
420
 16777215
370
    35
100
AcDbVertex
100
AcDb2dVertex
 10
203.7442430298933
 20
495.7140101751132
 30
0.0
  0
VERTEX
  5
1D7
330
1D1
100
AcDbEntity
  8
Layer 1
 62
     7
420
 16777215
370
    35
100
AcDbVertex
100
AcDb2dVertex
 10
195.1159214087623
 20
501.0237920014108
 30
0.0
  0
VERTEX
  5
1D8
330
1D1
100
AcDbEntity
  8
Layer 1
 62
     7
420
 16777215
370
    35
100
AcDbVertex
100
AcDb2dVertex
 10
185.1601332320277
 20
504.3423317962454
 30
0.0
  0
VERTEX
  5
1D9
330
1D1
100
AcDbEntity
  8
Layer 1
 62
     7
420
 16777215
370
    35
100
AcDbVertex
100
AcDb2dVertex
 10
174.5406539755501
 20
505.6697983518484
 30
0.0
  0
VERTEX
  5
1DA
330
1D1
100
AcDbEntity
  8
Layer 1
 62
     7
420
 16777215
370
    35
100
AcDbVertex
100
AcDb2dVertex
 10
163.9211747190726
 20
504.3423317962454
 30
0.0
  0
VERTEX
  5
1DB
330
1D1
100
AcDbEntity
  8
Layer 1
 62
     7
420
 16777215
370
    35
100
AcDbVertex
100
AcDb2dVertex
 10
153.965386542338
 20
501.0237920014108
 30
0.0
  0
VERTEX
  5
1DC
330
1D1
100
AcDbEntity
  8
Layer 1
 62
     7
420
 16777215
370
    35
100
AcDbVertex
100
AcDb2dVertex
 10
145.3370649212073
 20
495.7140101751132
 30
0.0
  0
VERTEX
  5
1DD
330
1D1
100
AcDbEntity
  8
Layer 1
 62
     7
420
 16777215
370
    35
100
AcDbVertex
100
AcDb2dVertex
 10
137.3724343798196
 20
487.749379633727
 30
0.0
  0
VERTEX
  5
1DE
330
1D1
100
AcDbEntity
  8
Layer 1
 62
     7
420
 16777215
370
    35
100
AcDbVertex
100
AcDb2dVertex
 10
132.0627369496401
 20
479.1210580125947
 30
0.0
  0
VERTEX
  5
1DF
330
1D1
100
AcDbEntity
  8
Layer 1
 62
     7
420
 16777215
370
    35
100
AcDbVertex
100
AcDb2dVertex
 10
128.7441127586889
 20
469.1652698358592
 30
0.0
  0
VERTEX
  5
1E0
330
1D1
100
AcDbEntity
  8
Layer 1
 62
     7
420
 16777215
370
    35
100
AcDbVertex
100
AcDb2dVertex
 10
127.4166462030844
 20
458.5457905793813
 30
0.0
  0
VERTEX
  5
1E1
330
1D1
100
AcDbEntity
  8
Layer 1
 62
     7
420
 16777215
370
    35
100
AcDbVertex
100
AcDb2dVertex
 10
128.7441127586889
 20
447.9263113229035
 30
0.0
  0
VERTEX
  5
1E2
330
1D1
100
AcDbEntity
  8
Layer 1
 62
     7
420
 16777215
370
    35
100
AcDbVertex
100
AcDb2dVertex
 10
132.0627369496401
 20
437.9705231461718
 30
0.0
  0
VERTEX
  5
1E3
330
1D1
100
AcDbEntity
  8
Layer 1
 62
     7
420
 16777215
370
    35
100
AcDbVertex
100
AcDb2dVertex
 10
137.3724343798196
 20
429.3422015250392
 30
0.0
  0
VERTEX
  5
1E4
330
1D1
100
AcDbEntity
  8
Layer 1
 62
     7
420
 16777215
370
    35
100
AcDbVertex
100
AcDb2dVertex
 10
145.3370649212073
 20
421.3775709836531
 30
0.0
  0
VERTEX
  5
1E5
330
1D1
100
AcDbEntity
  8
Layer 1
 62
     7
420
 16777215
370
    35
100
AcDbVertex
100
AcDb2dVertex
 10
153.965386542338
 20
416.0678735534732
 30
0.0
  0
VERTEX
  5
1E6
330
1D1
100
AcDbEntity
  8
Layer 1
 62
     7
420
 16777215
370
    35
100
AcDbVertex
100
AcDb2dVertex
 10
163.9211747190726
 20
412.7492493625208
 30
0.0
  0
VERTEX
  5
1E7
330
1D1
100
AcDbEntity
  8
Layer 1
 62
     7
420
 16777215
370
    35
100
AcDbVertex
100
AcDb2dVertex
 10
174.5406539755501
 20
411.4217828069178
 30
0.0
  0
VERTEX
  5
1E8
330
1D1
100
AcDbEntity
  8
Layer 1
 62
     7
420
 16777215
370
    35
100
AcDbVertex
100
AcDb2dVertex
 10
185.1601332320277
 20
412.7492493625208
 30
0.0
  0
VERTEX
  5
1E9
330
1D1
100
AcDbEntity
  8
Layer 1
 62
     7
420
 16777215
370
    35
100
AcDbVertex
100
AcDb2dVertex
 10
195.1159214087623
 20
416.0678735534732
 30
0.0
  0
VERTEX
  5
1EA
330
1D1
100
AcDbEntity
  8
Layer 1
 62
     7
420
 16777215
370
    35
100
AcDbVertex
100
AcDb2dVertex
 10
203.7442430298933
 20
421.3775709836531
 30
0.0
  0
VERTEX
  5
1EB
330
1D1
100
AcDbEntity
  8
Layer 1
 62
     7
420
 16777215
370
    35
100
AcDbVertex
100
AcDb2dVertex
 10
211.7088735712807
 20
429.3422015250392
 30
0.0
  0
VERTEX
  5
1EC
330
1D1
100
AcDbEntity
  8
Layer 1
 62
     7
420
 16777215
370
    35
100
AcDbVertex
100
AcDb2dVertex
 10
217.0185710014602
 20
437.9705231461718
 30
0.0
  0
VERTEX
  5
1ED
330
1D1
100
AcDbEntity
  8
Layer 1
 62
     7
420
 16777215
370
    35
100
AcDbVertex
100
AcDb2dVertex
 10
220.3371951924117
 20
447.9263113229035
 30
0.0
  0
VERTEX
  5
1EE
330
1D1
100
AcDbEntity
  8
Layer 1
 62
     7
420
 16777215
370
    35
100
AcDbVertex
100
AcDb2dVertex
 10
221.6646617480159
 20
458.5457905793813
 30
0.0
  0
SEQEND
  5
1EF
330
1D1
100
AcDbEntity
  8
Layer 1
 62
     7
420
 16777215
370
    35
  0
POLYLINE
  5
1F0
330
55
100
AcDbEntity
  8
Layer 1
 62
     7
420
 16777215
370
    35
100
AcDb2dPolyline
 66
     1
 10
0.0
 20
0.0
 30
0.0
  0
VERTEX
  5
1F1
330
1F0
100
AcDbEntity
  8
Layer 1
 62
     7
420
 16777215
370
    35
100
AcDbVertex
100
AcDb2dVertex
 10
230.9566744488892
 20
458.5457905793813
 30
0.0
  0
VERTEX
  5
1F2
330
1F0
100
AcDbEntity
  8
Layer 1
 62
     7
420
 16777215
370
    35
100
AcDbVertex
100
AcDb2dVertex
 10
229.629292289404
 20
471.1564274712086
 30
0.0
  0
VERTEX
  5
1F3
330
1F0
100
AcDbEntity
  8
Layer 1
 62
     7
420
 16777215
370
    35
100
AcDbVertex
100
AcDb2dVertex
 10
225.6469770187096
 20
483.1033732832894
 30
0.0
  0
VERTEX
  5
1F4
330
1F0
100
AcDbEntity
  8
Layer 1
 62
     7
420
 16777215
370
    35
100
AcDbVertex
100
AcDb2dVertex
 10
219.0097286368074
 20
493.7228525397672
 30
0.0
  0
VERTEX
  5
1F5
330
1F0
100
AcDbEntity
  8
Layer 1
 62
     7
420
 16777215
370
    35
100
AcDbVertex
100
AcDb2dVertex
 10
209.7177159359341
 20
503.0149496367603
 30
0.0
  0
VERTEX
  5
1F6
330
1F0
100
AcDbEntity
  8
Layer 1
 62
     7
420
 16777215
370
    35
100
AcDbVertex
100
AcDb2dVertex
 10
199.0982366794566
 20
509.6521136225431
 30
0.0
  0
VERTEX
  5
1F7
330
1F0
100
AcDbEntity
  8
Layer 1
 62
     7
420
 16777215
370
    35
100
AcDbVertex
100
AcDb2dVertex
 10
187.1512908673749
 20
513.6344288932346
 30
0.0
  0
VERTEX
  5
1F8
330
1F0
100
AcDbEntity
  8
Layer 1
 62
     7
420
 16777215
370
    35
100
AcDbVertex
100
AcDb2dVertex
 10
174.5406539755501
 20
514.9618110527233
 30
0.0
  0
VERTEX
  5
1F9
330
1F0
100
AcDbEntity
  8
Layer 1
 62
     7
420
 16777215
370
    35
100
AcDbVertex
100
AcDb2dVertex
 10
161.9300170837254
 20
513.6344288932346
 30
0.0
  0
VERTEX
  5
1FA
330
1F0
100
AcDbEntity
  8
Layer 1
 62
     7
420
 16777215
370
    35
100
AcDbVertex
100
AcDb2dVertex
 10
149.9830712716437
 20
509.6521136225431
 30
0.0
  0
VERTEX
  5
1FB
330
1F0
100
AcDbEntity
  8
Layer 1
 62
     7
420
 16777215
370
    35
100
AcDbVertex
100
AcDb2dVertex
 10
139.3635920151665
 20
503.0149496367603
 30
0.0
  0
VERTEX
  5
1FC
330
1F0
100
AcDbEntity
  8
Layer 1
 62
     7
420
 16777215
370
    35
100
AcDbVertex
100
AcDb2dVertex
 10
130.0715793142932
 20
493.7228525397672
 30
0.0
  0
VERTEX
  5
1FD
330
1F0
100
AcDbEntity
  8
Layer 1
 62
     7
420
 16777215
370
    35
100
AcDbVertex
100
AcDb2dVertex
 10
123.4343309323906
 20
483.1033732832894
 30
0.0
  0
VERTEX
  5
1FE
330
1F0
100
AcDbEntity
  8
Layer 1
 62
     7
420
 16777215
370
    35
100
AcDbVertex
100
AcDb2dVertex
 10
119.4520156616969
 20
471.1564274712086
 30
0.0
  0
VERTEX
  5
1FF
330
1F0
100
AcDbEntity
  8
Layer 1
 62
     7
420
 16777215
370
    35
100
AcDbVertex
100
AcDb2dVertex
 10
118.1246335022117
 20
458.5457905793813
 30
0.0
  0
VERTEX
  5
200
330
1F0
100
AcDbEntity
  8
Layer 1
 62
     7
420
 16777215
370
    35
100
AcDbVertex
100
AcDb2dVertex
 10
119.4520156616969
 20
445.9351536875579
 30
0.0
  0
VERTEX
  5
201
330
1F0
100
AcDbEntity
  8
Layer 1
 62
     7
420
 16777215
370
    35
100
AcDbVertex
100
AcDb2dVertex
 10
123.4343309323906
 20
433.9882078754768
 30
0.0
  0
VERTEX
  5
202
330
1F0
100
AcDbEntity
  8
Layer 1
 62
     7
420
 16777215
370
    35
100
AcDbVertex
100
AcDb2dVertex
 10
130.0715793142932
 20
423.3687286189986
 30
0.0
  0
VERTEX
  5
203
330
1F0
100
AcDbEntity
  8
Layer 1
 62
     7
420
 16777215
370
    35
100
AcDbVertex
100
AcDb2dVertex
 10
139.3635920151665
 20
414.0767159181241
 30
0.0
  0
VERTEX
  5
204
330
1F0
100
AcDbEntity
  8
Layer 1
 62
     7
420
 16777215
370
    35
100
AcDbVertex
100
AcDb2dVertex
 10
149.9830712716437
 20
407.4395519323409
 30
0.0
  0
VERTEX
  5
205
330
1F0
100
AcDbEntity
  8
Layer 1
 62
     7
420
 16777215
370
    35
100
AcDbVertex
100
AcDb2dVertex
 10
161.9300170837254
 20
403.4572366616494
 30
0.0
  0
VERTEX
  5
206
330
1F0
100
AcDbEntity
  8
Layer 1
 62
     7
420
 16777215
370
    35
100
AcDbVertex
100
AcDb2dVertex
 10
174.5406539755501
 20
402.1297701060429
 30
0.0
  0
VERTEX
  5
207
330
1F0
100
AcDbEntity
  8
Layer 1
 62
     7
420
 16777215
370
    35
100
AcDbVertex
100
AcDb2dVertex
 10
187.1512908673749
 20
403.4572366616494
 30
0.0
  0
VERTEX
  5
208
330
1F0
100
AcDbEntity
  8
Layer 1
 62
     7
420
 16777215
370
    35
100
AcDbVertex
100
AcDb2dVertex
 10
199.0982366794566
 20
407.4395519323409
 30
0.0
  0
VERTEX
  5
209
330
1F0
100
AcDbEntity
  8
Layer 1
 62
     7
420
 16777215
370
    35
100
AcDbVertex
100
AcDb2dVertex
 10
209.7177159359341
 20
414.0767159181241
 30
0.0
  0
VERTEX
  5
20A
330
1F0
100
AcDbEntity
  8
Layer 1
 62
     7
420
 16777215
370
    35
100
AcDbVertex
100
AcDb2dVertex
 10
219.0097286368074
 20
423.3687286189986
 30
0.0
  0
VERTEX
  5
20B
330
1F0
100
AcDbEntity
  8
Layer 1
 62
     7
420
 16777215
370
    35
100
AcDbVertex
100
AcDb2dVertex
 10
225.6469770187096
 20
433.9882078754768
 30
0.0
  0
VERTEX
  5
20C
330
1F0
100
AcDbEntity
  8
Layer 1
 62
     7
420
 16777215
370
    35
100
AcDbVertex
100
AcDb2dVertex
 10
229.629292289404
 20
445.9351536875579
 30
0.0
  0
VERTEX
  5
20D
330
1F0
100
AcDbEntity
  8
Layer 1
 62
     7
420
 16777215
370
    35
100
AcDbVertex
100
AcDb2dVertex
 10
230.9566744488892
 20
458.5457905793813
 30
0.0
  0
SEQEND
  5
20E
330
1F0
100
AcDbEntity
  8
Layer 1
 62
     7
420
 16777215
370
    35
  0
POLYLINE
  5
20F
330
55
100
AcDbEntity
  8
Layer 1
 62
     7
420
 16777215
370
    25
100
AcDb2dPolyline
 66
     1
 10
0.0
 20
0.0
 30
0.0
  0
VERTEX
  5
210
330
20F
100
AcDbEntity
  8
Layer 1
 62
     7
420
 16777215
370
    25
100
AcDbVertex
100
AcDb2dVertex
 10
203.7442430298933
 20
410.0944006474326
 30
0.0
  0
VERTEX
  5
211
330
20F
100
AcDbEntity
  8
Layer 1
 62
     7
420
 16777215
370
    25
100
AcDbVertex
100
AcDb2dVertex
 10
314.5852107373432
 20
243.501145744445
 30
0.0
  0
SEQEND
  5
212
330
20F
100
AcDbEntity
  8
Layer 1
 62
     7
420
 16777215
370
    25
  0
POLYLINE
  5
213
330
55
100
AcDbEntity
  8
Layer 1
 62
     7
420
 16777215
370
    25
100
AcDb2dPolyline
 66
     1
 10
0.0
 20
0.0
 30
0.0
  0
VERTEX
  5
214
330
213
100
AcDbEntity
  8
Layer 1
 62
     7
420
 16777215
370
    25
100
AcDbVertex
100
AcDb2dVertex
 10
34.49609721375769
 20
243.501145744445
 30
0.0
  0
VERTEX
  5
215
330
213
100
AcDbEntity
  8
Layer 1
 62
     7
420
 16777215
370
    25
100
AcDbVertex
100
AcDb2dVertex
 10
145.3370649212073
 20
410.0944006474326
 30
0.0
  0
SEQEND
  5
216
330
213
100
AcDbEntity
  8
Layer 1
 62
     7
420
 16777215
370
    25
  0
POLYLINE
  5
217
330
55
100
AcDbEntity
  8
Layer 1
 62
     7
420
 16777215
370
    25
100
AcDb2dPolyline
 66
     1
 10
0.0
 20
0.0
 30
0.0
  0
VERTEX
  5
218
330
217
100
AcDbEntity
  8
Layer 1
 62
     7
420
 16777215
370
    25
100
AcDbVertex
100
AcDb2dVertex
 10
221.6646617480159
 20
489.7405372690726
 30
0.0
  0
VERTEX
  5
219
330
217
100
AcDbEntity
  8
Layer 1
 62
     7
420
 16777215
370
    25
100
AcDbVertex
100
AcDb2dVertex
 10
314.5852107373432
 20
568.7229828109699
 30
0.0
  0
SEQEND
  5
21A
330
217
100
AcDbEntity
  8
Layer 1
 62
     7
420
 16777215
370
    25
  0
POLYLINE
  5
21B
330
55
100
AcDbEntity
  8
Layer 1
 62
     7
420
 16777215
370
    25
100
AcDb2dPolyline
 66
     1
 10
0.0
 20
0.0
 30
0.0
  0
VERTEX
  5
21C
330
21B
100
AcDbEntity
  8
Layer 1
 62
     7
420
 16777215
370
    25
100
AcDbVertex
100
AcDb2dVertex
 10
34.49609721375769
 20
568.7229828109699
 30
0.0
  0
VERTEX
  5
21D
330
21B
100
AcDbEntity
  8
Layer 1
 62
     7
420
 16777215
370
    25
100
AcDbVertex
100
AcDb2dVertex
 10
127.4166462030844
 20
489.7405372690726
 30
0.0
  0
SEQEND
  5
21E
330
21B
100
AcDbEntity
  8
Layer 1
 62
     7
420
 16777215
370
    25
  0
POLYLINE
  5
21F
330
55
100
AcDbEntity
  8
Layer 1
 62
     7
420
 16777215
370
    35
100
AcDb2dPolyline
 66
     1
 10
0.0
 20
0.0
 30
0.0
  0
VERTEX
  5
220
330
21F
100
AcDbEntity
  8
Layer 1
 62
     7
420
 16777215
370
    35
100
AcDbVertex
100
AcDb2dVertex
 10
76.31040755604391
 20
629.1213185550031
 30
0.0
  0
VERTEX
  5
221
330
21F
100
AcDbEntity
  8
Layer 1
 62
     7
420
 16777215
370
    35
100
AcDbVertex
100
AcDb2dVertex
 10
74.98294100043965
 20
635.7585669369075
 30
0.0
  0
VERTEX
  5
222
330
21F
100
AcDbEntity
  8
Layer 1
 62
     7
420
 16777215
370
    35
100
AcDbVertex
100
AcDb2dVertex
 10
71.66431680948823
 20
641.0682643670839
 30
0.0
  0
VERTEX
  5
223
330
21F
100
AcDbEntity
  8
Layer 1
 62
     7
420
 16777215
370
    35
100
AcDbVertex
100
AcDb2dVertex
 10
65.6909282995664
 20
645.0505796377789
 30
0.0
  0
VERTEX
  5
224
330
21F
100
AcDbEntity
  8
Layer 1
 62
     7
420
 16777215
370
    35
100
AcDbVertex
100
AcDb2dVertex
 10
59.05367991766384
 20
646.3780461933818
 30
0.0
  0
VERTEX
  5
225
330
21F
100
AcDbEntity
  8
Layer 1
 62
     7
420
 16777215
370
    35
100
AcDbVertex
100
AcDb2dVertex
 10
52.41651593188035
 20
645.0505796377789
 30
0.0
  0
VERTEX
  5
226
330
21F
100
AcDbEntity
  8
Layer 1
 62
     7
420
 16777215
370
    35
100
AcDbVertex
100
AcDb2dVertex
 10
46.44304302583978
 20
641.0682643670839
 30
0.0
  0
VERTEX
  5
227
330
21F
100
AcDbEntity
  8
Layer 1
 62
     7
420
 16777215
370
    35
100
AcDbVertex
100
AcDb2dVertex
 10
43.12450323100709
 20
635.7585669369075
 30
0.0
  0
VERTEX
  5
228
330
21F
100
AcDbEntity
  8
Layer 1
 62
     7
420
 16777215
370
    35
100
AcDbVertex
100
AcDb2dVertex
 10
41.79703667540283
 20
629.1213185550031
 30
0.0
  0
VERTEX
  5
229
330
21F
100
AcDbEntity
  8
Layer 1
 62
     7
420
 16777215
370
    35
100
AcDbVertex
100
AcDb2dVertex
 10
43.12450323100709
 20
622.4841545692199
 30
0.0
  0
VERTEX
  5
22A
330
21F
100
AcDbEntity
  8
Layer 1
 62
     7
420
 16777215
370
    35
100
AcDbVertex
100
AcDb2dVertex
 10
46.44304302583978
 20
616.5106816631793
 30
0.0
  0
VERTEX
  5
22B
330
21F
100
AcDbEntity
  8
Layer 1
 62
     7
420
 16777215
370
    35
100
AcDbVertex
100
AcDb2dVertex
 10
52.41651593188035
 20
612.5283663924847
 30
0.0
  0
VERTEX
  5
22C
330
21F
100
AcDbEntity
  8
Layer 1
 62
     7
420
 16777215
370
    35
100
AcDbVertex
100
AcDb2dVertex
 10
59.05367991766384
 20
611.2009842329994
 30
0.0
  0
VERTEX
  5
22D
330
21F
100
AcDbEntity
  8
Layer 1
 62
     7
420
 16777215
370
    35
100
AcDbVertex
100
AcDb2dVertex
 10
65.6909282995664
 20
612.5283663924847
 30
0.0
  0
VERTEX
  5
22E
330
21F
100
AcDbEntity
  8
Layer 1
 62
     7
420
 16777215
370
    35
100
AcDbVertex
100
AcDb2dVertex
 10
71.66431680948823
 20
616.5106816631793
 30
0.0
  0
VERTEX
  5
22F
330
21F
100
AcDbEntity
  8
Layer 1
 62
     7
420
 16777215
370
    35
100
AcDbVertex
100
AcDb2dVertex
 10
74.98294100043965
 20
622.4841545692199
 30
0.0
  0
VERTEX
  5
230
330
21F
100
AcDbEntity
  8
Layer 1
 62
     7
420
 16777215
370
    35
100
AcDbVertex
100
AcDb2dVertex
 10
76.31040755604391
 20
629.1213185550031
 30
0.0
  0
SEQEND
  5
231
330
21F
100
AcDbEntity
  8
Layer 1
 62
     7
420
 16777215
370
    35
  0
MTEXT
  5
232
330
55
100
AcDbEntity
  8
Layer 1
 62
     7
420
 16777215
100
AcDbMText
 10
-535.5699793854218
 20
413.5862645280868
 30
0.0
 40
20.77763607929859
 41
0.0
 46
0.0
 71
     7
 72
     1
  1
\fMyriad Pro|b0|i0|c0|p34;\W1;405
 11
6.123233995736766E-17
 21
1.0
 31
0.0
 73
     1
 44
1.0
  0
MTEXT
  5
233
330
55
100
AcDbEntity
  8
Layer 1
 62
     7
420
 16777215
100
AcDbMText
 10
-487.879048882479
 20
560.5828098591084
 30
0.0
 40
20.77763607929859
 41
0.0
 46
0.0
 71
     7
 72
     1
  1
\fMyriad Pro|b0|i0|c0|p34;\W1;167.5
 11
6.123233995736766E-17
 21
1.0
 31
0.0
 73
     1
 44
1.0
  0
MTEXT
  5
234
330
55
100
AcDbEntity
  8
Layer 1
 62
     7
420
 16777215
100
AcDbMText
 10
-582.036092315971
 20
413.5862645280868
 30
0.0
 40
20.77763607929859
 41
0.0
 46
0.0
 71
     7
 72
     1
  1
\fMyriad Pro|b0|i0|c0|p34;\W1;500
 11
6.123233995736766E-17
 21
1.0
 31
0.0
 73
     1
 44
1.0
  0
POLYLINE
  5
235
330
55
100
AcDbEntity
  8
Layer 1
 62
     7
420
 16777215
370
    20
100
AcDb2dPolyline
 66
     1
 10
0.0
 20
0.0
 30
0.0
  0
VERTEX
  5
236
330
235
100
AcDbEntity
  8
Layer 1
 62
     7
420
 16777215
370
    20
100
AcDbVertex
100
AcDb2dVertex
 10
-434.0387045952942
 20
686.201114524349
 30
0.0
  0
VERTEX
  5
237
330
235
100
AcDbEntity
  8
Layer 1
 62
     7
420
 16777215
370
    20
100
AcDbVertex
100
AcDb2dVertex
 10
-601.0332478991035
 20
686.2011145329391
 30
0.0
  0
SEQEND
  5
238
330
235
100
AcDbEntity
  8
Layer 1
 62
     7
420
 16777215
370
    20
  0
POLYLINE
  5
239
330
55
100
AcDbEntity
  8
Layer 1
 62
     7
420
 16777215
370
    20
100
AcDb2dPolyline
 66
     1
 10
0.0
 20
0.0
 30
0.0
  0
VERTEX
  5
23A
330
239
100
AcDbEntity
  8
Layer 1
 62
     7
420
 16777215
370
    20
100
AcDbVertex
100
AcDb2dVertex
 10
-434.0387045952942
 20
186.12916031894
 30
0.0
  0
VERTEX
  5
23B
330
239
100
AcDbEntity
  8
Layer 1
 62
     7
420
 16777215
370
    20
100
AcDbVertex
100
AcDb2dVertex
 10
-601.033247923925
 20
186.1291603260263
 30
0.0
  0
SEQEND
  5
23C
330
239
100
AcDbEntity
  8
Layer 1
 62
     7
420
 16777215
370
    20
  0
INSERT
  5
23E
330
55
100
AcDbEntity
  8
Layer 1
100
AcDbBlockReference
  2
block 3
 10
0.0
 20
0.0
 30
0.0
  0
INSERT
  5
251
330
55
100
AcDbEntity
  8
Layer 1
100
AcDbBlockReference
  2
block 5
 10
0.0
 20
0.0
 30
0.0
  0
INSERT
  5
264
330
55
100
AcDbEntity
  8
Layer 1
100
AcDbBlockReference
  2
block 7
 10
0.0
 20
0.0
 30
0.0
  0
INSERT
  5
277
330
55
100
AcDbEntity
  8
Layer 1
100
AcDbBlockReference
  2
block 9
 10
0.0
 20
0.0
 30
0.0
  0
INSERT
  5
28A
330
55
100
AcDbEntity
  8
Layer 1
100
AcDbBlockReference
  2
block 11
 10
0.0
 20
0.0
 30
0.0
  0
INSERT
  5
29D
330
55
100
AcDbEntity
  8
Layer 1
100
AcDbBlockReference
  2
block 13
 10
0.0
 20
0.0
 30
0.0
  0
MTEXT
  5
2AF
330
55
100
AcDbEntity
  8
Layer 1
 62
     7
420
 16777215
100
AcDbMText
 10
-306.379683863021
 20
305.6533177777262
 30
0.0
 40
20.77763607929859
 41
0.0
 46
0.0
 71
     7
 72
     1
  1
\fMyriad Pro|b0|i0|c0|p34;\W1;R18
 73
     1
 44
1.0
  0
INSERT
  5
2B1
330
55
100
AcDbEntity
  8
Layer 1
100
AcDbBlockReference
  2
block 15
 10
0.0
 20
0.0
 30
0.0
  0
POLYLINE
  5
2C4
330
55
100
AcDbEntity
  8
Layer 1
 62
     7
420
 16777215
370
    20
100
AcDb2dPolyline
 66
     1
 10
0.0
 20
0.0
 30
0.0
  0
VERTEX
  5
2C5
330
2C4
100
AcDbEntity
  8
Layer 1
 62
     7
420
 16777215
370
    20
100
AcDbVertex
100
AcDb2dVertex
 10
-434.0387045952942
 20
518.6122807717412
 30
0.0
  0
VERTEX
  5
2C6
330
2C4
100
AcDbEntity
  8
Layer 1
 62
     7
420
 16777215
370
    20
100
AcDbVertex
100
AcDb2dVertex
 10
-528.7886200308697
 20
518.6122807791672
 30
0.0
  0
SEQEND
  5
2C7
330
2C4
100
AcDbEntity
  8
Layer 1
 62
     7
420
 16777215
370
    20
  0
POLYLINE
  5
2C8
330
55
100
AcDbEntity
  8
Layer 1
 62
     7
420
 16777215
370
    20
100
AcDb2dPolyline
 66
     1
 10
0.0
 20
0.0
 30
0.0
  0
VERTEX
  5
2C9
330
2C8
100
AcDbEntity
  8
Layer 1
 62
     7
420
 16777215
370
    20
100
AcDbVertex
100
AcDb2dVertex
 10
-434.0387045952942
 20
638.6590591230791
 30
0.0
  0
VERTEX
  5
2CA
330
2C8
100
AcDbEntity
  8
Layer 1
 62
     7
420
 16777215
370
    20
100
AcDbVertex
100
AcDb2dVertex
 10
-564.0561102872834
 20
638.6590591305123
 30
0.0
  0
SEQEND
  5
2CB
330
2C8
100
AcDbEntity
  8
Layer 1
 62
     7
420
 16777215
370
    20
  0
POLYLINE
  5
2CC
330
55
100
AcDbEntity
  8
Layer 1
 62
     7
420
 16777215
370
    20
100
AcDb2dPolyline
 66
     1
 10
0.0
 20
0.0
 30
0.0
  0
VERTEX
  5
2CD
330
2CC
100
AcDbEntity
  8
Layer 1
 62
     7
420
 16777215
370
    20
100
AcDbVertex
100
AcDb2dVertex
 10
-434.0387045952942
 20
233.6712157168049
 30
0.0
  0
VERTEX
  5
2CE
330
2CC
100
AcDbEntity
  8
Layer 1
 62
     7
420
 16777215
370
    20
100
AcDbVertex
100
AcDb2dVertex
 10
-564.0561103070246
 20
233.6712157251304
 30
0.0
  0
SEQEND
  5
2CF
330
2CC
100
AcDbEntity
  8
Layer 1
 62
     7
420
 16777215
370
    20
  0
MTEXT
  5
2D0
330
55
100
AcDbEntity
  8
Layer 1
 62
     7
420
 16777215
100
AcDbMText
 10
856.6739798205538
 20
435.7096665034858
 30
0.0
 40
20.77763607929859
 41
0.0
 46
0.0
 71
     7
 72
     1
  1
\fMyriad Pro|b0|i0|c0|p34;\W1;345
 11
-1.836970198721030E-16
 21
-1.0
 31
0.0
 73
     1
 44
1.0
  0
INSERT
  5
2D2
330
55
100
AcDbEntity
  8
Layer 1
100
AcDbBlockReference
  2
block 17
 10
0.0
 20
0.0
 30
0.0
  0
INSERT
  5
2E5
330
55
100
AcDbEntity
  8
Layer 1
100
AcDbBlockReference
  2
block 19
 10
0.0
 20
0.0
 30
0.0
  0
POLYLINE
  5
2F7
330
55
100
AcDbEntity
  8
Layer 1
 62
     7
420
 16777215
370
    20
100
AcDb2dPolyline
 66
     1
 10
0.0
 20
0.0
 30
0.0
  0
VERTEX
  5
2F8
330
2F7
100
AcDbEntity
  8
Layer 1
 62
     7
420
 16777215
370
    20
100
AcDbVertex
100
AcDb2dVertex
 10
804.3351311448213
 20
232.8606531406306
 30
0.0
  0
VERTEX
  5
2F9
330
2F7
100
AcDbEntity
  8
Layer 1
 62
     7
420
 16777215
370
    20
100
AcDbVertex
100
AcDb2dVertex
 10
885.1602486685189
 20
232.8606531531999
 30
0.0
  0
SEQEND
  5
2FA
330
2F7
100
AcDbEntity
  8
Layer 1
 62
     7
420
 16777215
370
    20
  0
POLYLINE
  5
2FB
330
55
100
AcDbEntity
  8
Layer 1
 62
     7
420
 16777215
370
    20
100
AcDb2dPolyline
 66
     1
 10
0.0
 20
0.0
 30
0.0
  0
VERTEX
  5
2FC
330
2FB
100
AcDbEntity
  8
Layer 1
 62
     7
420
 16777215
370
    20
100
AcDbVertex
100
AcDb2dVertex
 10
804.3351311449098
 20
578.6787716504405
 30
0.0
  0
VERTEX
  5
2FD
330
2FB
100
AcDbEntity
  8
Layer 1
 62
     7
420
 16777215
370
    20
100
AcDbVertex
100
AcDb2dVertex
 10
885.1602486518957
 20
578.6787716639097
 30
0.0
  0
SEQEND
  5
2FE
330
2FB
100
AcDbEntity
  8
Layer 1
 62
     7
420
 16777215
370
    20
  0
MTEXT
  5
2FF
330
55
100
AcDbEntity
  8
Layer 1
 62
     7
420
 16777215
100
AcDbMText
 10
200.846290527571
 20
79.64179032771868
 30
0.0
 40
20.77763607929859
 41
0.0
 46
0.0
 71
     7
 72
     1
  1
\fMyriad Pro|b0|i0|c0|p34;\W1;1200
 73
     1
 44
1.0
  0
MTEXT
  5
300
330
55
100
AcDbEntity
  8
Layer 1
 62
     7
420
 16777215
100
AcDbMText
 10
-209.4191293828666
 20
124.7986377827923
 30
0.0
 40
20.77763607929859
 41
0.0
 46
0.0
 71
     7
 72
     1
  1
\fMyriad Pro|b0|i0|c0|p34;\W1;355
 73
     1
 44
1.0
  0
MTEXT
  5
301
330
55
100
AcDbEntity
  8
Layer 1
 62
     7
420
 16777215
100
AcDbMText
 10
-405.3368864953455
 20
124.7986377827923
 30
0.0
 40
20.77763607929859
 41
0.0
 46
0.0
 71
     7
 72
     1
  1
\fMyriad Pro|b0|i0|c0|p34;\W1;47
 73
     1
 44
1.0
  0
MTEXT
  5
302
330
55
100
AcDbEntity
  8
Layer 1
 62
     7
420
 16777215
100
AcDbMText
 10
-5.93559807523051
 20
124.7986377827923
 30
0.0
 40
20.77763607929859
 41
0.0
 46
0.0
 71
     7
 72
     1
  1
\fMyriad Pro|b0|i0|c0|p34;\W1;35
 73
     1
 44
1.0
  0
MTEXT
  5
303
330
55
100
AcDbEntity
  8
Layer 1
 62
     7
420
 16777215
100
AcDbMText
 10
151.9600828002804
 20
124.9045744689637
 30
0.0
 40
20.77763607929859
 41
0.0
 46
0.0
 71
     7
 72
     1
  1
\fMyriad Pro|b0|i0|c0|p34;\W1;300
 73
     1
 44
1.0
  0
MTEXT
  5
304
330
55
100
AcDbEntity
  8
Layer 1
 62
     7
420
 16777215
100
AcDbMText
 10
548.8747766606058
 20
124.9045744689637
 30
0.0
 40
20.77763607929859
 41
0.0
 46
0.0
 71
     7
 72
     1
  1
\fMyriad Pro|b0|i0|c0|p34;\W1;463
 73
     1
 44
1.0
  0
POLYLINE
  5
305
330
55
100
AcDbEntity
  8
Layer 1
 62
     7
420
 16777215
370
    20
100
AcDb2dPolyline
 66
     1
 10
0.0
 20
0.0
 30
0.0
  0
VERTEX
  5
306
330
305
100
AcDbEntity
  8
Layer 1
 62
     7
420
 16777215
370
    20
100
AcDbVertex
100
AcDb2dVertex
 10
786.8589121444762
 20
167.0507557826243
 30
0.0
  0
VERTEX
  5
307
330
305
100
AcDbEntity
  8
Layer 1
 62
     7
420
 16777215
370
    20
100
AcDbVertex
100
AcDb2dVertex
 10
786.8589121393112
 20
73.84748744803875
 30
0.0
  0
SEQEND
  5
308
330
305
100
AcDbEntity
  8
Layer 1
 62
     7
420
 16777215
370
    20
  0
POLYLINE
  5
309
330
55
100
AcDbEntity
  8
Layer 1
 62
     7
420
 16777215
370
    20
100
AcDb2dPolyline
 66
     1
 10
0.0
 20
0.0
 30
0.0
  0
VERTEX
  5
30A
330
309
100
AcDbEntity
  8
Layer 1
 62
     7
420
 16777215
370
    20
100
AcDbVertex
100
AcDb2dVertex
 10
-412.0869504515778
 20
168.9175171345299
 30
0.0
  0
VERTEX
  5
30B
330
309
100
AcDbEntity
  8
Layer 1
 62
     7
420
 16777215
370
    20
100
AcDbVertex
100
AcDb2dVertex
 10
-412.0869504568485
 20
74.02587934568021
 30
0.0
  0
SEQEND
  5
30C
330
309
100
AcDbEntity
  8
Layer 1
 62
     7
420
 16777215
370
    20
  0
POLYLINE
  5
30D
330
55
100
AcDbEntity
  8
Layer 1
 62
     7
420
 16777215
370
    20
100
AcDb2dPolyline
 66
     1
 10
0.0
 20
0.0
 30
0.0
  0
VERTEX
  5
30E
330
30D
100
AcDbEntity
  8
Layer 1
 62
     7
420
 16777215
370
    20
100
AcDbVertex
100
AcDb2dVertex
 10
-11.50111846851867
 20
167.0507462002718
 30
0.0
  0
VERTEX
  5
30F
330
30D
100
AcDbEntity
  8
Layer 1
 62
     7
420
 16777215
370
    20
100
AcDbVertex
100
AcDb2dVertex
 10
-11.50111847394552
 20
116.0675726255627
 30
0.0
  0
SEQEND
  5
310
330
30D
100
AcDbEntity
  8
Layer 1
 62
     7
420
 16777215
370
    20
  0
POLYLINE
  5
311
330
55
100
AcDbEntity
  8
Layer 1
 62
     7
420
 16777215
370
    20
100
AcDb2dPolyline
 66
     1
 10
0.0
 20
0.0
 30
0.0
  0
VERTEX
  5
312
330
311
100
AcDbEntity
  8
Layer 1
 62
     7
420
 16777215
370
    20
100
AcDbVertex
100
AcDb2dVertex
 10
-367.1724429716606
 20
167.0507555467011
 30
0.0
  0
VERTEX
  5
313
330
311
100
AcDbEntity
  8
Layer 1
 62
     7
420
 16777215
370
    20
100
AcDbVertex
100
AcDb2dVertex
 10
-367.1724429770865
 20
116.0675819719913
 30
0.0
  0
SEQEND
  5
314
330
311
100
AcDbEntity
  8
Layer 1
 62
     7
420
 16777215
370
    20
  0
POLYLINE
  5
315
330
55
100
AcDbEntity
  8
Layer 1
 62
     7
420
 16777215
370
    20
100
AcDb2dPolyline
 66
     1
 10
0.0
 20
0.0
 30
0.0
  0
VERTEX
  5
316
330
315
100
AcDbEntity
  8
Layer 1
 62
     7
420
 16777215
370
    20
100
AcDbVertex
100
AcDb2dVertex
 10
324.2027781848464
 20
168.9175171345299
 30
0.0
  0
VERTEX
  5
317
330
315
100
AcDbEntity
  8
Layer 1
 62
     7
420
 16777215
370
    20
100
AcDbVertex
100
AcDb2dVertex
 10
324.2027781798405
 20
119.9483891794874
 30
0.0
  0
SEQEND
  5
318
330
315
100
AcDbEntity
  8
Layer 1
 62
     7
420
 16777215
370
    20
  0
POLYLINE
  5
319
330
55
100
AcDbEntity
  8
Layer 1
 62
     7
420
 16777215
370
    20
100
AcDb2dPolyline
 66
     1
 10
0.0
 20
0.0
 30
0.0
  0
VERTEX
  5
31A
330
319
100
AcDbEntity
  8
Layer 1
 62
     7
420
 16777215
370
    20
100
AcDbVertex
100
AcDb2dVertex
 10
24.34166667718329
 20
168.9175168986067
 30
0.0
  0
VERTEX
  5
31B
330
319
100
AcDbEntity
  8
Layer 1
 62
     7
420
 16777215
370
    20
100
AcDbVertex
100
AcDb2dVertex
 10
24.34166667183601
 20
119.6951629547803
 30
0.0
  0
SEQEND
  5
31C
330
319
100
AcDbEntity
  8
Layer 1
 62
     7
420
 16777215
370
    20
  0
INSERT
  5
31E
330
55
100
AcDbEntity
  8
Layer 1
100
AcDbBlockReference
  2
block 21
 10
0.0
 20
0.0
 30
0.0
  0
INSERT
  5
331
330
55
100
AcDbEntity
  8
Layer 1
100
AcDbBlockReference
  2
block 23
 10
0.0
 20
0.0
 30
0.0
  0
INSERT
  5
344
330
55
100
AcDbEntity
  8
Layer 1
100
AcDbBlockReference
  2
block 25
 10
0.0
 20
0.0
 30
0.0
  0
INSERT
  5
357
330
55
100
AcDbEntity
  8
Layer 1
100
AcDbBlockReference
  2
block 27
 10
0.0
 20
0.0
 30
0.0
  0
INSERT
  5
36A
330
55
100
AcDbEntity
  8
Layer 1
100
AcDbBlockReference
  2
block 29
 10
0.0
 20
0.0
 30
0.0
  0
INSERT
  5
37D
330
55
100
AcDbEntity
  8
Layer 1
100
AcDbBlockReference
  2
block 31
 10
0.0
 20
0.0
 30
0.0
  0
INSERT
  5
390
330
55
100
AcDbEntity
  8
Layer 1
100
AcDbBlockReference
  2
block 33
 10
0.0
 20
0.0
 30
0.0
  0
INSERT
  5
3A3
330
55
100
AcDbEntity
  8
Layer 1
100
AcDbBlockReference
  2
block 35
 10
0.0
 20
0.0
 30
0.0
  0
ENDBLK
  5
58
330
55
100
AcDbEntity
  8
0
100
AcDbBlockEnd
  0
BLOCK
  5
23F
330
23D
100
AcDbEntity
  8
0
100
AcDbBlockBegin
  2
block 3
 70
     0
 10
0.0
 20
0.0
 30
0.0
  3
block 3
  1

  0
POLYLINE
  5
241
330
23D
100
AcDbEntity
  8
Layer 1
 62
     7
420
 16777215
370
    20
100
AcDb2dPolyline
 66
     1
 10
0.0
 20
0.0
 30
0.0
  0
VERTEX
  5
242
330
241
100
AcDbEntity
  8
Layer 1
 62
     7
420
 16777215
370
    20
100
AcDbVertex
100
AcDb2dVertex
 10
-546.3499746135786
 20
626.466942998731
 30
0.0
  0
VERTEX
  5
243
330
241
100
AcDbEntity
  8
Layer 1
 62
     7
420
 16777215
370
    20
100
AcDbVertex
100
AcDb2dVertex
 10
-546.3499746135786
 20
472.304639324706
 30
0.0
  0
SEQEND
  5
244
330
241
100
AcDbEntity
  8
Layer 1
 62
     7
420
 16777215
370
    20
  0
INSERT
  5
246
330
23D
100
AcDbEntity
  8
Layer 1
100
AcDbBlockReference
  2
block 4
 10
0.0
 20
0.0
 30
0.0
  0
ENDBLK
  5
240
330
23D
100
AcDbEntity
  8
0
100
AcDbBlockEnd
  0
BLOCK
  5
247
330
245
100
AcDbEntity
  8
0
100
AcDbBlockBegin
  2
block 4
 70
     0
 10
0.0
 20
0.0
 30
0.0
  3
block 4
  1

  0
POLYLINE
  5
249
330
245
100
AcDbEntity
  8
Layer 1
370
     0
100
AcDb2dPolyline
 66
     1
 10
0.0
 20
0.0
 30
0.0
  0
VERTEX
  5
24A
330
249
100
AcDbEntity
  8
Layer 1
370
     0
100
AcDbVertex
100
AcDb2dVertex
 10
-550.3780556932713
 20
623.7196971795101
 30
0.0
  0
VERTEX
  5
24B
330
249
100
AcDbEntity
  8
Layer 1
370
     0
100
AcDbVertex
100
AcDb2dVertex
 10
-546.3499746135786
 20
638.7502141592603
 30
0.0
  0
VERTEX
  5
24C
330
249
100
AcDbEntity
  8
Layer 1
370
     0
100
AcDbVertex
100
AcDb2dVertex
 10
-542.3219121921684
 20
623.7196971795101
 30
0.0
  0
VERTEX
  5
24D
330
249
100
AcDbEntity
  8
Layer 1
370
     0
100
AcDbVertex
100
AcDb2dVertex
 10
-550.3780556932713
 20
623.7196971795101
 30
0.0
  0
SEQEND
  5
24F
330
249
100
AcDbEntity
  8
Layer 1
370
     0
  0
HATCH
  5
24E
330
245
100
AcDbEntity
  8
Layer 1
 62
     7
420
 16777215
100
AcDbHatch
 10
0.0
 20
0.0
 30
0.0
210
0.0
220
0.0
230
1.0
  2
SOLID
 70
     1
 71
     0
 91
        1
 92
        1
 93
        3
 72
     1
 10
-550.3780556932713
 20
623.7196971795101
 11
-546.3499746135786
 21
638.7502141592603
 72
     1
 10
-546.3499746135786
 20
638.7502141592603
 11
-542.3219121921684
 21
623.7196971795101
 72
     1
 10
-542.3219121921684
 20
623.7196971795101
 11
-550.3780556932713
 21
623.7196971795101
 97
        0
 75
     2
 76
     1
 98
        0
  0
ENDBLK
  5
248
330
245
100
AcDbEntity
  8
0
100
AcDbBlockEnd
  0
BLOCK
  5
252
330
250
100
AcDbEntity
  8
0
100
AcDbBlockBegin
  2
block 5
 70
     0
 10
0.0
 20
0.0
 30
0.0
  3
block 5
  1

  0
POLYLINE
  5
254
330
250
100
AcDbEntity
  8
Layer 1
 62
     7
420
 16777215
370
    20
100
AcDb2dPolyline
 66
     1
 10
0.0
 20
0.0
 30
0.0
  0
VERTEX
  5
255
330
254
100
AcDbEntity
  8
Layer 1
 62
     7
420
 16777215
370
    20
100
AcDbVertex
100
AcDb2dVertex
 10
-498.8852018274757
 20
673.1352495916428
 30
0.0
  0
VERTEX
  5
256
330
254
100
AcDbEntity
  8
Layer 1
 62
     7
420
 16777215
370
    20
100
AcDbVertex
100
AcDb2dVertex
 10
-498.8852018274757
 20
638.4134156519957
 30
0.0
  0
SEQEND
  5
257
330
254
100
AcDbEntity
  8
Layer 1
 62
     7
420
 16777215
370
    20
  0
INSERT
  5
259
330
250
100
AcDbEntity
  8
Layer 1
100
AcDbBlockReference
  2
block 6
 10
0.0
 20
0.0
 30
0.0
  0
ENDBLK
  5
253
330
250
100
AcDbEntity
  8
0
100
AcDbBlockEnd
  0
BLOCK
  5
25A
330
258
100
AcDbEntity
  8
0
100
AcDbBlockBegin
  2
block 6
 70
     0
 10
0.0
 20
0.0
 30
0.0
  3
block 6
  1

  0
POLYLINE
  5
25C
330
258
100
AcDbEntity
  8
Layer 1
370
     0
100
AcDb2dPolyline
 66
     1
 10
0.0
 20
0.0
 30
0.0
  0
VERTEX
  5
25D
330
25C
100
AcDbEntity
  8
Layer 1
370
     0
100
AcDbVertex
100
AcDb2dVertex
 10
-502.9132829071719
 20
670.3880037724219
 30
0.0
  0
VERTEX
  5
25E
330
25C
100
AcDbEntity
  8
Layer 1
370
     0
100
AcDbVertex
100
AcDb2dVertex
 10
-498.8852018274757
 20
685.4185207521721
 30
0.0
  0
VERTEX
  5
25F
330
25C
100
AcDbEntity
  8
Layer 1
370
     0
100
AcDbVertex
100
AcDb2dVertex
 10
-494.8571394060655
 20
670.3880037724219
 30
0.0
  0
VERTEX
  5
260
330
25C
100
AcDbEntity
  8
Layer 1
370
     0
100
AcDbVertex
100
AcDb2dVertex
 10
-502.9132829071719
 20
670.3880037724219
 30
0.0
  0
SEQEND
  5
262
330
25C
100
AcDbEntity
  8
Layer 1
370
     0
  0
HATCH
  5
261
330
258
100
AcDbEntity
  8
Layer 1
 62
     7
420
 16777215
100
AcDbHatch
 10
0.0
 20
0.0
 30
0.0
210
0.0
220
0.0
230
1.0
  2
SOLID
 70
     1
 71
     0
 91
        1
 92
        1
 93
        3
 72
     1
 10
-502.9132829071719
 20
670.3880037724219
 11
-498.8852018274757
 21
685.4185207521721
 72
     1
 10
-498.8852018274757
 20
685.4185207521721
 11
-494.8571394060655
 21
670.3880037724219
 72
     1
 10
-494.8571394060655
 20
670.3880037724219
 11
-502.9132829071719
 21
670.3880037724219
 97
        0
 75
     2
 76
     1
 98
        0
  0
ENDBLK
  5
25B
330
258
100
AcDbEntity
  8
0
100
AcDbBlockEnd
  0
BLOCK
  5
265
330
263
100
AcDbEntity
  8
0
100
AcDbBlockBegin
  2
block 7
 70
     0
 10
0.0
 20
0.0
 30
0.0
  3
block 7
  1

  0
POLYLINE
  5
267
330
263
100
AcDbEntity
  8
Layer 1
 62
     7
420
 16777215
370
    20
100
AcDb2dPolyline
 66
     1
 10
0.0
 20
0.0
 30
0.0
  0
VERTEX
  5
268
330
267
100
AcDbEntity
  8
Layer 1
 62
     7
420
 16777215
370
    20
100
AcDbVertex
100
AcDb2dVertex
 10
-498.8852018274757
 20
529.1950923572045
 30
0.0
  0
VERTEX
  5
269
330
267
100
AcDbEntity
  8
Layer 1
 62
     7
420
 16777215
370
    20
100
AcDbVertex
100
AcDb2dVertex
 10
-498.8852018274757
 20
556.6345939267852
 30
0.0
  0
SEQEND
  5
26A
330
267
100
AcDbEntity
  8
Layer 1
 62
     7
420
 16777215
370
    20
  0
INSERT
  5
26C
330
263
100
AcDbEntity
  8
Layer 1
100
AcDbBlockReference
  2
block 8
 10
0.0
 20
0.0
 30
0.0
  0
ENDBLK
  5
266
330
263
100
AcDbEntity
  8
0
100
AcDbBlockEnd
  0
BLOCK
  5
26D
330
26B
100
AcDbEntity
  8
0
100
AcDbBlockBegin
  2
block 8
 70
     0
 10
0.0
 20
0.0
 30
0.0
  3
block 8
  1

  0
POLYLINE
  5
26F
330
26B
100
AcDbEntity
  8
Layer 1
370
     0
100
AcDb2dPolyline
 66
     1
 10
0.0
 20
0.0
 30
0.0
  0
VERTEX
  5
270
330
26F
100
AcDbEntity
  8
Layer 1
370
     0
100
AcDbVertex
100
AcDb2dVertex
 10
-494.8571207477829
 20
531.9423381764254
 30
0.0
  0
VERTEX
  5
271
330
26F
100
AcDbEntity
  8
Layer 1
370
     0
100
AcDbVertex
100
AcDb2dVertex
 10
-498.8852018274757
 20
516.9118211966753
 30
0.0
  0
VERTEX
  5
272
330
26F
100
AcDbEntity
  8
Layer 1
370
     0
100
AcDbVertex
100
AcDb2dVertex
 10
-502.9132642488859
 20
531.9423381764254
 30
0.0
  0
VERTEX
  5
273
330
26F
100
AcDbEntity
  8
Layer 1
370
     0
100
AcDbVertex
100
AcDb2dVertex
 10
-494.8571207477829
 20
531.9423381764254
 30
0.0
  0
SEQEND
  5
275
330
26F
100
AcDbEntity
  8
Layer 1
370
     0
  0
HATCH
  5
274
330
26B
100
AcDbEntity
  8
Layer 1
 62
     7
420
 16777215
100
AcDbHatch
 10
0.0
 20
0.0
 30
0.0
210
0.0
220
0.0
230
1.0
  2
SOLID
 70
     1
 71
     0
 91
        1
 92
        1
 93
        3
 72
     1
 10
-494.8571207477829
 20
531.9423381764254
 11
-498.8852018274757
 21
516.9118211966753
 72
     1
 10
-498.8852018274757
 20
516.9118211966753
 11
-502.9132642488859
 21
531.9423381764254
 72
     1
 10
-502.9132642488859
 20
531.9423381764254
 11
-494.8571207477829
 21
531.9423381764254
 97
        0
 75
     2
 76
     1
 98
        0
  0
ENDBLK
  5
26E
330
26B
100
AcDbEntity
  8
0
100
AcDbBlockEnd
  0
BLOCK
  5
278
330
276
100
AcDbEntity
  8
0
100
AcDbBlockBegin
  2
block 9
 70
     0
 10
0.0
 20
0.0
 30
0.0
  3
block 9
  1

  0
POLYLINE
  5
27A
330
276
100
AcDbEntity
  8
Layer 1
 62
     7
420
 16777215
370
    20
100
AcDb2dPolyline
 66
     1
 10
0.0
 20
0.0
 30
0.0
  0
VERTEX
  5
27B
330
27A
100
AcDbEntity
  8
Layer 1
 62
     7
420
 16777215
370
    20
100
AcDbVertex
100
AcDb2dVertex
 10
-546.3499932718612
 20
245.0526340161937
 30
0.0
  0
VERTEX
  5
27C
330
27A
100
AcDbEntity
  8
Layer 1
 62
     7
420
 16777215
370
    20
100
AcDbVertex
100
AcDb2dVertex
 10
-546.3499932718612
 20
403.3783286495733
 30
0.0
  0
SEQEND
  5
27D
330
27A
100
AcDbEntity
  8
Layer 1
 62
     7
420
 16777215
370
    20
  0
INSERT
  5
27F
330
276
100
AcDbEntity
  8
Layer 1
100
AcDbBlockReference
  2
block 10
 10
0.0
 20
0.0
 30
0.0
  0
ENDBLK
  5
279
330
276
100
AcDbEntity
  8
0
100
AcDbBlockEnd
  0
BLOCK
  5
280
330
27E
100
AcDbEntity
  8
0
100
AcDbBlockBegin
  2
block 10
 70
     0
 10
0.0
 20
0.0
 30
0.0
  3
block 10
  1

  0
POLYLINE
  5
282
330
27E
100
AcDbEntity
  8
Layer 1
370
     0
100
AcDb2dPolyline
 66
     1
 10
0.0
 20
0.0
 30
0.0
  0
VERTEX
  5
283
330
282
100
AcDbEntity
  8
Layer 1
370
     0
100
AcDbVertex
100
AcDb2dVertex
 10
-542.3219308504509
 20
247.7998798354152
 30
0.0
  0
VERTEX
  5
284
330
282
100
AcDbEntity
  8
Layer 1
370
     0
100
AcDbVertex
100
AcDb2dVertex
 10
-546.3499932718612
 20
232.7695121219409
 30
0.0
  0
VERTEX
  5
285
330
282
100
AcDbEntity
  8
Layer 1
370
     0
100
AcDbVertex
100
AcDb2dVertex
 10
-550.3780743515574
 20
247.7998798354152
 30
0.0
  0
VERTEX
  5
286
330
282
100
AcDbEntity
  8
Layer 1
370
     0
100
AcDbVertex
100
AcDb2dVertex
 10
-542.3219308504509
 20
247.7998798354152
 30
0.0
  0
SEQEND
  5
288
330
282
100
AcDbEntity
  8
Layer 1
370
     0
  0
HATCH
  5
287
330
27E
100
AcDbEntity
  8
Layer 1
 62
     7
420
 16777215
100
AcDbHatch
 10
0.0
 20
0.0
 30
0.0
210
0.0
220
0.0
230
1.0
  2
SOLID
 70
     1
 71
     0
 91
        1
 92
        1
 93
        3
 72
     1
 10
-542.3219308504509
 20
247.7998798354152
 11
-546.3499932718612
 21
232.7695121219409
 72
     1
 10
-546.3499932718612
 20
232.7695121219409
 11
-550.3780743515574
 21
247.7998798354152
 72
     1
 10
-550.3780743515574
 20
247.7998798354152
 11
-542.3219308504509
 21
247.7998798354152
 97
        0
 75
     2
 76
     1
 98
        0
  0
ENDBLK
  5
281
330
27E
100
AcDbEntity
  8
0
100
AcDbBlockEnd
  0
BLOCK
  5
28B
330
289
100
AcDbEntity
  8
0
100
AcDbBlockBegin
  2
block 11
 70
     0
 10
0.0
 20
0.0
 30
0.0
  3
block 11
  1

  0
POLYLINE
  5
28D
330
289
100
AcDbEntity
  8
Layer 1
 62
     7
420
 16777215
370
    20
100
AcDb2dPolyline
 66
     1
 10
0.0
 20
0.0
 30
0.0
  0
VERTEX
  5
28E
330
28D
100
AcDbEntity
  8
Layer 1
 62
     7
420
 16777215
370
    20
100
AcDbVertex
100
AcDb2dVertex
 10
-592.815913452107
 20
673.1352495916428
 30
0.0
  0
VERTEX
  5
28F
330
28D
100
AcDbEntity
  8
Layer 1
 62
     7
420
 16777215
370
    20
100
AcDbVertex
100
AcDb2dVertex
 10
-592.815913452107
 20
472.304639324706
 30
0.0
  0
SEQEND
  5
290
330
28D
100
AcDbEntity
  8
Layer 1
 62
     7
420
 16777215
370
    20
  0
INSERT
  5
292
330
289
100
AcDbEntity
  8
Layer 1
100
AcDbBlockReference
  2
block 12
 10
0.0
 20
0.0
 30
0.0
  0
ENDBLK
  5
28C
330
289
100
AcDbEntity
  8
0
100
AcDbBlockEnd
  0
BLOCK
  5
293
330
291
100
AcDbEntity
  8
0
100
AcDbBlockBegin
  2
block 12
 70
     0
 10
0.0
 20
0.0
 30
0.0
  3
block 12
  1

  0
POLYLINE
  5
295
330
291
100
AcDbEntity
  8
Layer 1
370
     0
100
AcDb2dPolyline
 66
     1
 10
0.0
 20
0.0
 30
0.0
  0
VERTEX
  5
296
330
295
100
AcDbEntity
  8
Layer 1
370
     0
100
AcDbVertex
100
AcDb2dVertex
 10
-596.8439758735173
 20
670.3880037724219
 30
0.0
  0
VERTEX
  5
297
330
295
100
AcDbEntity
  8
Layer 1
370
     0
100
AcDbVertex
100
AcDb2dVertex
 10
-592.815913452107
 20
685.4185207521721
 30
0.0
  0
VERTEX
  5
298
330
295
100
AcDbEntity
  8
Layer 1
370
     0
100
AcDbVertex
100
AcDb2dVertex
 10
-588.7878510306969
 20
670.3880037724219
 30
0.0
  0
VERTEX
  5
299
330
295
100
AcDbEntity
  8
Layer 1
370
     0
100
AcDbVertex
100
AcDb2dVertex
 10
-596.8439758735173
 20
670.3880037724219
 30
0.0
  0
SEQEND
  5
29B
330
295
100
AcDbEntity
  8
Layer 1
370
     0
  0
HATCH
  5
29A
330
291
100
AcDbEntity
  8
Layer 1
 62
     7
420
 16777215
100
AcDbHatch
 10
0.0
 20
0.0
 30
0.0
210
0.0
220
0.0
230
1.0
  2
SOLID
 70
     1
 71
     0
 91
        1
 92
        1
 93
        3
 72
     1
 10
-596.8439758735173
 20
670.3880037724219
 11
-592.815913452107
 21
685.4185207521721
 72
     1
 10
-592.815913452107
 20
685.4185207521721
 11
-588.7878510306969
 21
670.3880037724219
 72
     1
 10
-588.7878510306969
 20
670.3880037724219
 11
-596.8439758735173
 21
670.3880037724219
 97
        0
 75
     2
 76
     1
 98
        0
  0
ENDBLK
  5
294
330
291
100
AcDbEntity
  8
0
100
AcDbBlockEnd
  0
BLOCK
  5
29E
330
29C
100
AcDbEntity
  8
0
100
AcDbBlockBegin
  2
block 13
 70
     0
 10
0.0
 20
0.0
 30
0.0
  3
block 13
  1

  0
POLYLINE
  5
2A0
330
29C
100
AcDbEntity
  8
Layer 1
 62
     7
420
 16777215
370
    20
100
AcDb2dPolyline
 66
     1
 10
0.0
 20
0.0
 30
0.0
  0
VERTEX
  5
2A1
330
2A0
100
AcDbEntity
  8
Layer 1
 62
     7
420
 16777215
370
    20
100
AcDbVertex
100
AcDb2dVertex
 10
-592.815950768676
 20
195.4777445184536
 30
0.0
  0
VERTEX
  5
2A2
330
2A0
100
AcDbEntity
  8
Layer 1
 62
     7
420
 16777215
370
    20
100
AcDbVertex
100
AcDb2dVertex
 10
-592.815950768676
 20
403.3783303317626
 30
0.0
  0
SEQEND
  5
2A3
330
2A0
100
AcDbEntity
  8
Layer 1
 62
     7
420
 16777215
370
    20
  0
INSERT
  5
2A5
330
29C
100
AcDbEntity
  8
Layer 1
100
AcDbBlockReference
  2
block 14
 10
0.0
 20
0.0
 30
0.0
  0
ENDBLK
  5
29F
330
29C
100
AcDbEntity
  8
0
100
AcDbBlockEnd
  0
BLOCK
  5
2A6
330
2A4
100
AcDbEntity
  8
0
100
AcDbBlockBegin
  2
block 14
 70
     0
 10
0.0
 20
0.0
 30
0.0
  3
block 14
  1

  0
POLYLINE
  5
2A8
330
2A4
100
AcDbEntity
  8
Layer 1
370
     0
100
AcDb2dPolyline
 66
     1
 10
0.0
 20
0.0
 30
0.0
  0
VERTEX
  5
2A9
330
2A8
100
AcDbEntity
  8
Layer 1
370
     0
100
AcDbVertex
100
AcDb2dVertex
 10
-588.7878883472657
 20
198.2249157045372
 30
0.0
  0
VERTEX
  5
2AA
330
2A8
100
AcDbEntity
  8
Layer 1
370
     0
100
AcDbVertex
100
AcDb2dVertex
 10
-592.815950768676
 20
183.1944733579244
 30
0.0
  0
VERTEX
  5
2AB
330
2A8
100
AcDbEntity
  8
Layer 1
370
     0
100
AcDbVertex
100
AcDb2dVertex
 10
-596.844031848372
 20
198.2249157045372
 30
0.0
  0
VERTEX
  5
2AC
330
2A8
100
AcDbEntity
  8
Layer 1
370
     0
100
AcDbVertex
100
AcDb2dVertex
 10
-588.7878883472657
 20
198.2249157045372
 30
0.0
  0
SEQEND
  5
2AE
330
2A8
100
AcDbEntity
  8
Layer 1
370
     0
  0
HATCH
  5
2AD
330
2A4
100
AcDbEntity
  8
Layer 1
 62
     7
420
 16777215
100
AcDbHatch
 10
0.0
 20
0.0
 30
0.0
210
0.0
220
0.0
230
1.0
  2
SOLID
 70
     1
 71
     0
 91
        1
 92
        1
 93
        3
 72
     1
 10
-588.7878883472657
 20
198.2249157045372
 11
-592.815950768676
 21
183.1944733579244
 72
     1
 10
-592.815950768676
 20
183.1944733579244
 11
-596.844031848372
 21
198.2249157045372
 72
     1
 10
-596.844031848372
 20
198.2249157045372
 11
-588.7878883472657
 21
198.2249157045372
 97
        0
 75
     2
 76
     1
 98
        0
  0
ENDBLK
  5
2A7
330
2A4
100
AcDbEntity
  8
0
100
AcDbBlockEnd
  0
BLOCK
  5
2B2
330
2B0
100
AcDbEntity
  8
0
100
AcDbBlockBegin
  2
block 15
 70
     0
 10
0.0
 20
0.0
 30
0.0
  3
block 15
  1

  0
POLYLINE
  5
2B4
330
2B0
100
AcDbEntity
  8
Layer 1
 62
     7
420
 16777215
370
    20
100
AcDb2dPolyline
 66
     1
 10
0.0
 20
0.0
 30
0.0
  0
VERTEX
  5
2B5
330
2B4
100
AcDbEntity
  8
Layer 1
 62
     7
420
 16777215
370
    20
100
AcDbVertex
100
AcDb2dVertex
 10
-347.3483887200414
 20
248.6632140562823
 30
0.0
  0
VERTEX
  5
2B6
330
2B4
100
AcDbEntity
  8
Layer 1
 62
     7
420
 16777215
370
    20
100
AcDbVertex
100
AcDb2dVertex
 10
-306.5161882976561
 20
303.181825954988
 30
0.0
  0
VERTEX
  5
2B7
330
2B4
100
AcDbEntity
  8
Layer 1
 62
     7
420
 16777215
370
    20
100
AcDbVertex
100
AcDb2dVertex
 10
-266.3166903048404
 20
303.181825954988
 30
0.0
  0
SEQEND
  5
2B8
330
2B4
100
AcDbEntity
  8
Layer 1
 62
     7
420
 16777215
370
    20
  0
INSERT
  5
2BA
330
2B0
100
AcDbEntity
  8
Layer 1
100
AcDbBlockReference
  2
block 16
 10
0.0
 20
0.0
 30
0.0
  0
ENDBLK
  5
2B3
330
2B0
100
AcDbEntity
  8
0
100
AcDbBlockEnd
  0
BLOCK
  5
2BB
330
2B9
100
AcDbEntity
  8
0
100
AcDbBlockBegin
  2
block 16
 70
     0
 10
0.0
 20
0.0
 30
0.0
  3
block 16
  1

  0
POLYLINE
  5
2BD
330
2B9
100
AcDbEntity
  8
Layer 1
370
     0
100
AcDb2dPolyline
 66
     1
 10
0.0
 20
0.0
 30
0.0
  0
VERTEX
  5
2BE
330
2BD
100
AcDbEntity
  8
Layer 1
370
     0
100
AcDbVertex
100
AcDb2dVertex
 10
-342.4774569517314
 20
248.4473750204446
 30
0.0
  0
VERTEX
  5
2BF
330
2BD
100
AcDbEntity
  8
Layer 1
370
     0
100
AcDbVertex
100
AcDb2dVertex
 10
-354.7117687735661
 20
238.8316414874782
 30
0.0
  0
VERTEX
  5
2C0
330
2BD
100
AcDbEntity
  8
Layer 1
370
     0
100
AcDbVertex
100
AcDb2dVertex
 10
-348.9255735142468
 20
253.2767361307449
 30
0.0
  0
VERTEX
  5
2C1
330
2BD
100
AcDbEntity
  8
Layer 1
370
     0
100
AcDbVertex
100
AcDb2dVertex
 10
-342.4774569517314
 20
248.4473750204446
 30
0.0
  0
SEQEND
  5
2C3
330
2BD
100
AcDbEntity
  8
Layer 1
370
     0
  0
HATCH
  5
2C2
330
2B9
100
AcDbEntity
  8
Layer 1
 62
     7
420
 16777215
100
AcDbHatch
 10
0.0
 20
0.0
 30
0.0
210
0.0
220
0.0
230
1.0
  2
SOLID
 70
     1
 71
     0
 91
        1
 92
        1
 93
        3
 72
     1
 10
-342.4774569517314
 20
248.4473750204446
 11
-354.7117687735661
 21
238.8316414874782
 72
     1
 10
-354.7117687735661
 20
238.8316414874782
 11
-348.9255735142468
 21
253.2767361307449
 72
     1
 10
-348.9255735142468
 20
253.2767361307449
 11
-342.4774569517314
 21
248.4473750204446
 97
        0
 75
     2
 76
     1
 98
        0
  0
ENDBLK
  5
2BC
330
2B9
100
AcDbEntity
  8
0
100
AcDbBlockEnd
  0
BLOCK
  5
2D3
330
2D1
100
AcDbEntity
  8
0
100
AcDbBlockBegin
  2
block 17
 70
     0
 10
0.0
 20
0.0
 30
0.0
  3
block 17
  1

  0
POLYLINE
  5
2D5
330
2D1
100
AcDbEntity
  8
Layer 1
 62
     7
420
 16777215
370
    20
100
AcDb2dPolyline
 66
     1
 10
0.0
 20
0.0
 30
0.0
  0
VERTEX
  5
2D6
330
2D5
100
AcDbEntity
  8
Layer 1
 62
     7
420
 16777215
370
    20
100
AcDbVertex
100
AcDb2dVertex
 10
867.4541129937168
 20
245.0527692833904
 30
0.0
  0
VERTEX
  5
2D7
330
2D5
100
AcDbEntity
  8
Layer 1
 62
     7
420
 16777215
370
    20
100
AcDbVertex
100
AcDb2dVertex
 10
867.454112979874
 20
382.3839307923802
 30
0.0
  0
SEQEND
  5
2D8
330
2D5
100
AcDbEntity
  8
Layer 1
 62
     7
420
 16777215
370
    20
  0
INSERT
  5
2DA
330
2D1
100
AcDbEntity
  8
Layer 1
100
AcDbBlockReference
  2
block 18
 10
0.0
 20
0.0
 30
0.0
  0
ENDBLK
  5
2D4
330
2D1
100
AcDbEntity
  8
0
100
AcDbBlockEnd
  0
BLOCK
  5
2DB
330
2D9
100
AcDbEntity
  8
0
100
AcDbBlockBegin
  2
block 18
 70
     0
 10
0.0
 20
0.0
 30
0.0
  3
block 18
  1

  0
POLYLINE
  5
2DD
330
2D9
100
AcDbEntity
  8
Layer 1
370
     0
100
AcDb2dPolyline
 66
     1
 10
0.0
 20
0.0
 30
0.0
  0
VERTEX
  5
2DE
330
2DD
100
AcDbEntity
  8
Layer 1
370
     0
100
AcDbVertex
100
AcDb2dVertex
 10
871.4821940731663
 20
247.8000151029735
 30
0.0
  0
VERTEX
  5
2DF
330
2DD
100
AcDbEntity
  8
Layer 1
370
     0
100
AcDbVertex
100
AcDb2dVertex
 10
867.4541129948211
 20
232.7694981228611
 30
0.0
  0
VERTEX
  5
2E0
330
2DD
100
AcDbEntity
  8
Layer 1
370
     0
100
AcDbVertex
100
AcDb2dVertex
 10
863.4260505720595
 20
247.8000151022503
 30
0.0
  0
VERTEX
  5
2E1
330
2DD
100
AcDbEntity
  8
Layer 1
370
     0
100
AcDbVertex
100
AcDb2dVertex
 10
871.4821940731663
 20
247.8000151029735
 30
0.0
  0
SEQEND
  5
2E3
330
2DD
100
AcDbEntity
  8
Layer 1
370
     0
  0
HATCH
  5
2E2
330
2D9
100
AcDbEntity
  8
Layer 1
 62
     7
420
 16777215
100
AcDbHatch
 10
0.0
 20
0.0
 30
0.0
210
0.0
220
0.0
230
1.0
  2
SOLID
 70
     1
 71
     0
 91
        1
 92
        1
 93
        3
 72
     1
 10
871.4821940731663
 20
247.8000151029735
 11
867.4541129948211
 21
232.7694981228611
 72
     1
 10
867.4541129948211
 20
232.7694981228611
 11
863.4260505720595
 21
247.8000151022503
 72
     1
 10
863.4260505720595
 20
247.8000151022503
 11
871.4821940731663
 21
247.8000151029735
 97
        0
 75
     2
 76
     1
 98
        0
  0
ENDBLK
  5
2DC
330
2D9
100
AcDbEntity
  8
0
100
AcDbBlockEnd
  0
BLOCK
  5
2E6
330
2E4
100
AcDbEntity
  8
0
100
AcDbBlockBegin
  2
block 19
 70
     0
 10
0.0
 20
0.0
 30
0.0
  3
block 19
  1

  0
POLYLINE
  5
2E8
330
2E4
100
AcDbEntity
  8
Layer 1
 62
     7
420
 16777215
370
    20
100
AcDb2dPolyline
 66
     1
 10
0.0
 20
0.0
 30
0.0
  0
VERTEX
  5
2E9
330
2E8
100
AcDbEntity
  8
Layer 1
 62
     7
420
 16777215
370
    20
100
AcDbVertex
100
AcDb2dVertex
 10
867.4541316177518
 20
566.3956480746464
 30
0.0
  0
VERTEX
  5
2EA
330
2E8
100
AcDbEntity
  8
Layer 1
 62
     7
420
 16777215
370
    20
100
AcDbVertex
100
AcDb2dVertex
 10
867.4541316319687
 20
437.9436527923895
 30
0.0
  0
SEQEND
  5
2EB
330
2E8
100
AcDbEntity
  8
Layer 1
 62
     7
420
 16777215
370
    20
  0
INSERT
  5
2ED
330
2E4
100
AcDbEntity
  8
Layer 1
100
AcDbBlockReference
  2
block 20
 10
0.0
 20
0.0
 30
0.0
  0
ENDBLK
  5
2E7
330
2E4
100
AcDbEntity
  8
0
100
AcDbBlockEnd
  0
BLOCK
  5
2EE
330
2EC
100
AcDbEntity
  8
0
100
AcDbBlockBegin
  2
block 20
 70
     0
 10
0.0
 20
0.0
 30
0.0
  3
block 20
  1

  0
POLYLINE
  5
2F0
330
2EC
100
AcDbEntity
  8
Layer 1
370
     0
100
AcDb2dPolyline
 66
     1
 10
0.0
 20
0.0
 30
0.0
  0
VERTEX
  5
2F1
330
2F0
100
AcDbEntity
  8
Layer 1
370
     0
100
AcDbVertex
100
AcDb2dVertex
 10
863.4260691965919
 20
563.648402255062
 30
0.0
  0
VERTEX
  5
2F2
330
2F0
100
AcDbEntity
  8
Layer 1
370
     0
100
AcDbVertex
100
AcDb2dVertex
 10
867.4541316166514
 20
578.6787699689005
 30
0.0
  0
VERTEX
  5
2F3
330
2F0
100
AcDbEntity
  8
Layer 1
370
     0
100
AcDbVertex
100
AcDb2dVertex
 10
871.4822126976949
 20
563.6484022557887
 30
0.0
  0
VERTEX
  5
2F4
330
2F0
100
AcDbEntity
  8
Layer 1
370
     0
100
AcDbVertex
100
AcDb2dVertex
 10
863.4260691965919
 20
563.648402255062
 30
0.0
  0
SEQEND
  5
2F6
330
2F0
100
AcDbEntity
  8
Layer 1
370
     0
  0
HATCH
  5
2F5
330
2EC
100
AcDbEntity
  8
Layer 1
 62
     7
420
 16777215
100
AcDbHatch
 10
0.0
 20
0.0
 30
0.0
210
0.0
220
0.0
230
1.0
  2
SOLID
 70
     1
 71
     0
 91
        1
 92
        1
 93
        3
 72
     1
 10
863.4260691965919
 20
563.648402255062
 11
867.4541316166514
 21
578.6787699689005
 72
     1
 10
867.4541316166514
 20
578.6787699689005
 11
871.4822126976949
 21
563.6484022557887
 72
     1
 10
871.4822126976949
 20
563.6484022557887
 11
863.4260691965919
 21
563.648402255062
 97
        0
 75
     2
 76
     1
 98
        0
  0
ENDBLK
  5
2EF
330
2EC
100
AcDbEntity
  8
0
100
AcDbBlockEnd
  0
BLOCK
  5
31F
330
31D
100
AcDbEntity
  8
0
100
AcDbBlockBegin
  2
block 21
 70
     0
 10
0.0
 20
0.0
 30
0.0
  3
block 21
  1

  0
POLYLINE
  5
321
330
31D
100
AcDbEntity
  8
Layer 1
 62
     7
420
 16777215
370
    20
100
AcDb2dPolyline
 66
     1
 10
0.0
 20
0.0
 30
0.0
  0
VERTEX
  5
322
330
321
100
AcDbEntity
  8
Layer 1
 62
     7
420
 16777215
370
    20
100
AcDbVertex
100
AcDb2dVertex
 10
-399.8037072678292
 20
87.81896954569534
 30
0.0
  0
VERTEX
  5
323
330
321
100
AcDbEntity
  8
Layer 1
 62
     7
420
 16777215
370
    20
100
AcDbVertex
100
AcDb2dVertex
 10
187.1513330654344
 20
87.81896954569534
 30
0.0
  0
SEQEND
  5
324
330
321
100
AcDbEntity
  8
Layer 1
 62
     7
420
 16777215
370
    20
  0
INSERT
  5
326
330
31D
100
AcDbEntity
  8
Layer 1
100
AcDbBlockReference
  2
block 22
 10
0.0
 20
0.0
 30
0.0
  0
ENDBLK
  5
320
330
31D
100
AcDbEntity
  8
0
100
AcDbBlockEnd
  0
BLOCK
  5
327
330
325
100
AcDbEntity
  8
0
100
AcDbBlockBegin
  2
block 22
 70
     0
 10
0.0
 20
0.0
 30
0.0
  3
block 22
  1

  0
POLYLINE
  5
329
330
325
100
AcDbEntity
  8
Layer 1
370
     0
100
AcDb2dPolyline
 66
     1
 10
0.0
 20
0.0
 30
0.0
  0
VERTEX
  5
32A
330
329
100
AcDbEntity
  8
Layer 1
370
     0
100
AcDbVertex
100
AcDb2dVertex
 10
-397.0564987651773
 20
83.79086980771618
 30
0.0
  0
VERTEX
  5
32B
330
329
100
AcDbEntity
  8
Layer 1
370
     0
100
AcDbVertex
100
AcDb2dVertex
 10
-412.0869411117898
 20
87.81896954569534
 30
0.0
  0
VERTEX
  5
32C
330
329
100
AcDbEntity
  8
Layer 1
370
     0
100
AcDbVertex
100
AcDb2dVertex
 10
-397.0564987651773
 20
91.84699465053595
 30
0.0
  0
VERTEX
  5
32D
330
329
100
AcDbEntity
  8
Layer 1
370
     0
100
AcDbVertex
100
AcDb2dVertex
 10
-397.0564987651773
 20
83.79086980771618
 30
0.0
  0
SEQEND
  5
32F
330
329
100
AcDbEntity
  8
Layer 1
370
     0
  0
HATCH
  5
32E
330
325
100
AcDbEntity
  8
Layer 1
 62
     7
420
 16777215
100
AcDbHatch
 10
0.0
 20
0.0
 30
0.0
210
0.0
220
0.0
230
1.0
  2
SOLID
 70
     1
 71
     0
 91
        1
 92
        1
 93
        3
 72
     1
 10
-397.0564987651773
 20
83.79086980771618
 11
-412.0869411117898
 21
87.81896954569534
 72
     1
 10
-412.0869411117898
 20
87.81896954569534
 11
-397.0564987651773
 21
91.84699465053595
 72
     1
 10
-397.0564987651773
 20
91.84699465053595
 11
-397.0564987651773
 21
83.79086980771618
 97
        0
 75
     2
 76
     1
 98
        0
  0
ENDBLK
  5
328
330
325
100
AcDbEntity
  8
0
100
AcDbBlockEnd
  0
BLOCK
  5
332
330
330
100
AcDbEntity
  8
0
100
AcDbBlockBegin
  2
block 23
 70
     0
 10
0.0
 20
0.0
 30
0.0
  3
block 23
  1

  0
POLYLINE
  5
334
330
330
100
AcDbEntity
  8
Layer 1
 62
     7
420
 16777215
370
    20
100
AcDb2dPolyline
 66
     1
 10
0.0
 20
0.0
 30
0.0
  0
VERTEX
  5
335
330
334
100
AcDbEntity
  8
Layer 1
 62
     7
420
 16777215
370
    20
100
AcDbVertex
100
AcDb2dVertex
 10
-354.8892371066399
 20
132.7953777776936
 30
0.0
  0
VERTEX
  5
336
330
334
100
AcDbEntity
  8
Layer 1
 62
     7
420
 16777215
370
    20
100
AcDbVertex
100
AcDb2dVertex
 10
-222.7854851174178
 20
132.7953777776936
 30
0.0
  0
SEQEND
  5
337
330
334
100
AcDbEntity
  8
Layer 1
 62
     7
420
 16777215
370
    20
  0
INSERT
  5
339
330
330
100
AcDbEntity
  8
Layer 1
100
AcDbBlockReference
  2
block 24
 10
0.0
 20
0.0
 30
0.0
  0
ENDBLK
  5
333
330
330
100
AcDbEntity
  8
0
100
AcDbBlockEnd
  0
BLOCK
  5
33A
330
338
100
AcDbEntity
  8
0
100
AcDbBlockBegin
  2
block 24
 70
     0
 10
0.0
 20
0.0
 30
0.0
  3
block 24
  1

  0
POLYLINE
  5
33C
330
338
100
AcDbEntity
  8
Layer 1
370
     0
100
AcDb2dPolyline
 66
     1
 10
0.0
 20
0.0
 30
0.0
  0
VERTEX
  5
33D
330
33C
100
AcDbEntity
  8
Layer 1
370
     0
100
AcDbVertex
100
AcDb2dVertex
 10
-352.1420286039877
 20
128.7672780397145
 30
0.0
  0
VERTEX
  5
33E
330
33C
100
AcDbEntity
  8
Layer 1
370
     0
100
AcDbVertex
100
AcDb2dVertex
 10
-367.1724709506003
 20
132.7953777776936
 30
0.0
  0
VERTEX
  5
33F
330
33C
100
AcDbEntity
  8
Layer 1
370
     0
100
AcDbVertex
100
AcDb2dVertex
 10
-352.1420286039877
 20
136.8234028825342
 30
0.0
  0
VERTEX
  5
340
330
33C
100
AcDbEntity
  8
Layer 1
370
     0
100
AcDbVertex
100
AcDb2dVertex
 10
-352.1420286039877
 20
128.7672780397145
 30
0.0
  0
SEQEND
  5
342
330
33C
100
AcDbEntity
  8
Layer 1
370
     0
  0
HATCH
  5
341
330
338
100
AcDbEntity
  8
Layer 1
 62
     7
420
 16777215
100
AcDbHatch
 10
0.0
 20
0.0
 30
0.0
210
0.0
220
0.0
230
1.0
  2
SOLID
 70
     1
 71
     0
 91
        1
 92
        1
 93
        3
 72
     1
 10
-352.1420286039877
 20
128.7672780397145
 11
-367.1724709506003
 21
132.7953777776936
 72
     1
 10
-367.1724709506003
 20
132.7953777776936
 11
-352.1420286039877
 21
136.8234028825342
 72
     1
 10
-352.1420286039877
 20
136.8234028825342
 11
-352.1420286039877
 21
128.7672780397145
 97
        0
 75
     2
 76
     1
 98
        0
  0
ENDBLK
  5
33B
330
338
100
AcDbEntity
  8
0
100
AcDbBlockEnd
  0
BLOCK
  5
345
330
343
100
AcDbEntity
  8
0
100
AcDbBlockBegin
  2
block 25
 70
     0
 10
0.0
 20
0.0
 30
0.0
  3
block 25
  1

  0
POLYLINE
  5
347
330
343
100
AcDbEntity
  8
Layer 1
 62
     7
420
 16777215
370
    20
100
AcDb2dPolyline
 66
     1
 10
0.0
 20
0.0
 30
0.0
  0
VERTEX
  5
348
330
347
100
AcDbEntity
  8
Layer 1
 62
     7
420
 16777215
370
    20
100
AcDbVertex
100
AcDb2dVertex
 10
-24.95824760648479
 20
132.795368448551
 30
0.0
  0
VERTEX
  5
349
330
347
100
AcDbEntity
  8
Layer 1
 62
     7
420
 16777215
370
    20
100
AcDbVertex
100
AcDb2dVertex
 10
-157.0619622791376
 20
132.795368448551
 30
0.0
  0
SEQEND
  5
34A
330
347
100
AcDbEntity
  8
Layer 1
 62
     7
420
 16777215
370
    20
  0
INSERT
  5
34C
330
343
100
AcDbEntity
  8
Layer 1
100
AcDbBlockReference
  2
block 26
 10
0.0
 20
0.0
 30
0.0
  0
ENDBLK
  5
346
330
343
100
AcDbEntity
  8
0
100
AcDbBlockEnd
  0
BLOCK
  5
34D
330
34B
100
AcDbEntity
  8
0
100
AcDbBlockBegin
  2
block 26
 70
     0
 10
0.0
 20
0.0
 30
0.0
  3
block 26
  1

  0
POLYLINE
  5
34F
330
34B
100
AcDbEntity
  8
Layer 1
370
     0
100
AcDb2dPolyline
 66
     1
 10
0.0
 20
0.0
 30
0.0
  0
VERTEX
  5
350
330
34F
100
AcDbEntity
  8
Layer 1
370
     0
100
AcDbVertex
100
AcDb2dVertex
 10
-27.7054187925684
 20
136.8233935533923
 30
0.0
  0
VERTEX
  5
351
330
34F
100
AcDbEntity
  8
Layer 1
370
     0
100
AcDbVertex
100
AcDb2dVertex
 10
-12.67497644595553
 20
132.795368448551
 30
0.0
  0
VERTEX
  5
352
330
34F
100
AcDbEntity
  8
Layer 1
370
     0
100
AcDbVertex
100
AcDb2dVertex
 10
-27.7054187925684
 20
128.7672687105719
 30
0.0
  0
VERTEX
  5
353
330
34F
100
AcDbEntity
  8
Layer 1
370
     0
100
AcDbVertex
100
AcDb2dVertex
 10
-27.7054187925684
 20
136.8233935533923
 30
0.0
  0
SEQEND
  5
355
330
34F
100
AcDbEntity
  8
Layer 1
370
     0
  0
HATCH
  5
354
330
34B
100
AcDbEntity
  8
Layer 1
 62
     7
420
 16777215
100
AcDbHatch
 10
0.0
 20
0.0
 30
0.0
210
0.0
220
0.0
230
1.0
  2
SOLID
 70
     1
 71
     0
 91
        1
 92
        1
 93
        3
 72
     1
 10
-27.7054187925684
 20
136.8233935533923
 11
-12.67497644595553
 21
132.795368448551
 72
     1
 10
-12.67497644595553
 20
132.795368448551
 11
-27.7054187925684
 21
128.7672687105719
 72
     1
 10
-27.7054187925684
 20
128.7672687105719
 11
-27.7054187925684
 21
136.8233935533923
 97
        0
 75
     2
 76
     1
 98
        0
  0
ENDBLK
  5
34E
330
34B
100
AcDbEntity
  8
0
100
AcDbBlockEnd
  0
BLOCK
  5
358
330
356
100
AcDbEntity
  8
0
100
AcDbBlockBegin
  2
block 27
 70
     0
 10
0.0
 20
0.0
 30
0.0
  3
block 27
  1

  0
POLYLINE
  5
35A
330
356
100
AcDbEntity
  8
Layer 1
 62
     7
420
 16777215
370
    20
100
AcDb2dPolyline
 66
     1
 10
0.0
 20
0.0
 30
0.0
  0
VERTEX
  5
35B
330
35A
100
AcDbEntity
  8
Layer 1
 62
     7
420
 16777215
370
    20
100
AcDbVertex
100
AcDb2dVertex
 10
774.8692197731717
 20
87.64057768697742
 30
0.0
  0
VERTEX
  5
35C
330
35A
100
AcDbEntity
  8
Layer 1
 62
     7
420
 16777215
370
    20
100
AcDbVertex
100
AcDb2dVertex
 10
275.5194443755646
 20
87.64057768697742
 30
0.0
  0
SEQEND
  5
35D
330
35A
100
AcDbEntity
  8
Layer 1
 62
     7
420
 16777215
370
    20
  0
INSERT
  5
35F
330
356
100
AcDbEntity
  8
Layer 1
100
AcDbBlockReference
  2
block 28
 10
0.0
 20
0.0
 30
0.0
  0
ENDBLK
  5
359
330
356
100
AcDbEntity
  8
0
100
AcDbBlockEnd
  0
BLOCK
  5
360
330
35E
100
AcDbEntity
  8
0
100
AcDbBlockBegin
  2
block 28
 70
     0
 10
0.0
 20
0.0
 30
0.0
  3
block 28
  1

  0
POLYLINE
  5
362
330
35E
100
AcDbEntity
  8
Layer 1
370
     0
100
AcDb2dPolyline
 66
     1
 10
0.0
 20
0.0
 30
0.0
  0
VERTEX
  5
363
330
362
100
AcDbEntity
  8
Layer 1
370
     0
100
AcDbVertex
100
AcDb2dVertex
 10
772.1220485870887
 20
91.66860279181867
 30
0.0
  0
VERTEX
  5
364
330
362
100
AcDbEntity
  8
Layer 1
370
     0
100
AcDbVertex
100
AcDb2dVertex
 10
787.152490933701
 20
87.64057768697742
 30
0.0
  0
VERTEX
  5
365
330
362
100
AcDbEntity
  8
Layer 1
370
     0
100
AcDbVertex
100
AcDb2dVertex
 10
772.1220485870887
 20
83.61247794899826
 30
0.0
  0
VERTEX
  5
366
330
362
100
AcDbEntity
  8
Layer 1
370
     0
100
AcDbVertex
100
AcDb2dVertex
 10
772.1220485870887
 20
91.66860279181867
 30
0.0
  0
SEQEND
  5
368
330
362
100
AcDbEntity
  8
Layer 1
370
     0
  0
HATCH
  5
367
330
35E
100
AcDbEntity
  8
Layer 1
 62
     7
420
 16777215
100
AcDbHatch
 10
0.0
 20
0.0
 30
0.0
210
0.0
220
0.0
230
1.0
  2
SOLID
 70
     1
 71
     0
 91
        1
 92
        1
 93
        3
 72
     1
 10
772.1220485870887
 20
91.66860279181867
 11
787.152490933701
 21
87.64057768697742
 72
     1
 10
787.152490933701
 20
87.64057768697742
 11
772.1220485870887
 21
83.61247794899826
 72
     1
 10
772.1220485870887
 20
83.61247794899826
 11
772.1220485870887
 21
91.66860279181867
 97
        0
 75
     2
 76
     1
 98
        0
  0
ENDBLK
  5
361
330
35E
100
AcDbEntity
  8
0
100
AcDbBlockEnd
  0
BLOCK
  5
36B
330
369
100
AcDbEntity
  8
0
100
AcDbBlockBegin
  2
block 29
 70
     0
 10
0.0
 20
0.0
 30
0.0
  3
block 29
  1

  0
POLYLINE
  5
36D
330
369
100
AcDbEntity
  8
Layer 1
 62
     7
420
 16777215
370
    20
100
AcDb2dPolyline
 66
     1
 10
0.0
 20
0.0
 30
0.0
  0
VERTEX
  5
36E
330
36D
100
AcDbEntity
  8
Layer 1
 62
     7
420
 16777215
370
    20
100
AcDbVertex
100
AcDb2dVertex
 10
37.21182485794218
 20
132.9013195174484
 30
0.0
  0
VERTEX
  5
36F
330
36D
100
AcDbEntity
  8
Layer 1
 62
     7
420
 16777215
370
    20
100
AcDbVertex
100
AcDb2dVertex
 10
147.4611110742458
 20
132.9013195174484
 30
0.0
  0
SEQEND
  5
370
330
36D
100
AcDbEntity
  8
Layer 1
 62
     7
420
 16777215
370
    20
  0
INSERT
  5
372
330
369
100
AcDbEntity
  8
Layer 1
100
AcDbBlockReference
  2
block 30
 10
0.0
 20
0.0
 30
0.0
  0
ENDBLK
  5
36C
330
369
100
AcDbEntity
  8
0
100
AcDbBlockEnd
  0
BLOCK
  5
373
330
371
100
AcDbEntity
  8
0
100
AcDbBlockBegin
  2
block 30
 70
     0
 10
0.0
 20
0.0
 30
0.0
  3
block 30
  1

  0
POLYLINE
  5
375
330
371
100
AcDbEntity
  8
Layer 1
370
     0
100
AcDb2dPolyline
 66
     1
 10
0.0
 20
0.0
 30
0.0
  0
VERTEX
  5
376
330
375
100
AcDbEntity
  8
Layer 1
370
     0
100
AcDbVertex
100
AcDb2dVertex
 10
39.95907067716303
 20
128.8732197794692
 30
0.0
  0
VERTEX
  5
377
330
375
100
AcDbEntity
  8
Layer 1
370
     0
100
AcDbVertex
100
AcDb2dVertex
 10
24.92855369741291
 20
132.9013195174484
 30
0.0
  0
VERTEX
  5
378
330
375
100
AcDbEntity
  8
Layer 1
370
     0
100
AcDbVertex
100
AcDb2dVertex
 10
39.95907067716303
 20
136.9293446222896
 30
0.0
  0
VERTEX
  5
379
330
375
100
AcDbEntity
  8
Layer 1
370
     0
100
AcDbVertex
100
AcDb2dVertex
 10
39.95907067716303
 20
128.8732197794692
 30
0.0
  0
SEQEND
  5
37B
330
375
100
AcDbEntity
  8
Layer 1
370
     0
  0
HATCH
  5
37A
330
371
100
AcDbEntity
  8
Layer 1
 62
     7
420
 16777215
100
AcDbHatch
 10
0.0
 20
0.0
 30
0.0
210
0.0
220
0.0
230
1.0
  2
SOLID
 70
     1
 71
     0
 91
        1
 92
        1
 93
        3
 72
     1
 10
39.95907067716303
 20
128.8732197794692
 11
24.92855369741291
 21
132.9013195174484
 72
     1
 10
24.92855369741291
 20
132.9013195174484
 11
39.95907067716303
 21
136.9293446222896
 72
     1
 10
39.95907067716303
 20
136.9293446222896
 11
39.95907067716303
 21
128.8732197794692
 97
        0
 75
     2
 76
     1
 98
        0
  0
ENDBLK
  5
374
330
371
100
AcDbEntity
  8
0
100
AcDbBlockEnd
  0
BLOCK
  5
37E
330
37C
100
AcDbEntity
  8
0
100
AcDbBlockBegin
  2
block 31
 70
     0
 10
0.0
 20
0.0
 30
0.0
  3
block 31
  1

  0
POLYLINE
  5
380
330
37C
100
AcDbEntity
  8
Layer 1
 62
     7
420
 16777215
370
    20
100
AcDb2dPolyline
 66
     1
 10
0.0
 20
0.0
 30
0.0
  0
VERTEX
  5
381
330
380
100
AcDbEntity
  8
Layer 1
 62
     7
420
 16777215
370
    20
100
AcDbVertex
100
AcDb2dVertex
 10
336.4860571450696
 20
133.1545830710309
 30
0.0
  0
VERTEX
  5
382
330
380
100
AcDbEntity
  8
Layer 1
 62
     7
420
 16777215
370
    20
100
AcDbVertex
100
AcDb2dVertex
 10
538.3388887543042
 20
133.1545830710309
 30
0.0
  0
SEQEND
  5
383
330
380
100
AcDbEntity
  8
Layer 1
 62
     7
420
 16777215
370
    20
  0
INSERT
  5
385
330
37C
100
AcDbEntity
  8
Layer 1
100
AcDbBlockReference
  2
block 32
 10
0.0
 20
0.0
 30
0.0
  0
ENDBLK
  5
37F
330
37C
100
AcDbEntity
  8
0
100
AcDbBlockEnd
  0
BLOCK
  5
386
330
384
100
AcDbEntity
  8
0
100
AcDbBlockBegin
  2
block 32
 70
     0
 10
0.0
 20
0.0
 30
0.0
  3
block 32
  1

  0
POLYLINE
  5
388
330
384
100
AcDbEntity
  8
Layer 1
370
     0
100
AcDb2dPolyline
 66
     1
 10
0.0
 20
0.0
 30
0.0
  0
VERTEX
  5
389
330
388
100
AcDbEntity
  8
Layer 1
370
     0
100
AcDbVertex
100
AcDb2dVertex
 10
339.2333029642905
 20
129.1264833330518
 30
0.0
  0
VERTEX
  5
38A
330
388
100
AcDbEntity
  8
Layer 1
370
     0
100
AcDbVertex
100
AcDb2dVertex
 10
324.2027859845404
 20
133.1545830710309
 30
0.0
  0
VERTEX
  5
38B
330
388
100
AcDbEntity
  8
Layer 1
370
     0
100
AcDbVertex
100
AcDb2dVertex
 10
339.2333029642905
 20
137.1826081758722
 30
0.0
  0
VERTEX
  5
38C
330
388
100
AcDbEntity
  8
Layer 1
370
     0
100
AcDbVertex
100
AcDb2dVertex
 10
339.2333029642905
 20
129.1264833330518
 30
0.0
  0
SEQEND
  5
38E
330
388
100
AcDbEntity
  8
Layer 1
370
     0
  0
HATCH
  5
38D
330
384
100
AcDbEntity
  8
Layer 1
 62
     7
420
 16777215
100
AcDbHatch
 10
0.0
 20
0.0
 30
0.0
210
0.0
220
0.0
230
1.0
  2
SOLID
 70
     1
 71
     0
 91
        1
 92
        1
 93
        3
 72
     1
 10
339.2333029642905
 20
129.1264833330518
 11
324.2027859845404
 21
133.1545830710309
 72
     1
 10
324.2027859845404
 20
133.1545830710309
 11
339.2333029642905
 21
137.1826081758722
 72
     1
 10
339.2333029642905
 20
137.1826081758722
 11
339.2333029642905
 21
129.1264833330518
 97
        0
 75
     2
 76
     1
 98
        0
  0
ENDBLK
  5
387
330
384
100
AcDbEntity
  8
0
100
AcDbBlockEnd
  0
BLOCK
  5
391
330
38F
100
AcDbEntity
  8
0
100
AcDbBlockBegin
  2
block 33
 70
     0
 10
0.0
 20
0.0
 30
0.0
  3
block 33
  1

  0
POLYLINE
  5
393
330
38F
100
AcDbEntity
  8
Layer 1
 62
     7
420
 16777215
370
    20
100
AcDb2dPolyline
 66
     1
 10
0.0
 20
0.0
 30
0.0
  0
VERTEX
  5
394
330
393
100
AcDbEntity
  8
Layer 1
 62
     7
420
 16777215
370
    20
100
AcDbVertex
100
AcDb2dVertex
 10
311.3326386795304
 20
133.1545457594429
 30
0.0
  0
VERTEX
  5
395
330
393
100
AcDbEntity
  8
Layer 1
 62
     7
420
 16777215
370
    20
100
AcDbVertex
100
AcDb2dVertex
 10
205.3166666153375
 20
132.9012998054678
 30
0.0
  0
SEQEND
  5
396
330
393
100
AcDbEntity
  8
Layer 1
 62
     7
420
 16777215
370
    20
  0
INSERT
  5
398
330
38F
100
AcDbEntity
  8
Layer 1
100
AcDbBlockReference
  2
block 34
 10
0.0
 20
0.0
 30
0.0
  0
ENDBLK
  5
392
330
38F
100
AcDbEntity
  8
0
100
AcDbBlockEnd
  0
BLOCK
  5
399
330
397
100
AcDbEntity
  8
0
100
AcDbBlockBegin
  2
block 34
 70
     0
 10
0.0
 20
0.0
 30
0.0
  3
block 34
  1

  0
POLYLINE
  5
39B
330
397
100
AcDbEntity
  8
Layer 1
370
     0
100
AcDb2dPolyline
 66
     1
 10
0.0
 20
0.0
 30
0.0
  0
VERTEX
  5
39C
330
39B
100
AcDbEntity
  8
Layer 1
370
     0
100
AcDbVertex
100
AcDb2dVertex
 10
308.5853928603057
 20
137.1825708642835
 30
0.0
  0
VERTEX
  5
39D
330
39B
100
AcDbEntity
  8
Layer 1
370
     0
100
AcDbVertex
100
AcDb2dVertex
 10
323.6158352069185
 20
133.1545457594429
 30
0.0
  0
VERTEX
  5
39E
330
39B
100
AcDbEntity
  8
Layer 1
370
     0
100
AcDbVertex
100
AcDb2dVertex
 10
308.5853928603057
 20
129.1264460214637
 30
0.0
  0
VERTEX
  5
39F
330
39B
100
AcDbEntity
  8
Layer 1
370
     0
100
AcDbVertex
100
AcDb2dVertex
 10
308.5853928603057
 20
137.1825708642835
 30
0.0
  0
SEQEND
  5
3A1
330
39B
100
AcDbEntity
  8
Layer 1
370
     0
  0
HATCH
  5
3A0
330
397
100
AcDbEntity
  8
Layer 1
 62
     7
420
 16777215
100
AcDbHatch
 10
0.0
 20
0.0
 30
0.0
210
0.0
220
0.0
230
1.0
  2
SOLID
 70
     1
 71
     0
 91
        1
 92
        1
 93
        3
 72
     1
 10
308.5853928603057
 20
137.1825708642835
 11
323.6158352069185
 21
133.1545457594429
 72
     1
 10
323.6158352069185
 20
133.1545457594429
 11
308.5853928603057
 21
129.1264460214637
 72
     1
 10
308.5853928603057
 20
129.1264460214637
 11
308.5853928603057
 21
137.1825708642835
 97
        0
 75
     2
 76
     1
 98
        0
  0
ENDBLK
  5
39A
330
397
100
AcDbEntity
  8
0
100
AcDbBlockEnd
  0
BLOCK
  5
3A4
330
3A2
100
AcDbEntity
  8
0
100
AcDbBlockBegin
  2
block 35
 70
     0
 10
0.0
 20
0.0
 30
0.0
  3
block 35
  1

  0
POLYLINE
  5
3A6
330
3A2
100
AcDbEntity
  8
Layer 1
 62
     7
420
 16777215
370
    20
100
AcDb2dPolyline
 66
     1
 10
0.0
 20
0.0
 30
0.0
  0
VERTEX
  5
3A7
330
3A6
100
AcDbEntity
  8
Layer 1
 62
     7
420
 16777215
370
    20
100
AcDbVertex
100
AcDb2dVertex
 10
774.5757236196014
 20
133.1545457594429
 30
0.0
  0
VERTEX
  5
3A8
330
3A6
100
AcDbEntity
  8
Layer 1
 62
     7
420
 16777215
370
    20
100
AcDbVertex
100
AcDb2dVertex
 10
600.0749998499813
 20
132.9012998054678
 30
0.0
  0
SEQEND
  5
3A9
330
3A6
100
AcDbEntity
  8
Layer 1
 62
     7
420
 16777215
370
    20
  0
INSERT
  5
3AB
330
3A2
100
AcDbEntity
  8
Layer 1
100
AcDbBlockReference
  2
block 36
 10
0.0
 20
0.0
 30
0.0
  0
ENDBLK
  5
3A5
330
3A2
100
AcDbEntity
  8
0
100
AcDbBlockEnd
  0
BLOCK
  5
3AC
330
3AA
100
AcDbEntity
  8
0
100
AcDbBlockBegin
  2
block 36
 70
     0
 10
0.0
 20
0.0
 30
0.0
  3
block 36
  1

  0
POLYLINE
  5
3AE
330
3AA
100
AcDbEntity
  8
Layer 1
370
     0
100
AcDb2dPolyline
 66
     1
 10
0.0
 20
0.0
 30
0.0
  0
VERTEX
  5
3AF
330
3AE
100
AcDbEntity
  8
Layer 1
370
     0
100
AcDbVertex
100
AcDb2dVertex
 10
771.8284778003773
 20
137.1825708642835
 30
0.0
  0
VERTEX
  5
3B0
330
3AE
100
AcDbEntity
  8
Layer 1
370
     0
100
AcDbVertex
100
AcDb2dVertex
 10
786.8589201469895
 20
133.1545457594429
 30
0.0
  0
VERTEX
  5
3B1
330
3AE
100
AcDbEntity
  8
Layer 1
370
     0
100
AcDbVertex
100
AcDb2dVertex
 10
771.8284778003773
 20
129.1264460214637
 30
0.0
  0
VERTEX
  5
3B2
330
3AE
100
AcDbEntity
  8
Layer 1
370
     0
100
AcDbVertex
100
AcDb2dVertex
 10
771.8284778003773
 20
137.1825708642835
 30
0.0
  0
SEQEND
  5
3B4
330
3AE
100
AcDbEntity
  8
Layer 1
370
     0
  0
HATCH
  5
3B3
330
3AA
100
AcDbEntity
  8
Layer 1
 62
     7
420
 16777215
100
AcDbHatch
 10
0.0
 20
0.0
 30
0.0
210
0.0
220
0.0
230
1.0
  2
SOLID
 70
     1
 71
     0
 91
        1
 92
        1
 93
        3
 72
     1
 10
771.8284778003773
 20
137.1825708642835
 11
786.8589201469895
 21
133.1545457594429
 72
     1
 10
786.8589201469895
 20
133.1545457594429
 11
771.8284778003773
 21
129.1264460214637
 72
     1
 10
771.8284778003773
 20
129.1264460214637
 11
771.8284778003773
 21
137.1825708642835
 97
        0
 75
     2
 76
     1
 98
        0
  0
ENDBLK
  5
3AD
330
3AA
100
AcDbEntity
  8
0
100
AcDbBlockEnd
  0
BLOCK
  5
3B7
330
3B5
100
AcDbEntity
  8
0
100
AcDbBlockBegin
  2
block 37
 70
     0
 10
0.0
 20
0.0
 30
0.0
  3
block 37
  1

  0
MTEXT
  5
3B9
330
3B5
100
AcDbEntity
  8
Layer 1
 62
     7
420
 16777215
100
AcDbMText
 10
924.5848216818313
 20
-619.7204415361507
 30
0.0
 40
9.59555562313517
 41
0.0
 46
0.0
 71
     7
 72
     1
  1
\fFrutiger LT Std 55 Roman|b0|i0|c0|p34;\W1;CAD Drawing: AP1411
 73
     1
 44
1.0
  0
ENDBLK
  5
3B8
330
3B5
100
AcDbEntity
  8
0
100
AcDbBlockEnd
  0
BLOCK
  5
3BC
330
3BA
100
AcDbEntity
  8
0
100
AcDbBlockBegin
  2
block 38
 70
     0
 10
0.0
 20
0.0
 30
0.0
  3
block 38
  1

  0
SPLINE
  5
3BE
330
3BA
100
AcDbEntity
  8
Layer 1
370
     0
100
AcDbSpline
210
0.0
220
0.0
230
1.0
 70
    11
 71
     3
 72
    38
 73
    34
 74
     0
 42
0.0000000001
 43
0.0000000001
 12
1.0
 22
0.0
 32
0.0
 13
1.0
 23
0.0
 33
0.0
 40
0.0
 40
0.0
 40
0.0
 40
0.0
 40
1.0
 40
1.0
 40
1.0
 40
2.0
 40
2.0
 40
2.0
 40
3.0
 40
3.0
 40
3.0
 40
4.0
 40
4.0
 40
4.0
 40
5.0
 40
5.0
 40
5.0
 40
6.0
 40
6.0
 40
6.0
 40
7.0
 40
7.0
 40
7.0
 40
8.0
 40
8.0
 40
8.0
 40
9.0
 40
9.0
 40
9.0
 40
10.0
 40
10.0
 40
10.0
 40
11.0
 40
11.0
 40
11.0
 40
11.0
 10
1017.788705364078
 20
-590.3684701769162
 30
0.0
 10
1017.788705364078
 20
-590.3684701769162
 30
0.0
 10
1017.757699504711
 20
-590.2337669434429
 30
0.0
 10
1017.757699504711
 20
-590.2337669434429
 30
0.0
 10
1018.151129409126
 20
-589.4947939618568
 30
0.0
 10
1018.787094035703
 20
-589.1547630374627
 30
0.0
 10
1019.593246379252
 20
-589.6170948515831
 30
0.0
 10
1020.300179972825
 20
-589.9764183106947
 30
0.0
 10
1021.475646552393
 20
-589.188524973218
 30
0.0
 10
1022.215653062624
 20
-589.0114470652762
 30
0.0
 10
1024.902138522022
 20
-588.0006560499039
 30
0.0
 10
1027.729183877218
 20
-587.3037132332379
 30
0.0
 10
1030.448053234177
 20
-586.3380529687223
 30
0.0
 10
1030.448053234177
 20
-586.3380529687223
 30
0.0
 10
1030.612728798372
 20
-586.2915441796715
 30
0.0
 10
1030.807721202837
 20
-586.2908551605744
 30
0.0
 10
1031.551861827651
 20
-586.285343007798
 30
0.0
 10
1032.083095551477
 20
-586.9623042706496
 30
0.0
 10
1031.434039562056
 20
-587.5900006680621
 30
0.0
 10
1030.742953407715
 20
-588.2576601731035
 30
0.0
 10
1028.810943859586
 20
-588.926008697242
 30
0.0
 10
1027.918664128907
 20
-589.3559566138013
 30
0.0
 10
1027.918664128907
 20
-589.3559566138013
 30
0.0
 10
1021.556261786747
 20
-591.7995628414889
 30
0.0
 10
1021.007113566399
 20
-592.0465761877813
 30
0.0
 10
1020.900315606356
 20
-592.0937739959293
 30
0.0
 10
1020.810743123739
 20
-592.1502735618874
 30
0.0
 10
1020.724615736608
 20
-592.213663318816
 30
0.0
 10
1020.724615736608
 20
-592.213663318816
 30
0.0
 10
1020.455898288759
 20
-592.4172684619942
 30
0.0
 10
1020.455898288759
 20
-592.4172684619942
 30
0.0
 10
1019.197060398448
 20
-593.3229840650664
 30
0.0
 10
1018.005746379649
 20
-591.3472218042756
 30
0.0
 10
1017.788705364078
 20
-590.3684701769162
 30
0.0
  0
ENDBLK
  5
3BD
330
3BA
100
AcDbEntity
  8
0
100
AcDbBlockEnd
  0
BLOCK
  5
3C1
330
3BF
100
AcDbEntity
  8
0
100
AcDbBlockBegin
  2
block 39
 70
     0
 10
0.0
 20
0.0
 30
0.0
  3
block 39
  1

  0
SPLINE
  5
3C3
330
3BF
100
AcDbEntity
  8
Layer 1
370
     0
100
AcDbSpline
210
0.0
220
0.0
230
1.0
 70
    11
 71
     3
 72
    41
 73
    37
 74
     0
 42
0.0000000001
 43
0.0000000001
 12
1.0
 22
0.0
 32
0.0
 13
1.0
 23
0.0
 33
0.0
 40
0.0
 40
0.0
 40
0.0
 40
0.0
 40
1.0
 40
1.0
 40
1.0
 40
2.0
 40
2.0
 40
2.0
 40
3.0
 40
3.0
 40
3.0
 40
4.0
 40
4.0
 40
4.0
 40
5.0
 40
5.0
 40
5.0
 40
6.0
 40
6.0
 40
6.0
 40
7.0
 40
7.0
 40
7.0
 40
8.0
 40
8.0
 40
8.0
 40
9.0
 40
9.0
 40
9.0
 40
10.0
 40
10.0
 40
10.0
 40
11.0
 40
11.0
 40
11.0
 40
12.0
 40
12.0
 40
12.0
 40
12.0
 10
1017.788705364078
 20
-590.3684701769162
 30
0.0
 10
1017.788705364078
 20
-590.3684701769162
 30
0.0
 10
1017.757699504708
 20
-590.2337669434429
 30
0.0
 10
1017.757699504708
 20
-590.2337669434429
 30
0.0
 10
1018.151129409126
 20
-589.4947939618568
 30
0.0
 10
1018.787094035703
 20
-589.1547630374627
 30
0.0
 10
1019.593246379252
 20
-589.6170948515831
 30
0.0
 10
1020.300179972825
 20
-589.9764183106947
 30
0.0
 10
1021.475646552393
 20
-589.188524973218
 30
0.0
 10
1022.215653062624
 20
-589.0114470652762
 30
0.0
 10
1024.902138522019
 20
-588.0006560499039
 30
0.0
 10
1027.729183877215
 20
-587.3037132332379
 30
0.0
 10
1030.448053234177
 20
-586.3380529687223
 30
0.0
 10
1030.448053234177
 20
-586.3380529687223
 30
0.0
 10
1030.612728798372
 20
-586.2915441796715
 30
0.0
 10
1030.807721202837
 20
-586.2908551605744
 30
0.0
 10
1031.551861827651
 20
-586.285343007798
 30
0.0
 10
1032.083095551477
 20
-586.9623042706496
 30
0.0
 10
1031.434039562056
 20
-587.5900006680621
 30
0.0
 10
1030.742953407715
 20
-588.2576601731035
 30
0.0
 10
1028.810943859586
 20
-588.926008697242
 30
0.0
 10
1027.918664128904
 20
-589.3559566138013
 30
0.0
 10
1027.918664128904
 20
-589.3559566138013
 30
0.0
 10
1021.556261786744
 20
-591.7995628414889
 30
0.0
 10
1021.007113566399
 20
-592.0465761877813
 30
0.0
 10
1020.900315606356
 20
-592.0937739959293
 30
0.0
 10
1020.810743123739
 20
-592.1502735618874
 30
0.0
 10
1020.724615736608
 20
-592.213663318816
 30
0.0
 10
1020.724615736608
 20
-592.213663318816
 30
0.0
 10
1020.455898288759
 20
-592.4172684619942
 30
0.0
 10
1020.455898288759
 20
-592.4172684619942
 30
0.0
 10
1019.197060398445
 20
-593.3229840650664
 30
0.0
 10
1017.788705364078
 20
-590.3684701769162
 30
0.0
 10
1017.788705364078
 20
-590.3684701769162
 30
0.0
 10
1017.788705364078
 20
-590.3684701769162
 30
0.0
 10
1018.005746379649
 20
-591.3472218042756
 30
0.0
 10
1017.788705364078
 20
-590.3684701769162
 30
0.0
  0
HATCH
  5
3C4
330
3BF
100
AcDbEntity
  8
Layer 1
 62
   254
420
 14079702
100
AcDbHatch
 10
0.0
 20
0.0
 30
0.0
210
0.0
220
0.0
230
1.0
  2
SOLID
 70
     1
 71
     0
 91
        1
 92
        1
 93
        1
 72
     4
 94
        3
 73
     0
 74
     1
 95
       41
 96
       37
 40
0.0
 40
0.0
 40
0.0
 40
0.0
 40
1.0
 40
1.0
 40
1.0
 40
2.0
 40
2.0
 40
2.0
 40
3.0
 40
3.0
 40
3.0
 40
4.0
 40
4.0
 40
4.0
 40
5.0
 40
5.0
 40
5.0
 40
6.0
 40
6.0
 40
6.0
 40
7.0
 40
7.0
 40
7.0
 40
8.0
 40
8.0
 40
8.0
 40
9.0
 40
9.0
 40
9.0
 40
10.0
 40
10.0
 40
10.0
 40
11.0
 40
11.0
 40
11.0
 40
12.0
 40
12.0
 40
12.0
 40
12.0
 10
1017.788705364078
 20
-590.3684701769162
 10
1017.788705364078
 20
-590.3684701769162
 10
1017.757699504708
 20
-590.2337669434429
 10
1017.757699504708
 20
-590.2337669434429
 10
1018.151129409126
 20
-589.4947939618568
 10
1018.787094035703
 20
-589.1547630374627
 10
1019.593246379252
 20
-589.6170948515831
 10
1020.300179972825
 20
-589.9764183106947
 10
1021.475646552393
 20
-589.188524973218
 10
1022.215653062624
 20
-589.0114470652762
 10
1024.902138522019
 20
-588.0006560499039
 10
1027.729183877215
 20
-587.3037132332379
 10
1030.448053234177
 20
-586.3380529687223
 10
1030.448053234177
 20
-586.3380529687223
 10
1030.612728798372
 20
-586.2915441796715
 10
1030.807721202837
 20
-586.2908551605744
 10
1031.551861827651
 20
-586.285343007798
 10
1032.083095551477
 20
-586.9623042706496
 10
1031.434039562056
 20
-587.5900006680621
 10
1030.742953407715
 20
-588.2576601731035
 10
1028.810943859586
 20
-588.926008697242
 10
1027.918664128904
 20
-589.3559566138013
 10
1027.918664128904
 20
-589.3559566138013
 10
1021.556261786744
 20
-591.7995628414889
 10
1021.007113566399
 20
-592.0465761877813
 10
1020.900315606356
 20
-592.0937739959293
 10
1020.810743123739
 20
-592.1502735618874
 10
1020.724615736608
 20
-592.213663318816
 10
1020.724615736608
 20
-592.213663318816
 10
1020.455898288759
 20
-592.4172684619942
 10
1020.455898288759
 20
-592.4172684619942
 10
1019.197060398445
 20
-593.3229840650664
 10
1017.788705364078
 20
-590.3684701769162
 10
1017.788705364078
 20
-590.3684701769162
 10
1017.788705364078
 20
-590.3684701769162
 10
1018.005746379649
 20
-591.3472218042756
 10
1017.788705364078
 20
-590.3684701769162
 97
        0
 97
        0
 75
     2
 76
     1
 98
        0
  0
ENDBLK
  5
3C2
330
3BF
100
AcDbEntity
  8
0
100
AcDbBlockEnd
  0
BLOCK
  5
3C7
330
3C5
100
AcDbEntity
  8
0
100
AcDbBlockBegin
  2
block 40
 70
     0
 10
0.0
 20
0.0
 30
0.0
  3
block 40
  1

  0
SPLINE
  5
3C9
330
3C5
100
AcDbEntity
  8
Layer 1
370
     0
100
AcDbSpline
210
0.0
220
0.0
230
1.0
 70
    11
 71
     3
 72
    14
 73
    10
 74
     0
 42
0.0000000001
 43
0.0000000001
 12
1.0
 22
0.0
 32
0.0
 13
1.0
 23
0.0
 33
0.0
 40
0.0
 40
0.0
 40
0.0
 40
0.0
 40
1.0
 40
1.0
 40
1.0
 40
2.0
 40
2.0
 40
2.0
 40
3.0
 40
3.0
 40
3.0
 40
3.0
 10
991.2731834523042
 20
-584.8483936809004
 30
0.0
 10
991.0575204749276
 20
-587.7808589579449
 30
0.0
 10
989.8538041123813
 20
-589.7214812447862
 30
0.0
 10
988.4185773332263
 20
-592.1433833709168
 30
0.0
 10
988.4364918297495
 20
-589.1017085669897
 30
0.0
 10
988.8499032879795
 20
-586.3800831336424
 30
0.0
 10
990.718523079179
 20
-584.4070769492398
 30
0.0
 10
990.9583017249524
 20
-584.0801373876895
 30
0.0
 10
991.3338171328446
 20
-584.1369814631962
 30
0.0
 10
991.2731834523042
 20
-584.8483936809004
 30
0.0
  0
ENDBLK
  5
3C8
330
3C5
100
AcDbEntity
  8
0
100
AcDbBlockEnd
  0
BLOCK
  5
3CC
330
3CA
100
AcDbEntity
  8
0
100
AcDbBlockBegin
  2
block 41
 70
     0
 10
0.0
 20
0.0
 30
0.0
  3
block 41
  1

  0
SPLINE
  5
3CE
330
3CA
100
AcDbEntity
  8
Layer 1
370
     0
100
AcDbSpline
210
0.0
220
0.0
230
1.0
 70
    11
 71
     3
 72
    14
 73
    10
 74
     0
 42
0.0000000001
 43
0.0000000001
 12
1.0
 22
0.0
 32
0.0
 13
1.0
 23
0.0
 33
0.0
 40
0.0
 40
0.0
 40
0.0
 40
0.0
 40
1.0
 40
1.0
 40
1.0
 40
2.0
 40
2.0
 40
2.0
 40
3.0
 40
3.0
 40
3.0
 40
3.0
 10
1020.505507663746
 20
-597.1019093028369
 30
0.0
 10
1020.495861396387
 20
-597.3482336300323
 30
0.0
 10
1019.908817125701
 20
-597.9969451099048
 30
0.0
 10
1018.852550849923
 20
-598.1798796801717
 30
0.0
 10
1018.659625502749
 20
-596.9382672672875
 30
0.0
 10
1019.259072117183
 20
-596.2130746676424
 30
0.0
 10
1019.846116387869
 20
-596.2130746676424
 30
0.0
 10
1020.33187485129
 20
-596.2130746676424
 30
0.0
 10
1020.532379408531
 20
-596.3953202188122
 30
0.0
 10
1020.505507663746
 20
-597.1019093028369
 30
0.0
  0
ENDBLK
  5
3CD
330
3CA
100
AcDbEntity
  8
0
100
AcDbBlockEnd
  0
BLOCK
  5
3D1
330
3CF
100
AcDbEntity
  8
0
100
AcDbBlockBegin
  2
block 42
 70
     0
 10
0.0
 20
0.0
 30
0.0
  3
block 42
  1

  0
SPLINE
  5
3D3
330
3CF
100
AcDbEntity
  8
Layer 1
370
     0
100
AcDbSpline
210
0.0
220
0.0
230
1.0
 70
    11
 71
     3
 72
   200
 73
   196
 74
     0
 42
0.0000000001
 43
0.0000000001
 12
1.0
 22
0.0
 32
0.0
 13
1.0
 23
0.0
 33
0.0
 40
0.0
 40
0.0
 40
0.0
 40
0.0
 40
1.0
 40
1.0
 40
1.0
 40
2.0
 40
2.0
 40
2.0
 40
3.0
 40
3.0
 40
3.0
 40
4.0
 40
4.0
 40
4.0
 40
5.0
 40
5.0
 40
5.0
 40
6.0
 40
6.0
 40
6.0
 40
7.0
 40
7.0
 40
7.0
 40
8.0
 40
8.0
 40
8.0
 40
9.0
 40
9.0
 40
9.0
 40
10.0
 40
10.0
 40
10.0
 40
11.0
 40
11.0
 40
11.0
 40
12.0
 40
12.0
 40
12.0
 40
13.0
 40
13.0
 40
13.0
 40
14.0
 40
14.0
 40
14.0
 40
15.0
 40
15.0
 40
15.0
 40
16.0
 40
16.0
 40
16.0
 40
17.0
 40
17.0
 40
17.0
 40
18.0
 40
18.0
 40
18.0
 40
19.0
 40
19.0
 40
19.0
 40
20.0
 40
20.0
 40
20.0
 40
21.0
 40
21.0
 40
21.0
 40
22.0
 40
22.0
 40
22.0
 40
23.0
 40
23.0
 40
23.0
 40
24.0
 40
24.0
 40
24.0
 40
25.0
 40
25.0
 40
25.0
 40
26.0
 40
26.0
 40
26.0
 40
27.0
 40
27.0
 40
27.0
 40
28.0
 40
28.0
 40
28.0
 40
29.0
 40
29.0
 40
29.0
 40
30.0
 40
30.0
 40
30.0
 40
31.0
 40
31.0
 40
31.0
 40
32.0
 40
32.0
 40
32.0
 40
33.0
 40
33.0
 40
33.0
 40
34.0
 40
34.0
 40
34.0
 40
35.0
 40
35.0
 40
35.0
 40
36.0
 40
36.0
 40
36.0
 40
37.0
 40
37.0
 40
37.0
 40
38.0
 40
38.0
 40
38.0
 40
39.0
 40
39.0
 40
39.0
 40
40.0
 40
40.0
 40
40.0
 40
41.0
 40
41.0
 40
41.0
 40
42.0
 40
42.0
 40
42.0
 40
43.0
 40
43.0
 40
43.0
 40
44.0
 40
44.0
 40
44.0
 40
45.0
 40
45.0
 40
45.0
 40
46.0
 40
46.0
 40
46.0
 40
47.0
 40
47.0
 40
47.0
 40
48.0
 40
48.0
 40
48.0
 40
49.0
 40
49.0
 40
49.0
 40
50.0
 40
50.0
 40
50.0
 40
51.0
 40
51.0
 40
51.0
 40
52.0
 40
52.0
 40
52.0
 40
53.0
 40
53.0
 40
53.0
 40
54.0
 40
54.0
 40
54.0
 40
55.0
 40
55.0
 40
55.0
 40
56.0
 40
56.0
 40
56.0
 40
57.0
 40
57.0
 40
57.0
 40
58.0
 40
58.0
 40
58.0
 40
59.0
 40
59.0
 40
59.0
 40
60.0
 40
60.0
 40
60.0
 40
61.0
 40
61.0
 40
61.0
 40
62.0
 40
62.0
 40
62.0
 40
63.0
 40
63.0
 40
63.0
 40
64.0
 40
64.0
 40
64.0
 40
65.0
 40
65.0
 40
65.0
 40
65.0
 10
1028.302447765964
 20
-599.6867644454198
 30
0.0
 10
1028.302447765964
 20
-599.6867644454198
 30
0.0
 10
1028.531202106184
 20
-600.6417449139311
 30
0.0
 10
1028.531202106184
 20
-600.6417449139311
 30
0.0
 10
1028.657292600944
 20
-601.1371496447101
 30
0.0
 10
1028.802675630422
 20
-601.5974144015395
 30
0.0
 10
1029.04589937168
 20
-602.0504444578498
 30
0.0
 10
1030.589302149072
 20
-604.115779201257
 30
0.0
 10
1034.529113346004
 20
-603.8791011414204
 30
0.0
 10
1036.54793930036
 20
-603.2531272917505
 30
0.0
 10
1037.666217294873
 20
-602.9055171572888
 30
0.0
 10
1038.740398067174
 20
-602.3312197398976
 30
0.0
 10
1039.747743987061
 20
-601.7324621445613
 30
0.0
 10
1042.315718161766
 20
-603.4205589323336
 30
0.0
 10
1045.55893105158
 20
-603.9428354078975
 30
0.0
 10
1048.808345113268
 20
-603.955582261193
 30
0.0
 10
1052.129417161048
 20
-603.9679846049398
 30
0.0
 10
1055.520080137631
 20
-603.4453636198275
 30
0.0
 10
1058.307162385199
 20
-603.039531371665
 30
0.0
 10
1061.271322540707
 20
-602.8493621008793
 30
0.0
 10
1063.634658043589
 20
-601.4516868625134
 30
0.0
 10
1066.753158476837
 20
-602.1224469534915
 30
0.0
 10
1067.425641115558
 20
-601.8978267278533
 30
0.0
 10
1067.955496801189
 20
-601.5546952175223
 30
0.0
 10
1067.905887426202
 20
-600.7185705432522
 30
0.0
 10
1067.604097061694
 20
-599.9785640330206
 30
0.0
 10
1067.185862469784
 20
-599.4614552006846
 30
0.0
 10
1066.314253312016
 20
-599.392208781431
 30
0.0
 10
1064.843886558912
 20
-600.0247283125229
 30
0.0
 10
1063.184039554118
 20
-599.8373151181253
 30
0.0
 10
1061.648905005891
 20
-600.2142085642116
 30
0.0
 10
1057.746989859297
 20
-601.1237137723176
 30
0.0
 10
1053.592893723183
 20
-601.4806256645895
 30
0.0
 10
1049.177659349286
 20
-601.7197152912659
 30
0.0
 10
1046.440186476707
 20
-601.6966331515147
 30
0.0
 10
1042.979932571322
 20
-601.654258477046
 30
0.0
 10
1041.071349672494
 20
-599.3470780305743
 30
0.0
 10
1040.860509828796
 20
-598.6518577616508
 30
0.0
 10
1041.431017641154
 20
-597.7289166811524
 30
0.0
 10
1041.203641339127
 20
-596.7405187864342
 30
0.0
 10
1040.847418465952
 20
-596.0508106702872
 30
0.0
 10
1040.263819290751
 20
-595.5943355184916
 30
0.0
 10
1039.415636782282
 20
-595.8182667250328
 30
0.0
 10
1038.252572546462
 20
-596.6585255138853
 30
0.0
 10
1038.268419985694
 20
-598.0451764466983
 30
0.0
 10
1038.372461869349
 20
-599.3057368847512
 30
0.0
 10
1036.698145463517
 20
-601.4696013590367
 30
0.0
 10
1032.844461653717
 20
-602.3729053952692
 30
0.0
 10
1031.194260916282
 20
-600.6951438939525
 30
0.0
 10
1031.108133529151
 20
-600.3985211726725
 30
0.0
 10
1030.942768945859
 20
-599.8163000356653
 30
0.0
 10
1031.110889605539
 20
-599.3880746668488
 30
0.0
 10
1031.126048025674
 20
-599.33639823457
 30
0.0
 10
1031.141895464907
 20
-599.2802431781604
 30
0.0
 10
1031.149474674974
 20
-599.2165089116833
 30
0.0
 10
1031.235602062105
 20
-598.5664193936167
 30
0.0
 10
1031.02200614202
 20
-598.0792828920023
 30
0.0
 10
1030.427382661266
 20
-597.8680985387565
 30
0.0
 10
1029.296702323007
 20
-597.4529645327839
 30
0.0
 10
1029.363537175421
 20
-596.9455019678066
 30
0.0
 10
1028.562896984648
 20
-596.2389128837818
 30
0.0
 10
1027.739519163674
 20
-595.4806473674784
 30
0.0
 10
1026.78040458058
 20
-595.8458274889149
 30
0.0
 10
1026.208518730029
 20
-596.6054710434124
 30
0.0
 10
1026.06795883423
 20
-598.639455417904
 30
0.0
 10
1024.631354016881
 20
-600.3065371232163
 30
0.0
 10
1023.051433227346
 20
-601.4017329779773
 30
0.0
 10
1022.042020250168
 20
-601.750721150633
 30
0.0
 10
1020.776981187984
 20
-601.6353104518772
 30
0.0
 10
1019.950847290621
 20
-601.074793416427
 30
0.0
 10
1019.676617689995
 20
-600.8853131647384
 30
0.0
 10
1019.580155016408
 20
-600.6758513592351
 30
0.0
 10
1019.574642863632
 20
-600.5280567629179
 30
0.0
 10
1020.892047377191
 20
-600.1573644887051
 30
0.0
 10
1022.073026109535
 20
-599.26163966254
 30
0.0
 10
1022.747575805547
 20
-598.0310515552088
 30
0.0
 10
1023.546148939028
 20
-595.8882021633834
 30
0.0
 10
1021.997234008859
 20
-593.6010032707261
 30
0.0
 10
1019.616673028552
 20
-593.9331104755041
 30
0.0
 10
1017.421458185351
 20
-594.2404129927884
 30
0.0
 10
1016.339009183885
 20
-595.7900169420539
 30
0.0
 10
1016.443051067539
 20
-598.4603104526709
 30
0.0
 10
1015.235889609508
 20
-598.4100120585863
 30
0.0
 10
1014.15412962714
 20
-598.0083139250062
 30
0.0
 10
1013.032406537142
 20
-597.5570064164384
 30
0.0
 10
1012.07053587766
 20
-597.1683996457023
 30
0.0
 10
1011.898281103398
 20
-596.2654401190183
 30
0.0
 10
1010.497505279095
 20
-596.5269228663487
 30
0.0
 10
1009.395763742912
 20
-597.6920541594602
 30
0.0
 10
1010.168154150706
 20
-598.4575543762827
 30
0.0
 10
1010.890246164414
 20
-599.377739380393
 30
0.0
 10
1011.613716216316
 20
-600.2955128176635
 30
0.0
 10
1011.580643299658
 20
-601.6721729735693
 30
0.0
 10
1010.434804541264
 20
-602.3226070011846
 30
0.0
 10
1008.792183013897
 20
-602.7119027910178
 30
0.0
 10
1007.418278934379
 20
-601.2739199354745
 30
0.0
 10
1006.419201243657
 20
-600.2080073923382
 30
0.0
 10
1006.432292606501
 20
-599.5723872753096
 30
0.0
 10
1006.450896122121
 20
-598.3386985820416
 30
0.0
 10
1006.28759859612
 20
-597.7950625144692
 30
0.0
 10
1005.962381582312
 20
-596.7040007742905
 30
0.0
 10
1005.25751504603
 20
-595.7672793118511
 30
0.0
 10
1003.963537181771
 20
-596.19963879525
 30
0.0
 10
1003.155317780931
 20
-597.2745085866479
 30
0.0
 10
1003.464687355506
 20
-598.5619407694858
 30
0.0
 10
1003.90772663491
 20
-599.6585146624409
 30
0.0
 10
1003.545991608958
 20
-600.7816157906323
 30
0.0
 10
1003.011312789647
 20
-601.8768116453932
 30
0.0
 10
1001.962625723937
 20
-602.4335390758096
 30
0.0
 10
1000.743750941256
 20
-602.7239606252161
 30
0.0
 10
998.6215721223422
 20
-602.432505547164
 30
0.0
 10
997.7437617927005
 20
-600.2565832386803
 30
0.0
 10
997.7940601867851
 20
-599.9675397274677
 30
0.0
 10
997.9277298916128
 20
-599.1451954351386
 30
0.0
 10
997.929107929807
 20
-598.3070037035774
 30
0.0
 10
997.930485968001
 20
-597.7895503616928
 30
0.0
 10
997.8822546312075
 20
-597.2297223453397
 30
0.0
 10
997.7155120097215
 20
-596.7732471935441
 30
0.0
 10
997.1698088848578
 20
-595.290133587144
 30
0.0
 10
994.9456552395806
 20
-595.3056365168277
 30
0.0
 10
994.9470332777746
 20
-597.8563852141067
 30
0.0
 10
994.9470332777746
 20
-598.4665116245444
 30
0.0
 10
995.0379837985853
 20
-599.0783605827247
 30
0.0
 10
995.1806107516746
 20
-599.6695389679936
 30
0.0
 10
994.2959102310624
 20
-601.4868268364629
 30
0.0
 10
992.4748327575594
 20
-601.8516624483509
 30
0.0
 10
991.1960133134346
 20
-601.6070606688982
 30
0.0
 10
989.3184362739735
 20
-600.6489796144501
 30
0.0
 10
988.7120994685695
 20
-598.6063825012455
 30
0.0
 10
988.4468271162052
 20
-596.503496217049
 30
0.0
 10
989.7904143554528
 20
-594.6514128841787
 30
0.0
 10
990.9231617510028
 20
-593.028772910626
 30
0.0
 10
992.0951832350848
 20
-590.7746469346271
 30
0.0
 10
993.4401485125263
 20
-588.2759191791754
 30
0.0
 10
993.9610469498962
 20
-587.2541038582502
 30
0.0
 10
994.0657778526478
 20
-584.1738439848884
 30
0.0
 10
993.7446949534225
 20
-580.3787267983372
 30
0.0
 10
989.0765905709089
 20
-581.4625538379968
 30
0.0
 10
988.0809579756717
 20
-583.4738005822857
 30
0.0
 10
985.7031530717522
 20
-587.1989823304863
 30
0.0
 10
985.2931867090076
 20
-592.2053950896513
 30
0.0
 10
985.712110320014
 20
-596.4425180269601
 30
0.0
 10
985.2456443913111
 20
-597.3189503184077
 30
0.0
 10
984.5421558932231
 20
-597.9921219762255
 30
0.0
 10
983.8490026815908
 20
-598.6852751878578
 30
0.0
 10
983.2095929595284
 20
-599.2358014464007
 30
0.0
 10
982.6859384457705
 20
-599.3846295713635
 30
0.0
 10
982.3124900951694
 20
-600.2390132517054
 30
0.0
 10
982.4985252513729
 20
-600.583867309779
 30
0.0
 10
982.5529577600398
 20
-600.6386443279944
 30
0.0
 10
982.9946190012489
 20
-600.9049502090043
 30
0.0
 10
984.3547426988255
 20
-601.322151272268
 30
0.0
 10
985.1636511187621
 20
-600.4932612985169
 30
0.0
 10
986.030437142851
 20
-599.6623042674746
 30
0.0
 10
986.030437142851
 20
-599.6623042674746
 30
0.0
 10
986.4080196080345
 20
-599.3109045279791
 30
0.0
 10
986.4080196080345
 20
-599.3109045279791
 30
0.0
 10
987.3044334532964
 20
-601.1874480387947
 30
0.0
 10
988.6735143991347
 20
-603.3409772266244
 30
0.0
 10
990.8797535478888
 20
-603.9545487325474
 30
0.0
 10
992.1585729920134
 20
-604.1691781812784
 30
0.0
 10
993.7074879221817
 20
-604.1609099521138
 30
0.0
 10
994.8657290243227
 20
-603.4374399002114
 30
0.0
 10
994.8657290243227
 20
-603.4374399002114
 30
0.0
 10
996.5717403086185
 20
-602.3418995359019
 30
0.0
 10
996.5717403086185
 20
-602.3418995359019
 30
0.0
 10
997.8126637024054
 20
-603.805376098036
 30
0.0
 10
999.4235903513083
 20
-604.9815316967004
 30
0.0
 10
1001.549903284804
 20
-604.7813716490074
 30
0.0
 10
1002.952057147301
 20
-604.720737968467
 30
0.0
 10
1004.061377893552
 20
-603.722004787293
 30
0.0
 10
1004.957102719717
 20
-602.7518658986467
 30
0.0
 10
1004.957102719717
 20
-602.7518658986467
 30
0.0
 10
1005.471799985213
 20
-602.1768794621585
 30
0.0
 10
1005.471799985213
 20
-602.1768794621585
 30
0.0
 10
1006.851905236604
 20
-603.6282981900943
 30
0.0
 10
1008.459386790022
 20
-604.9811871871518
 30
0.0
 10
1010.864752457823
 20
-604.535736340909
 30
0.0
 10
1012.33925332551
 20
-604.3452225605747
 30
0.0
 10
1013.12404607705
 20
-603.5311464974102
 30
0.0
 10
1013.700066042184
 20
-602.2409582381841
 30
0.0
 10
1013.971539566421
 20
-601.6094722357378
 30
0.0
 10
1013.892991389358
 20
-600.9207976482364
 30
0.0
 10
1013.82477849875
 20
-600.2617508819081
 30
0.0
 10
1014.827301284957
 20
-600.5201330433018
 30
0.0
 10
1015.867031102406
 20
-600.7340734729358
 30
0.0
 10
1016.902626805272
 20
-600.7733475614677
 30
0.0
 10
1017.256782621156
 20
-601.6890539414471
 30
0.0
 10
1017.883100980374
 20
-602.7525549177437
 30
0.0
 10
1018.806386570421
 20
-603.1780242101721
 30
0.0
 10
1020.805230970963
 20
-604.0988982333794
 30
0.0
 10
1020.918230102879
 20
-603.9473140320283
 30
0.0
 10
1022.797874199631
 20
-603.8477507725047
 30
0.0
 10
1025.197038695559
 20
-603.4022999262619
 30
0.0
 10
1026.959549545813
 20
-601.5285124918345
 30
0.0
 10
1028.302447765964
 20
-599.6867644454198
 30
0.0
  0
ENDBLK
  5
3D2
330
3CF
100
AcDbEntity
  8
0
100
AcDbBlockEnd
  0
BLOCK
  5
3D6
330
3D4
100
AcDbEntity
  8
0
100
AcDbBlockBegin
  2
block 43
 70
     0
 10
0.0
 20
0.0
 30
0.0
  3
block 43
  1

  0
SPLINE
  5
3D8
330
3D4
100
AcDbEntity
  8
Layer 1
370
     0
100
AcDbSpline
210
0.0
220
0.0
230
1.0
 70
    11
 71
     3
 72
    53
 73
    49
 74
     0
 42
0.0000000001
 43
0.0000000001
 12
1.0
 22
0.0
 32
0.0
 13
1.0
 23
0.0
 33
0.0
 40
0.0
 40
0.0
 40
0.0
 40
0.0
 40
1.0
 40
1.0
 40
1.0
 40
2.0
 40
2.0
 40
2.0
 40
3.0
 40
3.0
 40
3.0
 40
4.0
 40
4.0
 40
4.0
 40
5.0
 40
5.0
 40
5.0
 40
6.0
 40
6.0
 40
6.0
 40
7.0
 40
7.0
 40
7.0
 40
8.0
 40
8.0
 40
8.0
 40
9.0
 40
9.0
 40
9.0
 40
10.0
 40
10.0
 40
10.0
 40
11.0
 40
11.0
 40
11.0
 40
12.0
 40
12.0
 40
12.0
 40
13.0
 40
13.0
 40
13.0
 40
14.0
 40
14.0
 40
14.0
 40
15.0
 40
15.0
 40
15.0
 40
16.0
 40
16.0
 40
16.0
 40
16.0
 10
969.7303123639399
 20
-586.3211720008446
 30
0.0
 10
969.7303123639399
 20
-586.3211720008446
 30
0.0
 10
969.22112725122
 20
-585.850227448011
 30
0.0
 10
969.22112725122
 20
-585.850227448011
 30
0.0
 10
969.22112725122
 20
-585.850227448011
 30
0.0
 10
969.7117088483196
 20
-585.6132048786258
 30
0.0
 10
969.7117088483196
 20
-585.6132048786258
 30
0.0
 10
970.4827212179185
 20
-585.3658470227848
 30
0.0
 10
971.3191904017372
 20
-585.3041798135989
 30
0.0
 10
971.7112422679586
 20
-586.1992156206668
 30
0.0
 10
971.8070159224485
 20
-586.9843528817552
 30
0.0
 10
971.4797318513498
 20
-587.4583980205256
 30
0.0
 10
970.9236934400304
 20
-587.9476015794311
 30
0.0
 10
969.7268672684547
 20
-588.056466596765
 30
0.0
 10
968.9248490394885
 20
-589.1592416615935
 30
0.0
 10
968.1848425292569
 20
-589.9857200685049
 30
0.0
 10
967.331147868012
 20
-591.9980003414393
 30
0.0
 10
968.0339473470029
 20
-594.4157683529876
 30
0.0
 10
968.4521819389123
 20
-596.4425180269601
 30
0.0
 10
968.4521819389123
 20
-596.4425180269601
 30
0.0
 10
968.7078080239178
 20
-596.6912539209951
 30
0.0
 10
968.7078080239178
 20
-596.6912539209951
 30
0.0
 10
969.1687617998442
 20
-597.1477290727908
 30
0.0
 10
969.5435881886394
 20
-597.633487536211
 30
0.0
 10
969.510515271981
 20
-598.330430352877
 30
0.0
 10
969.0716101071602
 20
-599.5103755565751
 30
0.0
 10
966.7296341962873
 20
-600.0843284644177
 30
0.0
 10
966.4802092831552
 20
-598.2005502530831
 30
0.0
 10
966.0564625384695
 20
-597.4529645327839
 30
0.0
 10
965.8862748214982
 20
-596.910361993857
 30
0.0
 10
965.7774098041643
 20
-596.3567351493774
 30
0.0
 10
965.7774098041643
 20
-596.3567351493774
 30
0.0
 10
965.7009286843918
 20
-595.9198970418477
 30
0.0
 10
965.7009286843918
 20
-595.9198970418477
 30
0.0
 10
965.5569236931083
 20
-597.0113032915749
 30
0.0
 10
965.7319345437589
 20
-598.2821990160835
 30
0.0
 10
965.9145246044773
 20
-599.3546572406418
 30
0.0
 10
966.2907290314665
 20
-600.7747255996618
 30
0.0
 10
967.2705141874716
 20
-601.8592416584185
 30
0.0
 10
968.6747351072594
 20
-602.4294049612273
 30
0.0
 10
971.8931433095798
 20
-603.1924936112101
 30
0.0
 10
974.5479338905133
 20
-600.9938336725237
 30
0.0
 10
976.3841697841515
 20
-598.6149952399587
 30
0.0
 10
979.2759829344702
 20
-594.4853592817897
 30
0.0
 10
981.8439571091754
 20
-589.3077252770076
 30
0.0
 10
979.507493351079
 20
-584.3051021228764
 30
0.0
 10
976.7190330653177
 20
-580.8159094154154
 30
0.0
 10
971.2489104538381
 20
-582.4364823316769
 30
0.0
 10
969.7303123639399
 20
-586.3211720008446
 30
0.0
  0
ENDBLK
  5
3D7
330
3D4
100
AcDbEntity
  8
0
100
AcDbBlockEnd
  0
BLOCK
  5
3DB
330
3D9
100
AcDbEntity
  8
0
100
AcDbBlockBegin
  2
block 44
 70
     0
 10
0.0
 20
0.0
 30
0.0
  3
block 44
  1

  0
SPLINE
  5
3DD
330
3D9
100
AcDbEntity
  8
Layer 1
370
     0
100
AcDbSpline
210
0.0
220
0.0
230
1.0
 70
    11
 71
     3
 72
    23
 73
    19
 74
     0
 42
0.0000000001
 43
0.0000000001
 12
1.0
 22
0.0
 32
0.0
 13
1.0
 23
0.0
 33
0.0
 40
0.0
 40
0.0
 40
0.0
 40
0.0
 40
1.0
 40
1.0
 40
1.0
 40
2.0
 40
2.0
 40
2.0
 40
3.0
 40
3.0
 40
3.0
 40
4.0
 40
4.0
 40
4.0
 40
5.0
 40
5.0
 40
5.0
 40
6.0
 40
6.0
 40
6.0
 40
6.0
 10
978.389904375664
 20
-600.3216955433514
 30
0.0
 10
976.1250986036607
 20
-603.397132283034
 30
0.0
 10
972.4354013389582
 20
-605.446619587209
 30
0.0
 10
968.4866328937647
 20
-604.8905811758898
 30
0.0
 10
965.7029957416829
 20
-604.149196627464
 30
0.0
 10
963.9012108028973
 20
-601.4447966715429
 30
0.0
 10
963.4409460460679
 20
-598.78518295693
 30
0.0
 10
962.8800845010692
 20
-595.3083925932159
 30
0.0
 10
963.8226626258336
 20
-592.1420053327228
 30
0.0
 10
965.6588985194717
 20
-589.5247662925784
 30
0.0
 10
966.2094247780146
 20
-585.7231034246053
 30
0.0
 10
968.3715667045574
 20
-582.072335738886
 30
0.0
 10
972.1446352800031
 20
-580.3942297280208
 30
0.0
 10
974.4969464773317
 20
-579.5360564426451
 30
0.0
 10
979.7638084551816
 20
-579.1581294679131
 30
0.0
 10
981.548367916541
 20
-583.0156028827474
 30
0.0
 10
984.7881357108699
 20
-588.9904319828162
 30
0.0
 10
981.5394106682793
 20
-595.550582805829
 30
0.0
 10
978.389904375664
 20
-600.3216955433514
 30
0.0
  0
ENDBLK
  5
3DC
330
3D9
100
AcDbEntity
  8
0
100
AcDbBlockEnd
  0
BLOCK
  5
3E0
330
3DE
100
AcDbEntity
  8
0
100
AcDbBlockBegin
  2
block 45
 70
     0
 10
0.0
 20
0.0
 30
0.0
  3
block 45
  1

  0
SPLINE
  5
3E2
330
3DE
100
AcDbEntity
  8
Layer 1
370
     0
100
AcDbSpline
210
0.0
220
0.0
230
1.0
 70
    11
 71
     3
 72
    17
 73
    13
 74
     0
 42
0.0000000001
 43
0.0000000001
 12
1.0
 22
0.0
 32
0.0
 13
1.0
 23
0.0
 33
0.0
 40
0.0
 40
0.0
 40
0.0
 40
0.0
 40
1.0
 40
1.0
 40
1.0
 40
2.0
 40
2.0
 40
2.0
 40
3.0
 40
3.0
 40
3.0
 40
4.0
 40
4.0
 40
4.0
 40
4.0
 10
1040.972819941615
 20
-593.2816429192434
 30
0.0
 10
1041.125782181161
 20
-592.8165550287347
 30
0.0
 10
1041.076172806173
 20
-592.1974713700353
 30
0.0
 10
1040.797809090965
 20
-591.7692460012187
 30
0.0
 10
1040.195606400143
 20
-591.0113249944637
 30
0.0
 10
1039.035298240711
 20
-590.4728565701192
 30
0.0
 10
1038.315273284294
 20
-591.4660775985167
 30
0.0
 10
1037.952849239245
 20
-592.3525006668715
 30
0.0
 10
1038.224322763483
 20
-593.2347896206439
 30
0.0
 10
1038.936079490736
 20
-593.8431934833391
 30
0.0
 10
1039.692622459297
 20
-594.0244055058632
 30
0.0
 10
1040.554585349706
 20
-594.2056175283874
 30
0.0
 10
1040.972819941615
 20
-593.2816429192434
 30
0.0
  0
ENDBLK
  5
3E1
330
3DE
100
AcDbEntity
  8
0
100
AcDbBlockEnd
  0
BLOCK
  5
3E5
330
3E3
100
AcDbEntity
  8
0
100
AcDbBlockBegin
  2
block 46
 70
     0
 10
0.0
 20
0.0
 30
0.0
  3
block 46
  1

  0
SPLINE
  5
3E7
330
3E3
100
AcDbEntity
  8
Layer 1
370
     0
100
AcDbSpline
210
0.0
220
0.0
230
1.0
 70
    11
 71
     3
 72
    17
 73
    13
 74
     0
 42
0.0000000001
 43
0.0000000001
 12
1.0
 22
0.0
 32
0.0
 13
1.0
 23
0.0
 33
0.0
 40
0.0
 40
0.0
 40
0.0
 40
0.0
 40
1.0
 40
1.0
 40
1.0
 40
2.0
 40
2.0
 40
2.0
 40
3.0
 40
3.0
 40
3.0
 40
4.0
 40
4.0
 40
4.0
 40
4.0
 10
997.5342999871973
 20
-591.861919069772
 30
0.0
 10
997.1450041973641
 20
-592.4200245383824
 30
0.0
 10
996.1838225569793
 20
-592.4214025765765
 30
0.0
 10
995.6870397880064
 20
-592.2184864524953
 30
0.0
 10
994.9683928697832
 20
-591.9253088267005
 30
0.0
 10
994.2855749446067
 20
-590.9772185491598
 30
0.0
 10
994.8119855347528
 20
-590.0604786405348
 30
0.0
 10
995.3997188245365
 20
-589.0372852814156
 30
0.0
 10
996.6192826263149
 20
-589.318405073012
 30
0.0
 10
997.2490460810186
 20
-589.8313797907657
 30
0.0
 10
997.6438540236283
 20
-590.152462689991
 30
0.0
 10
998.0600215582464
 20
-591.1101992348904
 30
0.0
 10
997.5342999871973
 20
-591.861919069772
 30
0.0
  0
ENDBLK
  5
3E6
330
3E3
100
AcDbEntity
  8
0
100
AcDbBlockEnd
  0
BLOCK
  5
3EA
330
3E8
100
AcDbEntity
  8
0
100
AcDbBlockBegin
  2
block 47
 70
     0
 10
0.0
 20
0.0
 30
0.0
  3
block 47
  1

  0
SPLINE
  5
3EC
330
3E8
100
AcDbEntity
  8
Layer 1
370
     0
100
AcDbSpline
210
0.0
220
0.0
230
1.0
 70
    11
 71
     3
 72
    17
 73
    13
 74
     0
 42
0.0000000001
 43
0.0000000001
 12
1.0
 22
0.0
 32
0.0
 13
1.0
 23
0.0
 33
0.0
 40
0.0
 40
0.0
 40
0.0
 40
0.0
 40
1.0
 40
1.0
 40
1.0
 40
2.0
 40
2.0
 40
2.0
 40
3.0
 40
3.0
 40
3.0
 40
4.0
 40
4.0
 40
4.0
 40
4.0
 10
991.2731834523042
 20
-584.8483936809004
 30
0.0
 10
991.0575204749276
 20
-587.7808589579449
 30
0.0
 10
989.8538041123813
 20
-589.7214812447862
 30
0.0
 10
988.418577333223
 20
-592.1433833709168
 30
0.0
 10
988.4364918297495
 20
-589.1017085669897
 30
0.0
 10
988.8499032879795
 20
-586.3800831336424
 30
0.0
 10
990.718523079179
 20
-584.4070769492398
 30
0.0
 10
990.9583017249524
 20
-584.0801373876895
 30
0.0
 10
991.2731834523042
 20
-584.8483936809004
 30
0.0
 10
991.2731834523042
 20
-584.8483936809004
 30
0.0
 10
991.2731834523042
 20
-584.8483936809004
 30
0.0
 10
991.3338171328446
 20
-584.1369814631962
 30
0.0
 10
991.2731834523042
 20
-584.8483936809004
 30
0.0
  0
SPLINE
  5
3ED
330
3E8
100
AcDbEntity
  8
Layer 1
370
     0
100
AcDbSpline
210
0.0
220
0.0
230
1.0
 70
    11
 71
     3
 72
    17
 73
    13
 74
     0
 42
0.0000000001
 43
0.0000000001
 12
1.0
 22
0.0
 32
0.0
 13
1.0
 23
0.0
 33
0.0
 40
0.0
 40
0.0
 40
0.0
 40
0.0
 40
1.0
 40
1.0
 40
1.0
 40
2.0
 40
2.0
 40
2.0
 40
3.0
 40
3.0
 40
3.0
 40
4.0
 40
4.0
 40
4.0
 40
4.0
 10
1020.505507663746
 20
-597.1019093028369
 30
0.0
 10
1020.495861396387
 20
-597.3482336300323
 30
0.0
 10
1019.908817125701
 20
-597.9969451099048
 30
0.0
 10
1018.852550849923
 20
-598.1798796801717
 30
0.0
 10
1018.659625502749
 20
-596.9382672672875
 30
0.0
 10
1019.259072117183
 20
-596.2130746676424
 30
0.0
 10
1019.846116387869
 20
-596.2130746676424
 30
0.0
 10
1020.33187485129
 20
-596.2130746676424
 30
0.0
 10
1020.505507663746
 20
-597.1019093028369
 30
0.0
 10
1020.505507663746
 20
-597.1019093028369
 30
0.0
 10
1020.505507663746
 20
-597.1019093028369
 30
0.0
 10
1020.532379408531
 20
-596.3953202188122
 30
0.0
 10
1020.505507663746
 20
-597.1019093028369
 30
0.0
  0
SPLINE
  5
3EE
330
3E8
100
AcDbEntity
  8
Layer 1
370
     0
100
AcDbSpline
210
0.0
220
0.0
230
1.0
 70
    11
 71
     3
 72
   203
 73
   199
 74
     0
 42
0.0000000001
 43
0.0000000001
 12
1.0
 22
0.0
 32
0.0
 13
1.0
 23
0.0
 33
0.0
 40
0.0
 40
0.0
 40
0.0
 40
0.0
 40
1.0
 40
1.0
 40
1.0
 40
2.0
 40
2.0
 40
2.0
 40
3.0
 40
3.0
 40
3.0
 40
4.0
 40
4.0
 40
4.0
 40
5.0
 40
5.0
 40
5.0
 40
6.0
 40
6.0
 40
6.0
 40
7.0
 40
7.0
 40
7.0
 40
8.0
 40
8.0
 40
8.0
 40
9.0
 40
9.0
 40
9.0
 40
10.0
 40
10.0
 40
10.0
 40
11.0
 40
11.0
 40
11.0
 40
12.0
 40
12.0
 40
12.0
 40
13.0
 40
13.0
 40
13.0
 40
14.0
 40
14.0
 40
14.0
 40
15.0
 40
15.0
 40
15.0
 40
16.0
 40
16.0
 40
16.0
 40
17.0
 40
17.0
 40
17.0
 40
18.0
 40
18.0
 40
18.0
 40
19.0
 40
19.0
 40
19.0
 40
20.0
 40
20.0
 40
20.0
 40
21.0
 40
21.0
 40
21.0
 40
22.0
 40
22.0
 40
22.0
 40
23.0
 40
23.0
 40
23.0
 40
24.0
 40
24.0
 40
24.0
 40
25.0
 40
25.0
 40
25.0
 40
26.0
 40
26.0
 40
26.0
 40
27.0
 40
27.0
 40
27.0
 40
28.0
 40
28.0
 40
28.0
 40
29.0
 40
29.0
 40
29.0
 40
30.0
 40
30.0
 40
30.0
 40
31.0
 40
31.0
 40
31.0
 40
32.0
 40
32.0
 40
32.0
 40
33.0
 40
33.0
 40
33.0
 40
34.0
 40
34.0
 40
34.0
 40
35.0
 40
35.0
 40
35.0
 40
36.0
 40
36.0
 40
36.0
 40
37.0
 40
37.0
 40
37.0
 40
38.0
 40
38.0
 40
38.0
 40
39.0
 40
39.0
 40
39.0
 40
40.0
 40
40.0
 40
40.0
 40
41.0
 40
41.0
 40
41.0
 40
42.0
 40
42.0
 40
42.0
 40
43.0
 40
43.0
 40
43.0
 40
44.0
 40
44.0
 40
44.0
 40
45.0
 40
45.0
 40
45.0
 40
46.0
 40
46.0
 40
46.0
 40
47.0
 40
47.0
 40
47.0
 40
48.0
 40
48.0
 40
48.0
 40
49.0
 40
49.0
 40
49.0
 40
50.0
 40
50.0
 40
50.0
 40
51.0
 40
51.0
 40
51.0
 40
52.0
 40
52.0
 40
52.0
 40
53.0
 40
53.0
 40
53.0
 40
54.0
 40
54.0
 40
54.0
 40
55.0
 40
55.0
 40
55.0
 40
56.0
 40
56.0
 40
56.0
 40
57.0
 40
57.0
 40
57.0
 40
58.0
 40
58.0
 40
58.0
 40
59.0
 40
59.0
 40
59.0
 40
60.0
 40
60.0
 40
60.0
 40
61.0
 40
61.0
 40
61.0
 40
62.0
 40
62.0
 40
62.0
 40
63.0
 40
63.0
 40
63.0
 40
64.0
 40
64.0
 40
64.0
 40
65.0
 40
65.0
 40
65.0
 40
66.0
 40
66.0
 40
66.0
 40
66.0
 10
1028.30244776596
 20
-599.6867644454198
 30
0.0
 10
1028.30244776596
 20
-599.6867644454198
 30
0.0
 10
1028.531202106184
 20
-600.6417449139311
 30
0.0
 10
1028.531202106184
 20
-600.6417449139311
 30
0.0
 10
1028.657292600944
 20
-601.1371496447101
 30
0.0
 10
1028.802675630422
 20
-601.5974144015395
 30
0.0
 10
1029.04589937168
 20
-602.0504444578498
 30
0.0
 10
1030.589302149072
 20
-604.115779201257
 30
0.0
 10
1034.529113346004
 20
-603.8791011414204
 30
0.0
 10
1036.547939300357
 20
-603.2531272917505
 30
0.0
 10
1037.66621729487
 20
-602.9055171572888
 30
0.0
 10
1038.74039806717
 20
-602.3312197398976
 30
0.0
 10
1039.747743987061
 20
-601.7324621445613
 30
0.0
 10
1042.315718161763
 20
-603.4205589323336
 30
0.0
 10
1045.55893105158
 20
-603.9428354078975
 30
0.0
 10
1048.808345113265
 20
-603.955582261193
 30
0.0
 10
1052.129417161048
 20
-603.9679846049398
 30
0.0
 10
1055.520080137631
 20
-603.4453636198275
 30
0.0
 10
1058.307162385199
 20
-603.039531371665
 30
0.0
 10
1061.271322540704
 20
-602.8493621008793
 30
0.0
 10
1063.634658043589
 20
-601.4516868625134
 30
0.0
 10
1066.753158476837
 20
-602.1224469534915
 30
0.0
 10
1067.425641115558
 20
-601.8978267278533
 30
0.0
 10
1067.955496801189
 20
-601.5546952175223
 30
0.0
 10
1067.905887426202
 20
-600.7185705432522
 30
0.0
 10
1067.604097061694
 20
-599.9785640330206
 30
0.0
 10
1067.185862469784
 20
-599.4614552006846
 30
0.0
 10
1066.314253312016
 20
-599.392208781431
 30
0.0
 10
1064.843886558912
 20
-600.0247283125229
 30
0.0
 10
1063.184039554115
 20
-599.8373151181253
 30
0.0
 10
1061.648905005891
 20
-600.2142085642116
 30
0.0
 10
1057.746989859294
 20
-601.1237137723176
 30
0.0
 10
1053.592893723183
 20
-601.4806256645895
 30
0.0
 10
1049.177659349286
 20
-601.7197152912659
 30
0.0
 10
1046.440186476707
 20
-601.6966331515147
 30
0.0
 10
1042.979932571322
 20
-601.654258477046
 30
0.0
 10
1041.071349672494
 20
-599.3470780305743
 30
0.0
 10
1040.860509828796
 20
-598.6518577616508
 30
0.0
 10
1041.431017641154
 20
-597.7289166811524
 30
0.0
 10
1041.203641339127
 20
-596.7405187864342
 30
0.0
 10
1040.847418465952
 20
-596.0508106702872
 30
0.0
 10
1040.263819290751
 20
-595.5943355184916
 30
0.0
 10
1039.415636782282
 20
-595.8182667250328
 30
0.0
 10
1038.252572546459
 20
-596.6585255138853
 30
0.0
 10
1038.268419985694
 20
-598.0451764466983
 30
0.0
 10
1038.372461869349
 20
-599.3057368847512
 30
0.0
 10
1036.698145463517
 20
-601.4696013590367
 30
0.0
 10
1032.844461653717
 20
-602.3729053952692
 30
0.0
 10
1031.194260916282
 20
-600.6951438939525
 30
0.0
 10
1031.108133529151
 20
-600.3985211726725
 30
0.0
 10
1030.942768945859
 20
-599.8163000356653
 30
0.0
 10
1031.110889605536
 20
-599.3880746668488
 30
0.0
 10
1031.126048025674
 20
-599.33639823457
 30
0.0
 10
1031.141895464907
 20
-599.2802431781604
 30
0.0
 10
1031.149474674971
 20
-599.2165089116833
 30
0.0
 10
1031.235602062105
 20
-598.5664193936167
 30
0.0
 10
1031.02200614202
 20
-598.0792828920023
 30
0.0
 10
1030.427382661266
 20
-597.8680985387565
 30
0.0
 10
1029.296702323007
 20
-597.4529645327839
 30
0.0
 10
1029.363537175417
 20
-596.9455019678066
 30
0.0
 10
1028.562896984648
 20
-596.2389128837818
 30
0.0
 10
1027.739519163674
 20
-595.4806473674784
 30
0.0
 10
1026.780404580577
 20
-595.8458274889149
 30
0.0
 10
1026.208518730026
 20
-596.6054710434124
 30
0.0
 10
1026.06795883423
 20
-598.639455417904
 30
0.0
 10
1024.631354016878
 20
-600.3065371232163
 30
0.0
 10
1023.051433227346
 20
-601.4017329779773
 30
0.0
 10
1022.042020250168
 20
-601.750721150633
 30
0.0
 10
1020.776981187984
 20
-601.6353104518772
 30
0.0
 10
1019.950847290621
 20
-601.074793416427
 30
0.0
 10
1019.676617689995
 20
-600.8853131647384
 30
0.0
 10
1019.580155016408
 20
-600.6758513592351
 30
0.0
 10
1019.574642863632
 20
-600.5280567629179
 30
0.0
 10
1020.892047377191
 20
-600.1573644887051
 30
0.0
 10
1022.073026109535
 20
-599.26163966254
 30
0.0
 10
1022.747575805547
 20
-598.0310515552088
 30
0.0
 10
1023.546148939028
 20
-595.8882021633834
 30
0.0
 10
1021.997234008859
 20
-593.6010032707261
 30
0.0
 10
1019.616673028552
 20
-593.9331104755041
 30
0.0
 10
1017.421458185351
 20
-594.2404129927884
 30
0.0
 10
1016.339009183885
 20
-595.7900169420539
 30
0.0
 10
1016.443051067539
 20
-598.4603104526709
 30
0.0
 10
1015.235889609505
 20
-598.4100120585863
 30
0.0
 10
1014.15412962714
 20
-598.0083139250062
 30
0.0
 10
1013.032406537139
 20
-597.5570064164384
 30
0.0
 10
1012.07053587766
 20
-597.1683996457023
 30
0.0
 10
1011.898281103398
 20
-596.2654401190183
 30
0.0
 10
1010.497505279095
 20
-596.5269228663487
 30
0.0
 10
1009.395763742912
 20
-597.6920541594602
 30
0.0
 10
1010.168154150706
 20
-598.4575543762827
 30
0.0
 10
1010.890246164411
 20
-599.377739380393
 30
0.0
 10
1011.613716216316
 20
-600.2955128176635
 30
0.0
 10
1011.580643299655
 20
-601.6721729735693
 30
0.0
 10
1010.434804541264
 20
-602.3226070011846
 30
0.0
 10
1008.792183013897
 20
-602.7119027910178
 30
0.0
 10
1007.418278934379
 20
-601.2739199354745
 30
0.0
 10
1006.419201243657
 20
-600.2080073923382
 30
0.0
 10
1006.432292606501
 20
-599.5723872753096
 30
0.0
 10
1006.450896122121
 20
-598.3386985820416
 30
0.0
 10
1006.28759859612
 20
-597.7950625144692
 30
0.0
 10
1005.962381582312
 20
-596.7040007742905
 30
0.0
 10
1005.257515046027
 20
-595.7672793118511
 30
0.0
 10
1003.963537181771
 20
-596.19963879525
 30
0.0
 10
1003.155317780928
 20
-597.2745085866479
 30
0.0
 10
1003.464687355503
 20
-598.5619407694858
 30
0.0
 10
1003.90772663491
 20
-599.6585146624409
 30
0.0
 10
1003.545991608955
 20
-600.7816157906323
 30
0.0
 10
1003.011312789644
 20
-601.8768116453932
 30
0.0
 10
1001.962625723937
 20
-602.4335390758096
 30
0.0
 10
1000.743750941256
 20
-602.7239606252161
 30
0.0
 10
998.6215721223422
 20
-602.432505547164
 30
0.0
 10
997.7437617926972
 20
-600.2565832386803
 30
0.0
 10
997.7940601867851
 20
-599.9675397274677
 30
0.0
 10
997.9277298916096
 20
-599.1451954351386
 30
0.0
 10
997.9291079298038
 20
-598.3070037035774
 30
0.0
 10
997.930485968001
 20
-597.7895503616928
 30
0.0
 10
997.8822546312043
 20
-597.2297223453397
 30
0.0
 10
997.7155120097215
 20
-596.7732471935441
 30
0.0
 10
997.1698088848578
 20
-595.290133587144
 30
0.0
 10
994.9456552395806
 20
-595.3056365168277
 30
0.0
 10
994.9470332777714
 20
-597.8563852141067
 30
0.0
 10
994.9470332777714
 20
-598.4665116245444
 30
0.0
 10
995.037983798582
 20
-599.0783605827247
 30
0.0
 10
995.1806107516713
 20
-599.6695389679936
 30
0.0
 10
994.2959102310624
 20
-601.4868268364629
 30
0.0
 10
992.4748327575594
 20
-601.8516624483509
 30
0.0
 10
991.1960133134346
 20
-601.6070606688982
 30
0.0
 10
989.3184362739735
 20
-600.6489796144501
 30
0.0
 10
988.7120994685695
 20
-598.6063825012455
 30
0.0
 10
988.4468271162052
 20
-596.503496217049
 30
0.0
 10
989.7904143554528
 20
-594.6514128841787
 30
0.0
 10
990.9231617509996
 20
-593.028772910626
 30
0.0
 10
992.0951832350848
 20
-590.7746469346271
 30
0.0
 10
993.4401485125263
 20
-588.2759191791754
 30
0.0
 10
993.9610469498962
 20
-587.2541038582502
 30
0.0
 10
994.0657778526478
 20
-584.1738439848884
 30
0.0
 10
993.7446949534225
 20
-580.3787267983372
 30
0.0
 10
989.0765905709089
 20
-581.4625538379968
 30
0.0
 10
988.0809579756717
 20
-583.4738005822857
 30
0.0
 10
985.7031530717522
 20
-587.1989823304863
 30
0.0
 10
985.2931867090076
 20
-592.2053950896513
 30
0.0
 10
985.712110320014
 20
-596.4425180269601
 30
0.0
 10
985.2456443913111
 20
-597.3189503184077
 30
0.0
 10
984.5421558932231
 20
-597.9921219762255
 30
0.0
 10
983.8490026815908
 20
-598.6852751878578
 30
0.0
 10
983.2095929595284
 20
-599.2358014464007
 30
0.0
 10
982.6859384457705
 20
-599.3846295713635
 30
0.0
 10
982.3124900951661
 20
-600.2390132517054
 30
0.0
 10
982.4985252513729
 20
-600.583867309779
 30
0.0
 10
982.5529577600398
 20
-600.6386443279944
 30
0.0
 10
982.9946190012456
 20
-600.9049502090043
 30
0.0
 10
984.3547426988255
 20
-601.322151272268
 30
0.0
 10
985.1636511187621
 20
-600.4932612985169
 30
0.0
 10
986.030437142851
 20
-599.6623042674746
 30
0.0
 10
986.030437142851
 20
-599.6623042674746
 30
0.0
 10
986.4080196080345
 20
-599.3109045279791
 30
0.0
 10
986.4080196080345
 20
-599.3109045279791
 30
0.0
 10
987.3044334532964
 20
-601.1874480387947
 30
0.0
 10
988.6735143991347
 20
-603.3409772266244
 30
0.0
 10
990.8797535478888
 20
-603.9545487325474
 30
0.0
 10
992.1585729920134
 20
-604.1691781812784
 30
0.0
 10
993.7074879221785
 20
-604.1609099521138
 30
0.0
 10
994.8657290243227
 20
-603.4374399002114
 30
0.0
 10
994.8657290243227
 20
-603.4374399002114
 30
0.0
 10
996.5717403086185
 20
-602.3418995359019
 30
0.0
 10
996.5717403086185
 20
-602.3418995359019
 30
0.0
 10
997.8126637024054
 20
-603.805376098036
 30
0.0
 10
999.4235903513083
 20
-604.9815316967004
 30
0.0
 10
1001.549903284804
 20
-604.7813716490074
 30
0.0
 10
1002.952057147301
 20
-604.720737968467
 30
0.0
 10
1004.061377893552
 20
-603.722004787293
 30
0.0
 10
1004.957102719717
 20
-602.7518658986467
 30
0.0
 10
1004.957102719717
 20
-602.7518658986467
 30
0.0
 10
1005.471799985213
 20
-602.1768794621585
 30
0.0
 10
1005.471799985213
 20
-602.1768794621585
 30
0.0
 10
1006.851905236604
 20
-603.6282981900943
 30
0.0
 10
1008.459386790022
 20
-604.9811871871518
 30
0.0
 10
1010.864752457823
 20
-604.535736340909
 30
0.0
 10
1012.339253325507
 20
-604.3452225605747
 30
0.0
 10
1013.12404607705
 20
-603.5311464974102
 30
0.0
 10
1013.70006604218
 20
-602.2409582381841
 30
0.0
 10
1013.971539566421
 20
-601.6094722357378
 30
0.0
 10
1013.892991389358
 20
-600.9207976482364
 30
0.0
 10
1013.82477849875
 20
-600.2617508819081
 30
0.0
 10
1014.827301284957
 20
-600.5201330433018
 30
0.0
 10
1015.867031102406
 20
-600.7340734729358
 30
0.0
 10
1016.902626805272
 20
-600.7733475614677
 30
0.0
 10
1017.256782621156
 20
-601.6890539414471
 30
0.0
 10
1017.883100980374
 20
-602.7525549177437
 30
0.0
 10
1018.806386570421
 20
-603.1780242101721
 30
0.0
 10
1020.805230970963
 20
-604.0988982333794
 30
0.0
 10
1020.918230102879
 20
-603.9473140320283
 30
0.0
 10
1022.797874199631
 20
-603.8477507725047
 30
0.0
 10
1025.197038695559
 20
-603.4022999262619
 30
0.0
 10
1028.30244776596
 20
-599.6867644454198
 30
0.0
 10
1028.30244776596
 20
-599.6867644454198
 30
0.0
 10
1028.30244776596
 20
-599.6867644454198
 30
0.0
 10
1026.959549545813
 20
-601.5285124918345
 30
0.0
 10
1028.30244776596
 20
-599.6867644454198
 30
0.0
  0
SPLINE
  5
3EF
330
3E8
100
AcDbEntity
  8
Layer 1
370
     0
100
AcDbSpline
210
0.0
220
0.0
230
1.0
 70
    11
 71
     3
 72
    56
 73
    52
 74
     0
 42
0.0000000001
 43
0.0000000001
 12
1.0
 22
0.0
 32
0.0
 13
1.0
 23
0.0
 33
0.0
 40
0.0
 40
0.0
 40
0.0
 40
0.0
 40
1.0
 40
1.0
 40
1.0
 40
2.0
 40
2.0
 40
2.0
 40
3.0
 40
3.0
 40
3.0
 40
4.0
 40
4.0
 40
4.0
 40
5.0
 40
5.0
 40
5.0
 40
6.0
 40
6.0
 40
6.0
 40
7.0
 40
7.0
 40
7.0
 40
8.0
 40
8.0
 40
8.0
 40
9.0
 40
9.0
 40
9.0
 40
10.0
 40
10.0
 40
10.0
 40
11.0
 40
11.0
 40
11.0
 40
12.0
 40
12.0
 40
12.0
 40
13.0
 40
13.0
 40
13.0
 40
14.0
 40
14.0
 40
14.0
 40
15.0
 40
15.0
 40
15.0
 40
16.0
 40
16.0
 40
16.0
 40
17.0
 40
17.0
 40
17.0
 40
17.0
 10
969.7303123639399
 20
-586.3211720008446
 30
0.0
 10
969.7303123639399
 20
-586.3211720008446
 30
0.0
 10
969.22112725122
 20
-585.850227448011
 30
0.0
 10
969.22112725122
 20
-585.850227448011
 30
0.0
 10
969.22112725122
 20
-585.850227448011
 30
0.0
 10
969.7117088483196
 20
-585.6132048786258
 30
0.0
 10
969.7117088483196
 20
-585.6132048786258
 30
0.0
 10
970.4827212179154
 20
-585.3658470227848
 30
0.0
 10
971.3191904017372
 20
-585.3041798135989
 30
0.0
 10
971.7112422679586
 20
-586.1992156206668
 30
0.0
 10
971.8070159224485
 20
-586.9843528817552
 30
0.0
 10
971.4797318513466
 20
-587.4583980205256
 30
0.0
 10
970.9236934400273
 20
-587.9476015794311
 30
0.0
 10
969.7268672684515
 20
-588.056466596765
 30
0.0
 10
968.9248490394885
 20
-589.1592416615935
 30
0.0
 10
968.1848425292569
 20
-589.9857200685049
 30
0.0
 10
967.331147868012
 20
-591.9980003414393
 30
0.0
 10
968.0339473469998
 20
-594.4157683529876
 30
0.0
 10
968.4521819389123
 20
-596.4425180269601
 30
0.0
 10
968.4521819389123
 20
-596.4425180269601
 30
0.0
 10
968.7078080239178
 20
-596.6912539209951
 30
0.0
 10
968.7078080239178
 20
-596.6912539209951
 30
0.0
 10
969.1687617998442
 20
-597.1477290727908
 30
0.0
 10
969.5435881886394
 20
-597.633487536211
 30
0.0
 10
969.510515271981
 20
-598.330430352877
 30
0.0
 10
969.0716101071602
 20
-599.5103755565751
 30
0.0
 10
966.7296341962873
 20
-600.0843284644177
 30
0.0
 10
966.4802092831552
 20
-598.2005502530831
 30
0.0
 10
966.0564625384695
 20
-597.4529645327839
 30
0.0
 10
965.8862748214982
 20
-596.910361993857
 30
0.0
 10
965.777409804161
 20
-596.3567351493774
 30
0.0
 10
965.777409804161
 20
-596.3567351493774
 30
0.0
 10
965.7009286843918
 20
-595.9198970418477
 30
0.0
 10
965.7009286843918
 20
-595.9198970418477
 30
0.0
 10
965.5569236931083
 20
-597.0113032915749
 30
0.0
 10
965.7319345437558
 20
-598.2821990160835
 30
0.0
 10
965.9145246044773
 20
-599.3546572406418
 30
0.0
 10
966.2907290314665
 20
-600.7747255996618
 30
0.0
 10
967.2705141874716
 20
-601.8592416584185
 30
0.0
 10
968.6747351072594
 20
-602.4294049612273
 30
0.0
 10
971.8931433095798
 20
-603.1924936112101
 30
0.0
 10
974.5479338905101
 20
-600.9938336725237
 30
0.0
 10
976.3841697841515
 20
-598.6149952399587
 30
0.0
 10
979.275982934467
 20
-594.4853592817897
 30
0.0
 10
981.8439571091754
 20
-589.3077252770076
 30
0.0
 10
979.507493351079
 20
-584.3051021228764
 30
0.0
 10
976.7190330653177
 20
-580.8159094154154
 30
0.0
 10
969.7303123639399
 20
-586.3211720008446
 30
0.0
 10
969.7303123639399
 20
-586.3211720008446
 30
0.0
 10
969.7303123639399
 20
-586.3211720008446
 30
0.0
 10
971.2489104538381
 20
-582.4364823316769
 30
0.0
 10
969.7303123639399
 20
-586.3211720008446
 30
0.0
  0
SPLINE
  5
3F0
330
3E8
100
AcDbEntity
  8
Layer 1
370
     0
100
AcDbSpline
210
0.0
220
0.0
230
1.0
 70
    11
 71
     3
 72
    26
 73
    22
 74
     0
 42
0.0000000001
 43
0.0000000001
 12
1.0
 22
0.0
 32
0.0
 13
1.0
 23
0.0
 33
0.0
 40
0.0
 40
0.0
 40
0.0
 40
0.0
 40
1.0
 40
1.0
 40
1.0
 40
2.0
 40
2.0
 40
2.0
 40
3.0
 40
3.0
 40
3.0
 40
4.0
 40
4.0
 40
4.0
 40
5.0
 40
5.0
 40
5.0
 40
6.0
 40
6.0
 40
6.0
 40
7.0
 40
7.0
 40
7.0
 40
7.0
 10
978.389904375664
 20
-600.3216955433514
 30
0.0
 10
976.1250986036607
 20
-603.397132283034
 30
0.0
 10
972.4354013389549
 20
-605.446619587209
 30
0.0
 10
968.4866328937647
 20
-604.8905811758898
 30
0.0
 10
965.7029957416829
 20
-604.149196627464
 30
0.0
 10
963.9012108028973
 20
-601.4447966715429
 30
0.0
 10
963.4409460460679
 20
-598.78518295693
 30
0.0
 10
962.8800845010692
 20
-595.3083925932159
 30
0.0
 10
963.8226626258336
 20
-592.1420053327228
 30
0.0
 10
965.6588985194717
 20
-589.5247662925784
 30
0.0
 10
966.2094247780146
 20
-585.7231034246053
 30
0.0
 10
968.3715667045574
 20
-582.072335738886
 30
0.0
 10
972.1446352800031
 20
-580.3942297280208
 30
0.0
 10
974.4969464773317
 20
-579.5360564426451
 30
0.0
 10
979.7638084551784
 20
-579.1581294679131
 30
0.0
 10
981.5483679165378
 20
-583.0156028827474
 30
0.0
 10
984.7881357108699
 20
-588.9904319828162
 30
0.0
 10
978.389904375664
 20
-600.3216955433514
 30
0.0
 10
978.389904375664
 20
-600.3216955433514
 30
0.0
 10
978.389904375664
 20
-600.3216955433514
 30
0.0
 10
981.5394106682793
 20
-595.550582805829
 30
0.0
 10
978.389904375664
 20
-600.3216955433514
 30
0.0
  0
SPLINE
  5
3F1
330
3E8
100
AcDbEntity
  8
Layer 1
370
     0
100
AcDbSpline
210
0.0
220
0.0
230
1.0
 70
    11
 71
     3
 72
    20
 73
    16
 74
     0
 42
0.0000000001
 43
0.0000000001
 12
1.0
 22
0.0
 32
0.0
 13
1.0
 23
0.0
 33
0.0
 40
0.0
 40
0.0
 40
0.0
 40
0.0
 40
1.0
 40
1.0
 40
1.0
 40
2.0
 40
2.0
 40
2.0
 40
3.0
 40
3.0
 40
3.0
 40
4.0
 40
4.0
 40
4.0
 40
5.0
 40
5.0
 40
5.0
 40
5.0
 10
1040.972819941615
 20
-593.2816429192434
 30
0.0
 10
1041.125782181161
 20
-592.8165550287347
 30
0.0
 10
1041.076172806173
 20
-592.1974713700353
 30
0.0
 10
1040.797809090965
 20
-591.7692460012187
 30
0.0
 10
1040.195606400143
 20
-591.0113249944637
 30
0.0
 10
1039.035298240708
 20
-590.4728565701192
 30
0.0
 10
1038.31527328429
 20
-591.4660775985167
 30
0.0
 10
1037.952849239242
 20
-592.3525006668715
 30
0.0
 10
1038.224322763483
 20
-593.2347896206439
 30
0.0
 10
1038.936079490736
 20
-593.8431934833391
 30
0.0
 10
1039.692622459297
 20
-594.0244055058632
 30
0.0
 10
1040.972819941615
 20
-593.2816429192434
 30
0.0
 10
1040.972819941615
 20
-593.2816429192434
 30
0.0
 10
1040.972819941615
 20
-593.2816429192434
 30
0.0
 10
1040.554585349703
 20
-594.2056175283874
 30
0.0
 10
1040.972819941615
 20
-593.2816429192434
 30
0.0
  0
SPLINE
  5
3F2
330
3E8
100
AcDbEntity
  8
Layer 1
370
     0
100
AcDbSpline
210
0.0
220
0.0
230
1.0
 70
    11
 71
     3
 72
    20
 73
    16
 74
     0
 42
0.0000000001
 43
0.0000000001
 12
1.0
 22
0.0
 32
0.0
 13
1.0
 23
0.0
 33
0.0
 40
0.0
 40
0.0
 40
0.0
 40
0.0
 40
1.0
 40
1.0
 40
1.0
 40
2.0
 40
2.0
 40
2.0
 40
3.0
 40
3.0
 40
3.0
 40
4.0
 40
4.0
 40
4.0
 40
5.0
 40
5.0
 40
5.0
 40
5.0
 10
997.5342999871941
 20
-591.861919069772
 30
0.0
 10
997.1450041973641
 20
-592.4200245383824
 30
0.0
 10
996.1838225569793
 20
-592.4214025765765
 30
0.0
 10
995.6870397880031
 20
-592.2184864524953
 30
0.0
 10
994.9683928697832
 20
-591.9253088267005
 30
0.0
 10
994.2855749446067
 20
-590.9772185491598
 30
0.0
 10
994.8119855347528
 20
-590.0604786405348
 30
0.0
 10
995.3997188245365
 20
-589.0372852814156
 30
0.0
 10
996.6192826263149
 20
-589.318405073012
 30
0.0
 10
997.2490460810154
 20
-589.8313797907657
 30
0.0
 10
997.6438540236251
 20
-590.152462689991
 30
0.0
 10
997.5342999871941
 20
-591.861919069772
 30
0.0
 10
997.5342999871941
 20
-591.861919069772
 30
0.0
 10
997.5342999871941
 20
-591.861919069772
 30
0.0
 10
998.0600215582464
 20
-591.1101992348904
 30
0.0
 10
997.5342999871941
 20
-591.861919069772
 30
0.0
  0
HATCH
  5
3F3
330
3E8
100
AcDbEntity
  8
Layer 1
 62
   152
420
    26316
100
AcDbHatch
 10
0.0
 20
0.0
 30
0.0
210
0.0
220
0.0
230
1.0
  2
SOLID
 70
     1
 71
     0
 91
        7
 92
        1
 93
        1
 72
     4
 94
        3
 73
     0
 74
     1
 95
       17
 96
       13
 40
0.0
 40
0.0
 40
0.0
 40
0.0
 40
1.0
 40
1.0
 40
1.0
 40
2.0
 40
2.0
 40
2.0
 40
3.0
 40
3.0
 40
3.0
 40
4.0
 40
4.0
 40
4.0
 40
4.0
 10
991.2731834523042
 20
-584.8483936809004
 10
991.0575204749276
 20
-587.7808589579449
 10
989.8538041123813
 20
-589.7214812447862
 10
988.418577333223
 20
-592.1433833709168
 10
988.4364918297495
 20
-589.1017085669897
 10
988.8499032879795
 20
-586.3800831336424
 10
990.718523079179
 20
-584.4070769492398
 10
990.9583017249524
 20
-584.0801373876895
 10
991.2731834523042
 20
-584.8483936809004
 10
991.2731834523042
 20
-584.8483936809004
 10
991.2731834523042
 20
-584.8483936809004
 10
991.3338171328446
 20
-584.1369814631962
 10
991.2731834523042
 20
-584.8483936809004
 97
        0
 97
        0
 92
        1
 93
        1
 72
     4
 94
        3
 73
     0
 74
     1
 95
       17
 96
       13
 40
0.0
 40
0.0
 40
0.0
 40
0.0
 40
1.0
 40
1.0
 40
1.0
 40
2.0
 40
2.0
 40
2.0
 40
3.0
 40
3.0
 40
3.0
 40
4.0
 40
4.0
 40
4.0
 40
4.0
 10
1020.505507663746
 20
-597.1019093028369
 10
1020.495861396387
 20
-597.3482336300323
 10
1019.908817125701
 20
-597.9969451099048
 10
1018.852550849923
 20
-598.1798796801717
 10
1018.659625502749
 20
-596.9382672672875
 10
1019.259072117183
 20
-596.2130746676424
 10
1019.846116387869
 20
-596.2130746676424
 10
1020.33187485129
 20
-596.2130746676424
 10
1020.505507663746
 20
-597.1019093028369
 10
1020.505507663746
 20
-597.1019093028369
 10
1020.505507663746
 20
-597.1019093028369
 10
1020.532379408531
 20
-596.3953202188122
 10
1020.505507663746
 20
-597.1019093028369
 97
        0
 97
        0
 92
        1
 93
        1
 72
     4
 94
        3
 73
     0
 74
     1
 95
      203
 96
      199
 40
0.0
 40
0.0
 40
0.0
 40
0.0
 40
1.0
 40
1.0
 40
1.0
 40
2.0
 40
2.0
 40
2.0
 40
3.0
 40
3.0
 40
3.0
 40
4.0
 40
4.0
 40
4.0
 40
5.0
 40
5.0
 40
5.0
 40
6.0
 40
6.0
 40
6.0
 40
7.0
 40
7.0
 40
7.0
 40
8.0
 40
8.0
 40
8.0
 40
9.0
 40
9.0
 40
9.0
 40
10.0
 40
10.0
 40
10.0
 40
11.0
 40
11.0
 40
11.0
 40
12.0
 40
12.0
 40
12.0
 40
13.0
 40
13.0
 40
13.0
 40
14.0
 40
14.0
 40
14.0
 40
15.0
 40
15.0
 40
15.0
 40
16.0
 40
16.0
 40
16.0
 40
17.0
 40
17.0
 40
17.0
 40
18.0
 40
18.0
 40
18.0
 40
19.0
 40
19.0
 40
19.0
 40
20.0
 40
20.0
 40
20.0
 40
21.0
 40
21.0
 40
21.0
 40
22.0
 40
22.0
 40
22.0
 40
23.0
 40
23.0
 40
23.0
 40
24.0
 40
24.0
 40
24.0
 40
25.0
 40
25.0
 40
25.0
 40
26.0
 40
26.0
 40
26.0
 40
27.0
 40
27.0
 40
27.0
 40
28.0
 40
28.0
 40
28.0
 40
29.0
 40
29.0
 40
29.0
 40
30.0
 40
30.0
 40
30.0
 40
31.0
 40
31.0
 40
31.0
 40
32.0
 40
32.0
 40
32.0
 40
33.0
 40
33.0
 40
33.0
 40
34.0
 40
34.0
 40
34.0
 40
35.0
 40
35.0
 40
35.0
 40
36.0
 40
36.0
 40
36.0
 40
37.0
 40
37.0
 40
37.0
 40
38.0
 40
38.0
 40
38.0
 40
39.0
 40
39.0
 40
39.0
 40
40.0
 40
40.0
 40
40.0
 40
41.0
 40
41.0
 40
41.0
 40
42.0
 40
42.0
 40
42.0
 40
43.0
 40
43.0
 40
43.0
 40
44.0
 40
44.0
 40
44.0
 40
45.0
 40
45.0
 40
45.0
 40
46.0
 40
46.0
 40
46.0
 40
47.0
 40
47.0
 40
47.0
 40
48.0
 40
48.0
 40
48.0
 40
49.0
 40
49.0
 40
49.0
 40
50.0
 40
50.0
 40
50.0
 40
51.0
 40
51.0
 40
51.0
 40
52.0
 40
52.0
 40
52.0
 40
53.0
 40
53.0
 40
53.0
 40
54.0
 40
54.0
 40
54.0
 40
55.0
 40
55.0
 40
55.0
 40
56.0
 40
56.0
 40
56.0
 40
57.0
 40
57.0
 40
57.0
 40
58.0
 40
58.0
 40
58.0
 40
59.0
 40
59.0
 40
59.0
 40
60.0
 40
60.0
 40
60.0
 40
61.0
 40
61.0
 40
61.0
 40
62.0
 40
62.0
 40
62.0
 40
63.0
 40
63.0
 40
63.0
 40
64.0
 40
64.0
 40
64.0
 40
65.0
 40
65.0
 40
65.0
 40
66.0
 40
66.0
 40
66.0
 40
66.0
 10
1028.30244776596
 20
-599.6867644454198
 10
1028.30244776596
 20
-599.6867644454198
 10
1028.531202106184
 20
-600.6417449139311
 10
1028.531202106184
 20
-600.6417449139311
 10
1028.657292600944
 20
-601.1371496447101
 10
1028.802675630422
 20
-601.5974144015395
 10
1029.04589937168
 20
-602.0504444578498
 10
1030.589302149072
 20
-604.115779201257
 10
1034.529113346004
 20
-603.8791011414204
 10
1036.547939300357
 20
-603.2531272917505
 10
1037.66621729487
 20
-602.9055171572888
 10
1038.74039806717
 20
-602.3312197398976
 10
1039.747743987061
 20
-601.7324621445613
 10
1042.315718161763
 20
-603.4205589323336
 10
1045.55893105158
 20
-603.9428354078975
 10
1048.808345113265
 20
-603.955582261193
 10
1052.129417161048
 20
-603.9679846049398
 10
1055.520080137631
 20
-603.4453636198275
 10
1058.307162385199
 20
-603.039531371665
 10
1061.271322540704
 20
-602.8493621008793
 10
1063.634658043589
 20
-601.4516868625134
 10
1066.753158476837
 20
-602.1224469534915
 10
1067.425641115558
 20
-601.8978267278533
 10
1067.955496801189
 20
-601.5546952175223
 10
1067.905887426202
 20
-600.7185705432522
 10
1067.604097061694
 20
-599.9785640330206
 10
1067.185862469784
 20
-599.4614552006846
 10
1066.314253312016
 20
-599.392208781431
 10
1064.843886558912
 20
-600.0247283125229
 10
1063.184039554115
 20
-599.8373151181253
 10
1061.648905005891
 20
-600.2142085642116
 10
1057.746989859294
 20
-601.1237137723176
 10
1053.592893723183
 20
-601.4806256645895
 10
1049.177659349286
 20
-601.7197152912659
 10
1046.440186476707
 20
-601.6966331515147
 10
1042.979932571322
 20
-601.654258477046
 10
1041.071349672494
 20
-599.3470780305743
 10
1040.860509828796
 20
-598.6518577616508
 10
1041.431017641154
 20
-597.7289166811524
 10
1041.203641339127
 20
-596.7405187864342
 10
1040.847418465952
 20
-596.0508106702872
 10
1040.263819290751
 20
-595.5943355184916
 10
1039.415636782282
 20
-595.8182667250328
 10
1038.252572546459
 20
-596.6585255138853
 10
1038.268419985694
 20
-598.0451764466983
 10
1038.372461869349
 20
-599.3057368847512
 10
1036.698145463517
 20
-601.4696013590367
 10
1032.844461653717
 20
-602.3729053952692
 10
1031.194260916282
 20
-600.6951438939525
 10
1031.108133529151
 20
-600.3985211726725
 10
1030.942768945859
 20
-599.8163000356653
 10
1031.110889605536
 20
-599.3880746668488
 10
1031.126048025674
 20
-599.33639823457
 10
1031.141895464907
 20
-599.2802431781604
 10
1031.149474674971
 20
-599.2165089116833
 10
1031.235602062105
 20
-598.5664193936167
 10
1031.02200614202
 20
-598.0792828920023
 10
1030.427382661266
 20
-597.8680985387565
 10
1029.296702323007
 20
-597.4529645327839
 10
1029.363537175417
 20
-596.9455019678066
 10
1028.562896984648
 20
-596.2389128837818
 10
1027.739519163674
 20
-595.4806473674784
 10
1026.780404580577
 20
-595.8458274889149
 10
1026.208518730026
 20
-596.6054710434124
 10
1026.06795883423
 20
-598.639455417904
 10
1024.631354016878
 20
-600.3065371232163
 10
1023.051433227346
 20
-601.4017329779773
 10
1022.042020250168
 20
-601.750721150633
 10
1020.776981187984
 20
-601.6353104518772
 10
1019.950847290621
 20
-601.074793416427
 10
1019.676617689995
 20
-600.8853131647384
 10
1019.580155016408
 20
-600.6758513592351
 10
1019.574642863632
 20
-600.5280567629179
 10
1020.892047377191
 20
-600.1573644887051
 10
1022.073026109535
 20
-599.26163966254
 10
1022.747575805547
 20
-598.0310515552088
 10
1023.546148939028
 20
-595.8882021633834
 10
1021.997234008859
 20
-593.6010032707261
 10
1019.616673028552
 20
-593.9331104755041
 10
1017.421458185351
 20
-594.2404129927884
 10
1016.339009183885
 20
-595.7900169420539
 10
1016.443051067539
 20
-598.4603104526709
 10
1015.235889609505
 20
-598.4100120585863
 10
1014.15412962714
 20
-598.0083139250062
 10
1013.032406537139
 20
-597.5570064164384
 10
1012.07053587766
 20
-597.1683996457023
 10
1011.898281103398
 20
-596.2654401190183
 10
1010.497505279095
 20
-596.5269228663487
 10
1009.395763742912
 20
-597.6920541594602
 10
1010.168154150706
 20
-598.4575543762827
 10
1010.890246164411
 20
-599.377739380393
 10
1011.613716216316
 20
-600.2955128176635
 10
1011.580643299655
 20
-601.6721729735693
 10
1010.434804541264
 20
-602.3226070011846
 10
1008.792183013897
 20
-602.7119027910178
 10
1007.418278934379
 20
-601.2739199354745
 10
1006.419201243657
 20
-600.2080073923382
 10
1006.432292606501
 20
-599.5723872753096
 10
1006.450896122121
 20
-598.3386985820416
 10
1006.28759859612
 20
-597.7950625144692
 10
1005.962381582312
 20
-596.7040007742905
 10
1005.257515046027
 20
-595.7672793118511
 10
1003.963537181771
 20
-596.19963879525
 10
1003.155317780928
 20
-597.2745085866479
 10
1003.464687355503
 20
-598.5619407694858
 10
1003.90772663491
 20
-599.6585146624409
 10
1003.545991608955
 20
-600.7816157906323
 10
1003.011312789644
 20
-601.8768116453932
 10
1001.962625723937
 20
-602.4335390758096
 10
1000.743750941256
 20
-602.7239606252161
 10
998.6215721223422
 20
-602.432505547164
 10
997.7437617926972
 20
-600.2565832386803
 10
997.7940601867851
 20
-599.9675397274677
 10
997.9277298916096
 20
-599.1451954351386
 10
997.9291079298038
 20
-598.3070037035774
 10
997.930485968001
 20
-597.7895503616928
 10
997.8822546312043
 20
-597.2297223453397
 10
997.7155120097215
 20
-596.7732471935441
 10
997.1698088848578
 20
-595.290133587144
 10
994.9456552395806
 20
-595.3056365168277
 10
994.9470332777714
 20
-597.8563852141067
 10
994.9470332777714
 20
-598.4665116245444
 10
995.037983798582
 20
-599.0783605827247
 10
995.1806107516713
 20
-599.6695389679936
 10
994.2959102310624
 20
-601.4868268364629
 10
992.4748327575594
 20
-601.8516624483509
 10
991.1960133134346
 20
-601.6070606688982
 10
989.3184362739735
 20
-600.6489796144501
 10
988.7120994685695
 20
-598.6063825012455
 10
988.4468271162052
 20
-596.503496217049
 10
989.7904143554528
 20
-594.6514128841787
 10
990.9231617509996
 20
-593.028772910626
 10
992.0951832350848
 20
-590.7746469346271
 10
993.4401485125263
 20
-588.2759191791754
 10
993.9610469498962
 20
-587.2541038582502
 10
994.0657778526478
 20
-584.1738439848884
 10
993.7446949534225
 20
-580.3787267983372
 10
989.0765905709089
 20
-581.4625538379968
 10
988.0809579756717
 20
-583.4738005822857
 10
985.7031530717522
 20
-587.1989823304863
 10
985.2931867090076
 20
-592.2053950896513
 10
985.712110320014
 20
-596.4425180269601
 10
985.2456443913111
 20
-597.3189503184077
 10
984.5421558932231
 20
-597.9921219762255
 10
983.8490026815908
 20
-598.6852751878578
 10
983.2095929595284
 20
-599.2358014464007
 10
982.6859384457705
 20
-599.3846295713635
 10
982.3124900951661
 20
-600.2390132517054
 10
982.4985252513729
 20
-600.583867309779
 10
982.5529577600398
 20
-600.6386443279944
 10
982.9946190012456
 20
-600.9049502090043
 10
984.3547426988255
 20
-601.322151272268
 10
985.1636511187621
 20
-600.4932612985169
 10
986.030437142851
 20
-599.6623042674746
 10
986.030437142851
 20
-599.6623042674746
 10
986.4080196080345
 20
-599.3109045279791
 10
986.4080196080345
 20
-599.3109045279791
 10
987.3044334532964
 20
-601.1874480387947
 10
988.6735143991347
 20
-603.3409772266244
 10
990.8797535478888
 20
-603.9545487325474
 10
992.1585729920134
 20
-604.1691781812784
 10
993.7074879221785
 20
-604.1609099521138
 10
994.8657290243227
 20
-603.4374399002114
 10
994.8657290243227
 20
-603.4374399002114
 10
996.5717403086185
 20
-602.3418995359019
 10
996.5717403086185
 20
-602.3418995359019
 10
997.8126637024054
 20
-603.805376098036
 10
999.4235903513083
 20
-604.9815316967004
 10
1001.549903284804
 20
-604.7813716490074
 10
1002.952057147301
 20
-604.720737968467
 10
1004.061377893552
 20
-603.722004787293
 10
1004.957102719717
 20
-602.7518658986467
 10
1004.957102719717
 20
-602.7518658986467
 10
1005.471799985213
 20
-602.1768794621585
 10
1005.471799985213
 20
-602.1768794621585
 10
1006.851905236604
 20
-603.6282981900943
 10
1008.459386790022
 20
-604.9811871871518
 10
1010.864752457823
 20
-604.535736340909
 10
1012.339253325507
 20
-604.3452225605747
 10
1013.12404607705
 20
-603.5311464974102
 10
1013.70006604218
 20
-602.2409582381841
 10
1013.971539566421
 20
-601.6094722357378
 10
1013.892991389358
 20
-600.9207976482364
 10
1013.82477849875
 20
-600.2617508819081
 10
1014.827301284957
 20
-600.5201330433018
 10
1015.867031102406
 20
-600.7340734729358
 10
1016.902626805272
 20
-600.7733475614677
 10
1017.256782621156
 20
-601.6890539414471
 10
1017.883100980374
 20
-602.7525549177437
 10
1018.806386570421
 20
-603.1780242101721
 10
1020.805230970963
 20
-604.0988982333794
 10
1020.918230102879
 20
-603.9473140320283
 10
1022.797874199631
 20
-603.8477507725047
 10
1025.197038695559
 20
-603.4022999262619
 10
1028.30244776596
 20
-599.6867644454198
 10
1028.30244776596
 20
-599.6867644454198
 10
1028.30244776596
 20
-599.6867644454198
 10
1026.959549545813
 20
-601.5285124918345
 10
1028.30244776596
 20
-599.6867644454198
 97
        0
 97
        0
 92
        1
 93
        1
 72
     4
 94
        3
 73
     0
 74
     1
 95
       56
 96
       52
 40
0.0
 40
0.0
 40
0.0
 40
0.0
 40
1.0
 40
1.0
 40
1.0
 40
2.0
 40
2.0
 40
2.0
 40
3.0
 40
3.0
 40
3.0
 40
4.0
 40
4.0
 40
4.0
 40
5.0
 40
5.0
 40
5.0
 40
6.0
 40
6.0
 40
6.0
 40
7.0
 40
7.0
 40
7.0
 40
8.0
 40
8.0
 40
8.0
 40
9.0
 40
9.0
 40
9.0
 40
10.0
 40
10.0
 40
10.0
 40
11.0
 40
11.0
 40
11.0
 40
12.0
 40
12.0
 40
12.0
 40
13.0
 40
13.0
 40
13.0
 40
14.0
 40
14.0
 40
14.0
 40
15.0
 40
15.0
 40
15.0
 40
16.0
 40
16.0
 40
16.0
 40
17.0
 40
17.0
 40
17.0
 40
17.0
 10
969.7303123639399
 20
-586.3211720008446
 10
969.7303123639399
 20
-586.3211720008446
 10
969.22112725122
 20
-585.850227448011
 10
969.22112725122
 20
-585.850227448011
 10
969.22112725122
 20
-585.850227448011
 10
969.7117088483196
 20
-585.6132048786258
 10
969.7117088483196
 20
-585.6132048786258
 10
970.4827212179154
 20
-585.3658470227848
 10
971.3191904017372
 20
-585.3041798135989
 10
971.7112422679586
 20
-586.1992156206668
 10
971.8070159224485
 20
-586.9843528817552
 10
971.4797318513466
 20
-587.4583980205256
 10
970.9236934400273
 20
-587.9476015794311
 10
969.7268672684515
 20
-588.056466596765
 10
968.9248490394885
 20
-589.1592416615935
 10
968.1848425292569
 20
-589.9857200685049
 10
967.331147868012
 20
-591.9980003414393
 10
968.0339473469998
 20
-594.4157683529876
 10
968.4521819389123
 20
-596.4425180269601
 10
968.4521819389123
 20
-596.4425180269601
 10
968.7078080239178
 20
-596.6912539209951
 10
968.7078080239178
 20
-596.6912539209951
 10
969.1687617998442
 20
-597.1477290727908
 10
969.5435881886394
 20
-597.633487536211
 10
969.510515271981
 20
-598.330430352877
 10
969.0716101071602
 20
-599.5103755565751
 10
966.7296341962873
 20
-600.0843284644177
 10
966.4802092831552
 20
-598.2005502530831
 10
966.0564625384695
 20
-597.4529645327839
 10
965.8862748214982
 20
-596.910361993857
 10
965.777409804161
 20
-596.3567351493774
 10
965.777409804161
 20
-596.3567351493774
 10
965.7009286843918
 20
-595.9198970418477
 10
965.7009286843918
 20
-595.9198970418477
 10
965.5569236931083
 20
-597.0113032915749
 10
965.7319345437558
 20
-598.2821990160835
 10
965.9145246044773
 20
-599.3546572406418
 10
966.2907290314665
 20
-600.7747255996618
 10
967.2705141874716
 20
-601.8592416584185
 10
968.6747351072594
 20
-602.4294049612273
 10
971.8931433095798
 20
-603.1924936112101
 10
974.5479338905101
 20
-600.9938336725237
 10
976.3841697841515
 20
-598.6149952399587
 10
979.275982934467
 20
-594.4853592817897
 10
981.8439571091754
 20
-589.3077252770076
 10
979.507493351079
 20
-584.3051021228764
 10
976.7190330653177
 20
-580.8159094154154
 10
969.7303123639399
 20
-586.3211720008446
 10
969.7303123639399
 20
-586.3211720008446
 10
969.7303123639399
 20
-586.3211720008446
 10
971.2489104538381
 20
-582.4364823316769
 10
969.7303123639399
 20
-586.3211720008446
 97
        0
 97
        0
 92
        1
 93
        1
 72
     4
 94
        3
 73
     0
 74
     1
 95
       26
 96
       22
 40
0.0
 40
0.0
 40
0.0
 40
0.0
 40
1.0
 40
1.0
 40
1.0
 40
2.0
 40
2.0
 40
2.0
 40
3.0
 40
3.0
 40
3.0
 40
4.0
 40
4.0
 40
4.0
 40
5.0
 40
5.0
 40
5.0
 40
6.0
 40
6.0
 40
6.0
 40
7.0
 40
7.0
 40
7.0
 40
7.0
 10
978.389904375664
 20
-600.3216955433514
 10
976.1250986036607
 20
-603.397132283034
 10
972.4354013389549
 20
-605.446619587209
 10
968.4866328937647
 20
-604.8905811758898
 10
965.7029957416829
 20
-604.149196627464
 10
963.9012108028973
 20
-601.4447966715429
 10
963.4409460460679
 20
-598.78518295693
 10
962.8800845010692
 20
-595.3083925932159
 10
963.8226626258336
 20
-592.1420053327228
 10
965.6588985194717
 20
-589.5247662925784
 10
966.2094247780146
 20
-585.7231034246053
 10
968.3715667045574
 20
-582.072335738886
 10
972.1446352800031
 20
-580.3942297280208
 10
974.4969464773317
 20
-579.5360564426451
 10
979.7638084551784
 20
-579.1581294679131
 10
981.5483679165378
 20
-583.0156028827474
 10
984.7881357108699
 20
-588.9904319828162
 10
978.389904375664
 20
-600.3216955433514
 10
978.389904375664
 20
-600.3216955433514
 10
978.389904375664
 20
-600.3216955433514
 10
981.5394106682793
 20
-595.550582805829
 10
978.389904375664
 20
-600.3216955433514
 97
        0
 97
        0
 92
        1
 93
        1
 72
     4
 94
        3
 73
     0
 74
     1
 95
       20
 96
       16
 40
0.0
 40
0.0
 40
0.0
 40
0.0
 40
1.0
 40
1.0
 40
1.0
 40
2.0
 40
2.0
 40
2.0
 40
3.0
 40
3.0
 40
3.0
 40
4.0
 40
4.0
 40
4.0
 40
5.0
 40
5.0
 40
5.0
 40
5.0
 10
1040.972819941615
 20
-593.2816429192434
 10
1041.125782181161
 20
-592.8165550287347
 10
1041.076172806173
 20
-592.1974713700353
 10
1040.797809090965
 20
-591.7692460012187
 10
1040.195606400143
 20
-591.0113249944637
 10
1039.035298240708
 20
-590.4728565701192
 10
1038.31527328429
 20
-591.4660775985167
 10
1037.952849239242
 20
-592.3525006668715
 10
1038.224322763483
 20
-593.2347896206439
 10
1038.936079490736
 20
-593.8431934833391
 10
1039.692622459297
 20
-594.0244055058632
 10
1040.972819941615
 20
-593.2816429192434
 10
1040.972819941615
 20
-593.2816429192434
 10
1040.972819941615
 20
-593.2816429192434
 10
1040.554585349703
 20
-594.2056175283874
 10
1040.972819941615
 20
-593.2816429192434
 97
        0
 97
        0
 92
        1
 93
        1
 72
     4
 94
        3
 73
     0
 74
     1
 95
       20
 96
       16
 40
0.0
 40
0.0
 40
0.0
 40
0.0
 40
1.0
 40
1.0
 40
1.0
 40
2.0
 40
2.0
 40
2.0
 40
3.0
 40
3.0
 40
3.0
 40
4.0
 40
4.0
 40
4.0
 40
5.0
 40
5.0
 40
5.0
 40
5.0
 10
997.5342999871941
 20
-591.861919069772
 10
997.1450041973641
 20
-592.4200245383824
 10
996.1838225569793
 20
-592.4214025765765
 10
995.6870397880031
 20
-592.2184864524953
 10
994.9683928697832
 20
-591.9253088267005
 10
994.2855749446067
 20
-590.9772185491598
 10
994.8119855347528
 20
-590.0604786405348
 10
995.3997188245365
 20
-589.0372852814156
 10
996.6192826263149
 20
-589.318405073012
 10
997.2490460810154
 20
-589.8313797907657
 10
997.6438540236251
 20
-590.152462689991
 10
997.5342999871941
 20
-591.861919069772
 10
997.5342999871941
 20
-591.861919069772
 10
997.5342999871941
 20
-591.861919069772
 10
998.0600215582464
 20
-591.1101992348904
 10
997.5342999871941
 20
-591.861919069772
 97
        0
 97
        0
 75
     2
 76
     1
 98
        0
  0
ENDBLK
  5
3EB
330
3E8
100
AcDbEntity
  8
0
100
AcDbBlockEnd
  0
BLOCK
  5
3F6
330
3F4
100
AcDbEntity
  8
0
100
AcDbBlockBegin
  2
block 48
 70
     0
 10
0.0
 20
0.0
 30
0.0
  3
block 48
  1

  0
SPLINE
  5
3F8
330
3F4
100
AcDbEntity
  8
Layer 1
370
     0
100
AcDbSpline
210
0.0
220
0.0
230
1.0
 70
    11
 71
     3
 72
    20
 73
    16
 74
     0
 42
0.0000000001
 43
0.0000000001
 12
1.0
 22
0.0
 32
0.0
 13
1.0
 23
0.0
 33
0.0
 40
0.0
 40
0.0
 40
0.0
 40
0.0
 40
1.0
 40
1.0
 40
1.0
 40
2.0
 40
2.0
 40
2.0
 40
3.0
 40
3.0
 40
3.0
 40
4.0
 40
4.0
 40
4.0
 40
5.0
 40
5.0
 40
5.0
 40
5.0
 10
1065.337224232399
 20
-596.3147049844573
 30
0.0
 10
1065.337224232399
 20
-596.3147049844573
 30
0.0
 10
1065.632813425034
 20
-596.3147049844573
 30
0.0
 10
1065.632813425034
 20
-596.3147049844573
 30
0.0
 10
1065.791287817355
 20
-596.3147049844573
 30
0.0
 10
1065.947006133289
 20
-596.364314359445
 30
0.0
 10
1065.947006133289
 20
-596.537602662353
 30
0.0
 10
1065.947006133289
 20
-596.7367291814005
 30
0.0
 10
1065.823671714917
 20
-596.7763477794808
 30
0.0
 10
1065.632813425034
 20
-596.7763477794808
 30
0.0
 10
1065.632813425034
 20
-596.7763477794808
 30
0.0
 10
1065.337224232399
 20
-596.7763477794808
 30
0.0
 10
1065.337224232399
 20
-596.7763477794808
 30
0.0
 10
1065.337224232399
 20
-596.7763477794808
 30
0.0
 10
1065.337224232399
 20
-596.3147049844573
 30
0.0
 10
1065.337224232399
 20
-596.3147049844573
 30
0.0
  0
ENDBLK
  5
3F7
330
3F4
100
AcDbEntity
  8
0
100
AcDbBlockEnd
  0
BLOCK
  5
3FB
330
3F9
100
AcDbEntity
  8
0
100
AcDbBlockBegin
  2
block 49
 70
     0
 10
0.0
 20
0.0
 30
0.0
  3
block 49
  1

  0
SPLINE
  5
3FD
330
3F9
100
AcDbEntity
  8
Layer 1
370
     0
100
AcDbSpline
210
0.0
220
0.0
230
1.0
 70
    11
 71
     3
 72
    35
 73
    31
 74
     0
 42
0.0000000001
 43
0.0000000001
 12
1.0
 22
0.0
 32
0.0
 13
1.0
 23
0.0
 33
0.0
 40
0.0
 40
0.0
 40
0.0
 40
0.0
 40
1.0
 40
1.0
 40
1.0
 40
2.0
 40
2.0
 40
2.0
 40
3.0
 40
3.0
 40
3.0
 40
4.0
 40
4.0
 40
4.0
 40
5.0
 40
5.0
 40
5.0
 40
6.0
 40
6.0
 40
6.0
 40
7.0
 40
7.0
 40
7.0
 40
8.0
 40
8.0
 40
8.0
 40
9.0
 40
9.0
 40
9.0
 40
10.0
 40
10.0
 40
10.0
 40
10.0
 10
1065.08711030017
 20
-597.6462343895064
 30
0.0
 10
1065.08711030017
 20
-597.6462343895064
 30
0.0
 10
1065.337224232399
 20
-597.6462343895064
 30
0.0
 10
1065.337224232399
 20
-597.6462343895064
 30
0.0
 10
1065.337224232399
 20
-597.6462343895064
 30
0.0
 10
1065.337224232399
 20
-596.9713401839459
 30
0.0
 10
1065.337224232399
 20
-596.9713401839459
 30
0.0
 10
1065.337224232399
 20
-596.9713401839459
 30
0.0
 10
1065.545307999708
 20
-596.9713401839459
 30
0.0
 10
1065.545307999708
 20
-596.9713401839459
 30
0.0
 10
1065.545307999708
 20
-596.9713401839459
 30
0.0
 10
1065.971810820782
 20
-597.6462343895064
 30
0.0
 10
1065.971810820782
 20
-597.6462343895064
 30
0.0
 10
1065.971810820782
 20
-597.6462343895064
 30
0.0
 10
1066.235705134952
 20
-597.6462343895064
 30
0.0
 10
1066.235705134952
 20
-597.6462343895064
 30
0.0
 10
1066.235705134952
 20
-597.6462343895064
 30
0.0
 10
1065.802312122908
 20
-596.9713401839459
 30
0.0
 10
1065.802312122908
 20
-596.9713401839459
 30
0.0
 10
1066.040712730487
 20
-596.9713401839459
 30
0.0
 10
1066.196431046421
 20
-596.7939177664556
 30
0.0
 10
1066.196431046421
 20
-596.5489714774543
 30
0.0
 10
1066.196431046421
 20
-596.260616985339
 30
0.0
 10
1066.022109214867
 20
-596.1197125799922
 30
0.0
 10
1065.672087513566
 20
-596.1197125799922
 30
0.0
 10
1065.672087513566
 20
-596.1197125799922
 30
0.0
 10
1065.08711030017
 20
-596.1197125799922
 30
0.0
 10
1065.08711030017
 20
-596.1197125799922
 30
0.0
 10
1065.08711030017
 20
-596.1197125799922
 30
0.0
 10
1065.08711030017
 20
-597.6462343895064
 30
0.0
 10
1065.08711030017
 20
-597.6462343895064
 30
0.0
  0
ENDBLK
  5
3FC
330
3F9
100
AcDbEntity
  8
0
100
AcDbBlockEnd
  0
BLOCK
  5
400
330
3FE
100
AcDbEntity
  8
0
100
AcDbBlockBegin
  2
block 50
 70
     0
 10
0.0
 20
0.0
 30
0.0
  3
block 50
  1

  0
SPLINE
  5
402
330
3FE
100
AcDbEntity
  8
Layer 1
370
     0
100
AcDbSpline
210
0.0
220
0.0
230
1.0
 70
    11
 71
     3
 72
    17
 73
    13
 74
     0
 42
0.0000000001
 43
0.0000000001
 12
1.0
 22
0.0
 32
0.0
 13
1.0
 23
0.0
 33
0.0
 40
0.0
 40
0.0
 40
0.0
 40
0.0
 40
1.0
 40
1.0
 40
1.0
 40
2.0
 40
2.0
 40
2.0
 40
3.0
 40
3.0
 40
3.0
 40
4.0
 40
4.0
 40
4.0
 40
4.0
 10
1064.531760907948
 20
-596.8845237777176
 30
0.0
 10
1064.531760907948
 20
-596.260616985339
 30
0.0
 10
1064.983757435613
 20
-595.7762365601128
 30
0.0
 10
1065.58940522192
 20
-595.7762365601128
 30
0.0
 10
1066.188162817256
 20
-595.7762365601128
 30
0.0
 10
1066.638781306727
 20
-596.260616985339
 30
0.0
 10
1066.638781306727
 20
-596.8845237777176
 30
0.0
 10
1066.638781306727
 20
-597.5084305700964
 30
0.0
 10
1066.188162817256
 20
-597.9921219762255
 30
0.0
 10
1065.58940522192
 20
-597.9921219762255
 30
0.0
 10
1064.983757435613
 20
-597.9921219762255
 30
0.0
 10
1064.531760907948
 20
-597.5084305700964
 30
0.0
 10
1064.531760907948
 20
-596.8845237777176
 30
0.0
  0
ENDBLK
  5
401
330
3FE
100
AcDbEntity
  8
0
100
AcDbBlockEnd
  0
BLOCK
  5
405
330
403
100
AcDbEntity
  8
0
100
AcDbBlockBegin
  2
block 51
 70
     0
 10
0.0
 20
0.0
 30
0.0
  3
block 51
  1

  0
SPLINE
  5
407
330
403
100
AcDbEntity
  8
Layer 1
370
     0
100
AcDbSpline
210
0.0
220
0.0
230
1.0
 70
    11
 71
     3
 72
    17
 73
    13
 74
     0
 42
0.0000000001
 43
0.0000000001
 12
1.0
 22
0.0
 32
0.0
 13
1.0
 23
0.0
 33
0.0
 40
0.0
 40
0.0
 40
0.0
 40
0.0
 40
1.0
 40
1.0
 40
1.0
 40
2.0
 40
2.0
 40
2.0
 40
3.0
 40
3.0
 40
3.0
 40
4.0
 40
4.0
 40
4.0
 40
4.0
 10
1064.283025013913
 20
-596.8845237777176
 30
0.0
 10
1064.283025013913
 20
-597.6021371672953
 30
0.0
 10
1064.867313208211
 20
-598.1878033997876
 30
0.0
 10
1065.585960126434
 20
-598.1878033997876
 30
0.0
 10
1066.303918025561
 20
-598.1878033997876
 30
0.0
 10
1066.888206219859
 20
-597.6021371672953
 30
0.0
 10
1066.888206219859
 20
-596.8845237777176
 30
0.0
 10
1066.888206219859
 20
-596.1662213690431
 30
0.0
 10
1066.303918025561
 20
-595.5812441556477
 30
0.0
 10
1065.585960126434
 20
-595.5812441556477
 30
0.0
 10
1064.867313208211
 20
-595.5812441556477
 30
0.0
 10
1064.283025013913
 20
-596.1662213690431
 30
0.0
 10
1064.283025013913
 20
-596.8845237777176
 30
0.0
  0
ENDBLK
  5
406
330
403
100
AcDbEntity
  8
0
100
AcDbBlockEnd
  0
BLOCK
  5
40A
330
408
100
AcDbEntity
  8
0
100
AcDbBlockBegin
  2
block 52
 70
     0
 10
0.0
 20
0.0
 30
0.0
  3
block 52
  1

  0
SPLINE
  5
40C
330
408
100
AcDbEntity
  8
Layer 1
370
     0
100
AcDbSpline
210
0.0
220
0.0
230
1.0
 70
    11
 71
     3
 72
    20
 73
    16
 74
     0
 42
0.0000000001
 43
0.0000000001
 12
1.0
 22
0.0
 32
0.0
 13
1.0
 23
0.0
 33
0.0
 40
0.0
 40
0.0
 40
0.0
 40
0.0
 40
1.0
 40
1.0
 40
1.0
 40
2.0
 40
2.0
 40
2.0
 40
3.0
 40
3.0
 40
3.0
 40
4.0
 40
4.0
 40
4.0
 40
5.0
 40
5.0
 40
5.0
 40
5.0
 10
1065.337224232399
 20
-596.3147049844573
 30
0.0
 10
1065.337224232399
 20
-596.3147049844573
 30
0.0
 10
1065.632813425034
 20
-596.3147049844573
 30
0.0
 10
1065.632813425034
 20
-596.3147049844573
 30
0.0
 10
1065.791287817352
 20
-596.3147049844573
 30
0.0
 10
1065.947006133285
 20
-596.364314359445
 30
0.0
 10
1065.947006133285
 20
-596.537602662353
 30
0.0
 10
1065.947006133285
 20
-596.7367291814005
 30
0.0
 10
1065.823671714917
 20
-596.7763477794808
 30
0.0
 10
1065.632813425034
 20
-596.7763477794808
 30
0.0
 10
1065.632813425034
 20
-596.7763477794808
 30
0.0
 10
1065.337224232399
 20
-596.7763477794808
 30
0.0
 10
1065.337224232399
 20
-596.7763477794808
 30
0.0
 10
1065.337224232399
 20
-596.7763477794808
 30
0.0
 10
1065.337224232399
 20
-596.3147049844573
 30
0.0
 10
1065.337224232399
 20
-596.3147049844573
 30
0.0
  0
SPLINE
  5
40D
330
408
100
AcDbEntity
  8
Layer 1
370
     0
100
AcDbSpline
210
0.0
220
0.0
230
1.0
 70
    11
 71
     3
 72
    35
 73
    31
 74
     0
 42
0.0000000001
 43
0.0000000001
 12
1.0
 22
0.0
 32
0.0
 13
1.0
 23
0.0
 33
0.0
 40
0.0
 40
0.0
 40
0.0
 40
0.0
 40
1.0
 40
1.0
 40
1.0
 40
2.0
 40
2.0
 40
2.0
 40
3.0
 40
3.0
 40
3.0
 40
4.0
 40
4.0
 40
4.0
 40
5.0
 40
5.0
 40
5.0
 40
6.0
 40
6.0
 40
6.0
 40
7.0
 40
7.0
 40
7.0
 40
8.0
 40
8.0
 40
8.0
 40
9.0
 40
9.0
 40
9.0
 40
10.0
 40
10.0
 40
10.0
 40
10.0
 10
1065.087110300167
 20
-597.6462343895064
 30
0.0
 10
1065.087110300167
 20
-597.6462343895064
 30
0.0
 10
1065.337224232399
 20
-597.6462343895064
 30
0.0
 10
1065.337224232399
 20
-597.6462343895064
 30
0.0
 10
1065.337224232399
 20
-597.6462343895064
 30
0.0
 10
1065.337224232399
 20
-596.9713401839459
 30
0.0
 10
1065.337224232399
 20
-596.9713401839459
 30
0.0
 10
1065.337224232399
 20
-596.9713401839459
 30
0.0
 10
1065.545307999708
 20
-596.9713401839459
 30
0.0
 10
1065.545307999708
 20
-596.9713401839459
 30
0.0
 10
1065.545307999708
 20
-596.9713401839459
 30
0.0
 10
1065.971810820782
 20
-597.6462343895064
 30
0.0
 10
1065.971810820782
 20
-597.6462343895064
 30
0.0
 10
1065.971810820782
 20
-597.6462343895064
 30
0.0
 10
1066.235705134952
 20
-597.6462343895064
 30
0.0
 10
1066.235705134952
 20
-597.6462343895064
 30
0.0
 10
1066.235705134952
 20
-597.6462343895064
 30
0.0
 10
1065.802312122908
 20
-596.9713401839459
 30
0.0
 10
1065.802312122908
 20
-596.9713401839459
 30
0.0
 10
1066.040712730487
 20
-596.9713401839459
 30
0.0
 10
1066.196431046418
 20
-596.7939177664556
 30
0.0
 10
1066.196431046418
 20
-596.5489714774543
 30
0.0
 10
1066.196431046418
 20
-596.260616985339
 30
0.0
 10
1066.022109214867
 20
-596.1197125799922
 30
0.0
 10
1065.672087513566
 20
-596.1197125799922
 30
0.0
 10
1065.672087513566
 20
-596.1197125799922
 30
0.0
 10
1065.087110300167
 20
-596.1197125799922
 30
0.0
 10
1065.087110300167
 20
-596.1197125799922
 30
0.0
 10
1065.087110300167
 20
-596.1197125799922
 30
0.0
 10
1065.087110300167
 20
-597.6462343895064
 30
0.0
 10
1065.087110300167
 20
-597.6462343895064
 30
0.0
  0
SPLINE
  5
40E
330
408
100
AcDbEntity
  8
Layer 1
370
     0
100
AcDbSpline
210
0.0
220
0.0
230
1.0
 70
    11
 71
     3
 72
    20
 73
    16
 74
     0
 42
0.0000000001
 43
0.0000000001
 12
1.0
 22
0.0
 32
0.0
 13
1.0
 23
0.0
 33
0.0
 40
0.0
 40
0.0
 40
0.0
 40
0.0
 40
1.0
 40
1.0
 40
1.0
 40
2.0
 40
2.0
 40
2.0
 40
3.0
 40
3.0
 40
3.0
 40
4.0
 40
4.0
 40
4.0
 40
5.0
 40
5.0
 40
5.0
 40
5.0
 10
1064.531760907948
 20
-596.8845237777176
 30
0.0
 10
1064.531760907948
 20
-596.260616985339
 30
0.0
 10
1064.983757435613
 20
-595.7762365601128
 30
0.0
 10
1065.58940522192
 20
-595.7762365601128
 30
0.0
 10
1066.188162817253
 20
-595.7762365601128
 30
0.0
 10
1066.638781306724
 20
-596.260616985339
 30
0.0
 10
1066.638781306724
 20
-596.8845237777176
 30
0.0
 10
1066.638781306724
 20
-597.5084305700964
 30
0.0
 10
1066.188162817253
 20
-597.9921219762255
 30
0.0
 10
1065.58940522192
 20
-597.9921219762255
 30
0.0
 10
1064.983757435613
 20
-597.9921219762255
 30
0.0
 10
1064.531760907948
 20
-596.8845237777176
 30
0.0
 10
1064.531760907948
 20
-596.8845237777176
 30
0.0
 10
1064.531760907948
 20
-596.8845237777176
 30
0.0
 10
1064.531760907948
 20
-597.5084305700964
 30
0.0
 10
1064.531760907948
 20
-596.8845237777176
 30
0.0
  0
SPLINE
  5
40F
330
408
100
AcDbEntity
  8
Layer 1
370
     0
100
AcDbSpline
210
0.0
220
0.0
230
1.0
 70
    11
 71
     3
 72
    20
 73
    16
 74
     0
 42
0.0000000001
 43
0.0000000001
 12
1.0
 22
0.0
 32
0.0
 13
1.0
 23
0.0
 33
0.0
 40
0.0
 40
0.0
 40
0.0
 40
0.0
 40
1.0
 40
1.0
 40
1.0
 40
2.0
 40
2.0
 40
2.0
 40
3.0
 40
3.0
 40
3.0
 40
4.0
 40
4.0
 40
4.0
 40
5.0
 40
5.0
 40
5.0
 40
5.0
 10
1064.283025013913
 20
-596.8845237777176
 30
0.0
 10
1064.283025013913
 20
-597.6021371672953
 30
0.0
 10
1064.867313208208
 20
-598.1878033997876
 30
0.0
 10
1065.585960126431
 20
-598.1878033997876
 30
0.0
 10
1066.303918025561
 20
-598.1878033997876
 30
0.0
 10
1066.888206219856
 20
-597.6021371672953
 30
0.0
 10
1066.888206219856
 20
-596.8845237777176
 30
0.0
 10
1066.888206219856
 20
-596.1662213690431
 30
0.0
 10
1066.303918025561
 20
-595.5812441556477
 30
0.0
 10
1065.585960126431
 20
-595.5812441556477
 30
0.0
 10
1064.867313208208
 20
-595.5812441556477
 30
0.0
 10
1064.283025013913
 20
-596.8845237777176
 30
0.0
 10
1064.283025013913
 20
-596.8845237777176
 30
0.0
 10
1064.283025013913
 20
-596.8845237777176
 30
0.0
 10
1064.283025013913
 20
-596.1662213690431
 30
0.0
 10
1064.283025013913
 20
-596.8845237777176
 30
0.0
  0
HATCH
  5
410
330
408
100
AcDbEntity
  8
Layer 1
 62
   152
420
    26316
100
AcDbHatch
 10
0.0
 20
0.0
 30
0.0
210
0.0
220
0.0
230
1.0
  2
SOLID
 70
     1
 71
     0
 91
        4
 92
        1
 93
        1
 72
     4
 94
        3
 73
     0
 74
     1
 95
       20
 96
       16
 40
0.0
 40
0.0
 40
0.0
 40
0.0
 40
1.0
 40
1.0
 40
1.0
 40
2.0
 40
2.0
 40
2.0
 40
3.0
 40
3.0
 40
3.0
 40
4.0
 40
4.0
 40
4.0
 40
5.0
 40
5.0
 40
5.0
 40
5.0
 10
1065.337224232399
 20
-596.3147049844573
 10
1065.337224232399
 20
-596.3147049844573
 10
1065.632813425034
 20
-596.3147049844573
 10
1065.632813425034
 20
-596.3147049844573
 10
1065.791287817352
 20
-596.3147049844573
 10
1065.947006133285
 20
-596.364314359445
 10
1065.947006133285
 20
-596.537602662353
 10
1065.947006133285
 20
-596.7367291814005
 10
1065.823671714917
 20
-596.7763477794808
 10
1065.632813425034
 20
-596.7763477794808
 10
1065.632813425034
 20
-596.7763477794808
 10
1065.337224232399
 20
-596.7763477794808
 10
1065.337224232399
 20
-596.7763477794808
 10
1065.337224232399
 20
-596.7763477794808
 10
1065.337224232399
 20
-596.3147049844573
 10
1065.337224232399
 20
-596.3147049844573
 97
        0
 97
        0
 92
        1
 93
        1
 72
     4
 94
        3
 73
     0
 74
     1
 95
       35
 96
       31
 40
0.0
 40
0.0
 40
0.0
 40
0.0
 40
1.0
 40
1.0
 40
1.0
 40
2.0
 40
2.0
 40
2.0
 40
3.0
 40
3.0
 40
3.0
 40
4.0
 40
4.0
 40
4.0
 40
5.0
 40
5.0
 40
5.0
 40
6.0
 40
6.0
 40
6.0
 40
7.0
 40
7.0
 40
7.0
 40
8.0
 40
8.0
 40
8.0
 40
9.0
 40
9.0
 40
9.0
 40
10.0
 40
10.0
 40
10.0
 40
10.0
 10
1065.087110300167
 20
-597.6462343895064
 10
1065.087110300167
 20
-597.6462343895064
 10
1065.337224232399
 20
-597.6462343895064
 10
1065.337224232399
 20
-597.6462343895064
 10
1065.337224232399
 20
-597.6462343895064
 10
1065.337224232399
 20
-596.9713401839459
 10
1065.337224232399
 20
-596.9713401839459
 10
1065.337224232399
 20
-596.9713401839459
 10
1065.545307999708
 20
-596.9713401839459
 10
1065.545307999708
 20
-596.9713401839459
 10
1065.545307999708
 20
-596.9713401839459
 10
1065.971810820782
 20
-597.6462343895064
 10
1065.971810820782
 20
-597.6462343895064
 10
1065.971810820782
 20
-597.6462343895064
 10
1066.235705134952
 20
-597.6462343895064
 10
1066.235705134952
 20
-597.6462343895064
 10
1066.235705134952
 20
-597.6462343895064
 10
1065.802312122908
 20
-596.9713401839459
 10
1065.802312122908
 20
-596.9713401839459
 10
1066.040712730487
 20
-596.9713401839459
 10
1066.196431046418
 20
-596.7939177664556
 10
1066.196431046418
 20
-596.5489714774543
 10
1066.196431046418
 20
-596.260616985339
 10
1066.022109214867
 20
-596.1197125799922
 10
1065.672087513566
 20
-596.1197125799922
 10
1065.672087513566
 20
-596.1197125799922
 10
1065.087110300167
 20
-596.1197125799922
 10
1065.087110300167
 20
-596.1197125799922
 10
1065.087110300167
 20
-596.1197125799922
 10
1065.087110300167
 20
-597.6462343895064
 10
1065.087110300167
 20
-597.6462343895064
 97
        0
 97
        0
 92
        1
 93
        1
 72
     4
 94
        3
 73
     0
 74
     1
 95
       20
 96
       16
 40
0.0
 40
0.0
 40
0.0
 40
0.0
 40
1.0
 40
1.0
 40
1.0
 40
2.0
 40
2.0
 40
2.0
 40
3.0
 40
3.0
 40
3.0
 40
4.0
 40
4.0
 40
4.0
 40
5.0
 40
5.0
 40
5.0
 40
5.0
 10
1064.531760907948
 20
-596.8845237777176
 10
1064.531760907948
 20
-596.260616985339
 10
1064.983757435613
 20
-595.7762365601128
 10
1065.58940522192
 20
-595.7762365601128
 10
1066.188162817253
 20
-595.7762365601128
 10
1066.638781306724
 20
-596.260616985339
 10
1066.638781306724
 20
-596.8845237777176
 10
1066.638781306724
 20
-597.5084305700964
 10
1066.188162817253
 20
-597.9921219762255
 10
1065.58940522192
 20
-597.9921219762255
 10
1064.983757435613
 20
-597.9921219762255
 10
1064.531760907948
 20
-596.8845237777176
 10
1064.531760907948
 20
-596.8845237777176
 10
1064.531760907948
 20
-596.8845237777176
 10
1064.531760907948
 20
-597.5084305700964
 10
1064.531760907948
 20
-596.8845237777176
 97
        0
 97
        0
 92
        1
 93
        1
 72
     4
 94
        3
 73
     0
 74
     1
 95
       20
 96
       16
 40
0.0
 40
0.0
 40
0.0
 40
0.0
 40
1.0
 40
1.0
 40
1.0
 40
2.0
 40
2.0
 40
2.0
 40
3.0
 40
3.0
 40
3.0
 40
4.0
 40
4.0
 40
4.0
 40
5.0
 40
5.0
 40
5.0
 40
5.0
 10
1064.283025013913
 20
-596.8845237777176
 10
1064.283025013913
 20
-597.6021371672953
 10
1064.867313208208
 20
-598.1878033997876
 10
1065.585960126431
 20
-598.1878033997876
 10
1066.303918025561
 20
-598.1878033997876
 10
1066.888206219856
 20
-597.6021371672953
 10
1066.888206219856
 20
-596.8845237777176
 10
1066.888206219856
 20
-596.1662213690431
 10
1066.303918025561
 20
-595.5812441556477
 10
1065.585960126431
 20
-595.5812441556477
 10
1064.867313208208
 20
-595.5812441556477
 10
1064.283025013913
 20
-596.8845237777176
 10
1064.283025013913
 20
-596.8845237777176
 10
1064.283025013913
 20
-596.8845237777176
 10
1064.283025013913
 20
-596.1662213690431
 10
1064.283025013913
 20
-596.8845237777176
 97
        0
 97
        0
 75
     2
 76
     1
 98
        0
  0
ENDBLK
  5
40B
330
408
100
AcDbEntity
  8
0
100
AcDbBlockEnd
  0
BLOCK
  5
41F
330
41D
100
AcDbEntity
  8
0
100
AcDbBlockBegin
  2
block 53
 70
     0
 10
0.0
 20
0.0
 30
0.0
  3
block 53
  1

  0
POLYLINE
  5
421
330
41D
100
AcDbEntity
  8
Layer 1
 62
     7
420
 16777215
370
    35
100
AcDb2dPolyline
 66
     1
 10
0.0
 20
0.0
 30
0.0
  0
VERTEX
  5
422
330
421
100
AcDbEntity
  8
Layer 1
 62
     7
420
 16777215
370
    35
100
AcDbVertex
100
AcDb2dVertex
 10
-406.2126717125953
 20
-126.1437792398332
 30
0.0
  0
VERTEX
  5
423
330
421
100
AcDbEntity
  8
Layer 1
 62
     7
420
 16777215
370
    35
100
AcDbVertex
100
AcDb2dVertex
 10
-390.2834528278768
 20
-126.1437792398332
 30
0.0
  0
SEQEND
  5
424
330
421
100
AcDbEntity
  8
Layer 1
 62
     7
420
 16777215
370
    35
  0
POLYLINE
  5
425
330
41D
100
AcDbEntity
  8
Layer 1
 62
     7
420
 16777215
370
    35
100
AcDb2dPolyline
 66
     1
 10
0.0
 20
0.0
 30
0.0
  0
VERTEX
  5
426
330
425
100
AcDbEntity
  8
Layer 1
 62
     7
420
 16777215
370
    35
100
AcDbVertex
100
AcDb2dVertex
 10
-388.2922951925312
 20
-128.1349368751804
 30
0.0
  0
VERTEX
  5
427
330
425
100
AcDbEntity
  8
Layer 1
 62
     7
420
 16777215
370
    35
100
AcDbVertex
100
AcDb2dVertex
 10
-389.6197195500769
 20
-126.8075547156946
 30
0.0
  0
VERTEX
  5
428
330
425
100
AcDbEntity
  8
Layer 1
 62
     7
420
 16777215
370
    35
100
AcDbVertex
100
AcDb2dVertex
 10
-390.2834528278768
 20
-126.1437792398332
 30
0.0
  0
SEQEND
  5
429
330
425
100
AcDbEntity
  8
Layer 1
 62
     7
420
 16777215
370
    35
  0
POLYLINE
  5
42A
330
41D
100
AcDbEntity
  8
Layer 1
 62
     7
420
 16777215
370
    35
100
AcDb2dPolyline
 66
     1
 10
0.0
 20
0.0
 30
0.0
  0
VERTEX
  5
42B
330
42A
100
AcDbEntity
  8
Layer 1
 62
     7
420
 16777215
370
    35
100
AcDbVertex
100
AcDb2dVertex
 10
-383.6462466440363
 20
-141.4093492428665
 30
0.0
  0
VERTEX
  5
42C
330
42A
100
AcDbEntity
  8
Layer 1
 62
     7
420
 16777215
370
    35
100
AcDbVertex
100
AcDb2dVertex
 10
757.9489127749044
 20
-131.4535610661312
 30
0.0
  0
VERTEX
  5
42D
330
42A
100
AcDbEntity
  8
Layer 1
 62
     7
420
 16777215
370
    35
100
AcDbVertex
100
AcDb2dVertex
 10
759.2762949343896
 20
-130.7898699863889
 30
0.0
  0
SEQEND
  5
42E
330
42A
100
AcDbEntity
  8
Layer 1
 62
     7
420
 16777215
370
    35
  0
POLYLINE
  5
42F
330
41D
100
AcDbEntity
  8
Layer 1
 62
     7
420
 16777215
370
    35
100
AcDb2dPolyline
 66
     1
 10
0.0
 20
0.0
 30
0.0
  0
VERTEX
  5
430
330
42F
100
AcDbEntity
  8
Layer 1
 62
     7
420
 16777215
370
    35
100
AcDbVertex
100
AcDb2dVertex
 10
-384.3099799218362
 20
-142.7367314023516
 30
0.0
  0
VERTEX
  5
431
330
42F
100
AcDbEntity
  8
Layer 1
 62
     7
420
 16777215
370
    35
100
AcDbVertex
100
AcDb2dVertex
 10
758.6126038546467
 20
-132.7810276217361
 30
0.0
  0
VERTEX
  5
432
330
42F
100
AcDbEntity
  8
Layer 1
 62
     7
420
 16777215
370
    35
100
AcDbVertex
100
AcDb2dVertex
 10
759.9399860141319
 20
-132.1172521458741
 30
0.0
  0
SEQEND
  5
433
330
42F
100
AcDbEntity
  8
Layer 1
 62
     7
420
 16777215
370
    35
  0
POLYLINE
  5
434
330
41D
100
AcDbEntity
  8
Layer 1
 62
     7
420
 16777215
370
    35
100
AcDb2dPolyline
 66
     1
 10
0.0
 20
0.0
 30
0.0
  0
VERTEX
  5
435
330
434
100
AcDbEntity
  8
Layer 1
 62
     7
420
 16777215
370
    35
100
AcDbVertex
100
AcDb2dVertex
 10
763.258610205084
 20
-127.4712457954375
 30
0.0
  0
VERTEX
  5
436
330
434
100
AcDbEntity
  8
Layer 1
 62
     7
420
 16777215
370
    35
100
AcDbVertex
100
AcDb2dVertex
 10
779.8515623676024
 20
-127.4712457954375
 30
0.0
  0
SEQEND
  5
437
330
434
100
AcDbEntity
  8
Layer 1
 62
     7
420
 16777215
370
    35
  0
POLYLINE
  5
438
330
41D
100
AcDbEntity
  8
Layer 1
 62
     7
420
 16777215
370
    35
100
AcDb2dPolyline
 66
     1
 10
0.0
 20
0.0
 30
0.0
  0
VERTEX
  5
439
330
438
100
AcDbEntity
  8
Layer 1
 62
     7
420
 16777215
370
    35
100
AcDbVertex
100
AcDb2dVertex
 10
-350.4603423189985
 20
-376.3655282332131
 30
0.0
  0
VERTEX
  5
43A
330
438
100
AcDbEntity
  8
Layer 1
 62
     7
420
 16777215
370
    35
100
AcDbVertex
100
AcDb2dVertex
 10
-25.23846305441375
 20
-376.3655282332131
 30
0.0
  0
VERTEX
  5
43B
330
438
100
AcDbEntity
  8
Layer 1
 62
     7
420
 16777215
370
    35
100
AcDbVertex
100
AcDb2dVertex
 10
-19.26499014837286
 20
-375.0380616776101
 30
0.0
  0
VERTEX
  5
43C
330
438
100
AcDbEntity
  8
Layer 1
 62
     7
420
 16777215
370
    35
100
AcDbVertex
100
AcDb2dVertex
 10
-13.9552927181933
 20
-371.719521882779
 30
0.0
  0
VERTEX
  5
43D
330
438
100
AcDbEntity
  8
Layer 1
 62
     7
420
 16777215
370
    35
100
AcDbVertex
100
AcDb2dVertex
 10
-10.63666852724187
 20
-366.4097400564778
 30
0.0
  0
VERTEX
  5
43E
330
438
100
AcDbEntity
  8
Layer 1
 62
     7
420
 16777215
370
    35
100
AcDbVertex
100
AcDb2dVertex
 10
-9.309286367756668
 20
-360.4362671504369
 30
0.0
  0
SEQEND
  5
43F
330
438
100
AcDbEntity
  8
Layer 1
 62
     7
420
 16777215
370
    35
  0
POLYLINE
  5
440
330
41D
100
AcDbEntity
  8
Layer 1
 62
     7
420
 16777215
370
    35
100
AcDb2dPolyline
 66
     1
 10
0.0
 20
0.0
 30
0.0
  0
VERTEX
  5
441
330
440
100
AcDbEntity
  8
Layer 1
 62
     7
420
 16777215
370
    35
100
AcDbVertex
100
AcDb2dVertex
 10
-350.4603423189985
 20
-375.0380616776101
 30
0.0
  0
VERTEX
  5
442
330
440
100
AcDbEntity
  8
Layer 1
 62
     7
420
 16777215
370
    35
100
AcDbVertex
100
AcDb2dVertex
 10
-25.23846305441375
 20
-375.0380616776101
 30
0.0
  0
SEQEND
  5
443
330
440
100
AcDbEntity
  8
Layer 1
 62
     7
420
 16777215
370
    35
  0
POLYLINE
  5
444
330
41D
100
AcDbEntity
  8
Layer 1
 62
     7
420
 16777215
370
    35
100
AcDb2dPolyline
 66
     1
 10
0.0
 20
0.0
 30
0.0
  0
VERTEX
  5
445
330
444
100
AcDbEntity
  8
Layer 1
 62
     7
420
 16777215
370
    35
100
AcDbVertex
100
AcDb2dVertex
 10
-365.7258701239722
 20
-142.7367314023516
 30
0.0
  0
VERTEX
  5
446
330
444
100
AcDbEntity
  8
Layer 1
 62
     7
420
 16777215
370
    35
100
AcDbVertex
100
AcDb2dVertex
 10
-365.7258701239722
 20
-360.4362671504369
 30
0.0
  0
VERTEX
  5
447
330
444
100
AcDbEntity
  8
Layer 1
 62
     7
420
 16777215
370
    35
100
AcDbVertex
100
AcDb2dVertex
 10
-364.3984457664262
 20
-365.7460489767349
 30
0.0
  0
VERTEX
  5
448
330
444
100
AcDbEntity
  8
Layer 1
 62
     7
420
 16777215
370
    35
100
AcDbVertex
100
AcDb2dVertex
 10
-361.0798215754776
 20
-371.0557464069151
 30
0.0
  0
VERTEX
  5
449
330
444
100
AcDbEntity
  8
Layer 1
 62
     7
420
 16777215
370
    35
100
AcDbVertex
100
AcDb2dVertex
 10
-356.4338152250401
 20
-373.7106795181249
 30
0.0
  0
VERTEX
  5
44A
330
444
100
AcDbEntity
  8
Layer 1
 62
     7
420
 16777215
370
    35
100
AcDbVertex
100
AcDb2dVertex
 10
-350.4603423189985
 20
-375.0380616776101
 30
0.0
  0
SEQEND
  5
44B
330
444
100
AcDbEntity
  8
Layer 1
 62
     7
420
 16777215
370
    35
  0
POLYLINE
  5
44C
330
41D
100
AcDbEntity
  8
Layer 1
 62
     7
420
 16777215
370
    35
100
AcDb2dPolyline
 66
     1
 10
0.0
 20
0.0
 30
0.0
  0
VERTEX
  5
44D
330
44C
100
AcDbEntity
  8
Layer 1
 62
     7
420
 16777215
370
    35
100
AcDbVertex
100
AcDb2dVertex
 10
-366.3896034017756
 20
-142.7367314023516
 30
0.0
  0
VERTEX
  5
44E
330
44C
100
AcDbEntity
  8
Layer 1
 62
     7
420
 16777215
370
    35
100
AcDbVertex
100
AcDb2dVertex
 10
-366.3896034017756
 20
-360.4362671504369
 30
0.0
  0
VERTEX
  5
44F
330
44C
100
AcDbEntity
  8
Layer 1
 62
     7
420
 16777215
370
    35
100
AcDbVertex
100
AcDb2dVertex
 10
-365.7258701239722
 20
-366.4097400564778
 30
0.0
  0
VERTEX
  5
450
330
44C
100
AcDbEntity
  8
Layer 1
 62
     7
420
 16777215
370
    35
100
AcDbVertex
100
AcDb2dVertex
 10
-361.7435548532772
 20
-371.719521882779
 30
0.0
  0
VERTEX
  5
451
330
44C
100
AcDbEntity
  8
Layer 1
 62
     7
420
 16777215
370
    35
100
AcDbVertex
100
AcDb2dVertex
 10
-356.4338152250401
 20
-375.0380616776101
 30
0.0
  0
VERTEX
  5
452
330
44C
100
AcDbEntity
  8
Layer 1
 62
     7
420
 16777215
370
    35
100
AcDbVertex
100
AcDb2dVertex
 10
-350.4603423189985
 20
-376.3655282332131
 30
0.0
  0
SEQEND
  5
453
330
44C
100
AcDbEntity
  8
Layer 1
 62
     7
420
 16777215
370
    35
  0
POLYLINE
  5
454
330
41D
100
AcDbEntity
  8
Layer 1
 62
     7
420
 16777215
370
    35
100
AcDb2dPolyline
 66
     1
 10
0.0
 20
0.0
 30
0.0
  0
VERTEX
  5
455
330
454
100
AcDbEntity
  8
Layer 1
 62
     7
420
 16777215
370
    35
100
AcDbVertex
100
AcDb2dVertex
 10
-10.63666852724187
 20
-360.4362671504369
 30
0.0
  0
VERTEX
  5
456
330
454
100
AcDbEntity
  8
Layer 1
 62
     7
420
 16777215
370
    35
100
AcDbVertex
100
AcDb2dVertex
 10
-10.63666852724187
 20
-139.4181916075193
 30
0.0
  0
SEQEND
  5
457
330
454
100
AcDbEntity
  8
Layer 1
 62
     7
420
 16777215
370
    35
  0
POLYLINE
  5
458
330
41D
100
AcDbEntity
  8
Layer 1
 62
     7
420
 16777215
370
    35
100
AcDb2dPolyline
 66
     1
 10
0.0
 20
0.0
 30
0.0
  0
VERTEX
  5
459
330
458
100
AcDbEntity
  8
Layer 1
 62
     7
420
 16777215
370
    35
100
AcDbVertex
100
AcDb2dVertex
 10
-25.23846305441375
 20
-375.0380616776101
 30
0.0
  0
VERTEX
  5
45A
330
458
100
AcDbEntity
  8
Layer 1
 62
     7
420
 16777215
370
    35
100
AcDbVertex
100
AcDb2dVertex
 10
-19.92876562423419
 20
-373.7106795181249
 30
0.0
  0
VERTEX
  5
45B
330
458
100
AcDbEntity
  8
Layer 1
 62
     7
420
 16777215
370
    35
100
AcDbVertex
100
AcDb2dVertex
 10
-14.61898379793622
 20
-371.0557464069151
 30
0.0
  0
VERTEX
  5
45C
330
458
100
AcDbEntity
  8
Layer 1
 62
     7
420
 16777215
370
    35
100
AcDbVertex
100
AcDb2dVertex
 10
-11.96413508284645
 20
-365.7460489767349
 30
0.0
  0
VERTEX
  5
45D
330
458
100
AcDbEntity
  8
Layer 1
 62
     7
420
 16777215
370
    35
100
AcDbVertex
100
AcDb2dVertex
 10
-10.63666852724187
 20
-360.4362671504369
 30
0.0
  0
SEQEND
  5
45E
330
458
100
AcDbEntity
  8
Layer 1
 62
     7
420
 16777215
370
    35
  0
POLYLINE
  5
45F
330
41D
100
AcDbEntity
  8
Layer 1
 62
     7
420
 16777215
370
    35
100
AcDb2dPolyline
 66
     1
 10
0.0
 20
0.0
 30
0.0
  0
VERTEX
  5
460
330
45F
100
AcDbEntity
  8
Layer 1
 62
     7
420
 16777215
370
    35
100
AcDbVertex
100
AcDb2dVertex
 10
-132.760806570912
 20
-381.675310059511
 30
0.0
  0
VERTEX
  5
461
330
45F
100
AcDbEntity
  8
Layer 1
 62
     7
420
 16777215
370
    35
100
AcDbVertex
100
AcDb2dVertex
 10
-187.8494448847655
 20
-381.675310059511
 30
0.0
  0
SEQEND
  5
462
330
45F
100
AcDbEntity
  8
Layer 1
 62
     7
420
 16777215
370
    35
  0
POLYLINE
  5
463
330
41D
100
AcDbEntity
  8
Layer 1
 62
     7
420
 16777215
370
    35
100
AcDb2dPolyline
 66
     1
 10
0.0
 20
0.0
 30
0.0
  0
VERTEX
  5
464
330
463
100
AcDbEntity
  8
Layer 1
 62
     7
420
 16777215
370
    35
100
AcDbVertex
100
AcDb2dVertex
 10
-9.309286367756668
 20
-360.4362671504369
 30
0.0
  0
VERTEX
  5
465
330
463
100
AcDbEntity
  8
Layer 1
 62
     7
420
 16777215
370
    35
100
AcDbVertex
100
AcDb2dVertex
 10
-9.309286367756668
 20
-139.4181916075193
 30
0.0
  0
SEQEND
  5
466
330
463
100
AcDbEntity
  8
Layer 1
 62
     7
420
 16777215
370
    35
  0
POLYLINE
  5
467
330
41D
100
AcDbEntity
  8
Layer 1
 62
     7
420
 16777215
370
    25
100
AcDb2dPolyline
 66
     1
 10
0.0
 20
0.0
 30
0.0
  0
VERTEX
  5
468
330
467
100
AcDbEntity
  8
Layer 1
 62
     7
420
 16777215
370
    25
100
AcDbVertex
100
AcDb2dVertex
 10
-242.9379988025
 20
-381.675310059511
 30
0.0
  0
VERTEX
  5
469
330
467
100
AcDbEntity
  8
Layer 1
 62
     7
420
 16777215
370
    25
100
AcDbVertex
100
AcDb2dVertex
 10
-187.8494448847655
 20
-381.675310059511
 30
0.0
  0
SEQEND
  5
46A
330
467
100
AcDbEntity
  8
Layer 1
 62
     7
420
 16777215
370
    25
  0
POLYLINE
  5
46B
330
41D
100
AcDbEntity
  8
Layer 1
 62
     7
420
 16777215
370
    25
100
AcDb2dPolyline
 66
     1
 10
0.0
 20
0.0
 30
0.0
  0
VERTEX
  5
46C
330
46B
100
AcDbEntity
  8
Layer 1
 62
     7
420
 16777215
370
    25
100
AcDbVertex
100
AcDb2dVertex
 10
-244.9291564378468
 20
-377.0292193129553
 30
0.0
  0
VERTEX
  5
46D
330
46B
100
AcDbEntity
  8
Layer 1
 62
     7
420
 16777215
370
    25
100
AcDbVertex
100
AcDb2dVertex
 10
-245.5929319137091
 20
-375.7018371534708
 30
0.0
  0
VERTEX
  5
46E
330
46B
100
AcDbEntity
  8
Layer 1
 62
     7
420
 16777215
370
    25
100
AcDbVertex
100
AcDb2dVertex
 10
-246.9203140731943
 20
-375.0380616776101
 30
0.0
  0
SEQEND
  5
46F
330
46B
100
AcDbEntity
  8
Layer 1
 62
     7
420
 16777215
370
    25
  0
POLYLINE
  5
470
330
41D
100
AcDbEntity
  8
Layer 1
 62
     7
420
 16777215
370
    25
100
AcDb2dPolyline
 66
     1
 10
0.0
 20
0.0
 30
0.0
  0
VERTEX
  5
471
330
470
100
AcDbEntity
  8
Layer 1
 62
     7
420
 16777215
370
    25
100
AcDbVertex
100
AcDb2dVertex
 10
-246.2566229934517
 20
-377.0292193129553
 30
0.0
  0
VERTEX
  5
472
330
470
100
AcDbEntity
  8
Layer 1
 62
     7
420
 16777215
370
    25
100
AcDbVertex
100
AcDb2dVertex
 10
-246.2566229934517
 20
-376.3655282332131
 30
0.0
  0
VERTEX
  5
473
330
470
100
AcDbEntity
  8
Layer 1
 62
     7
420
 16777215
370
    25
100
AcDbVertex
100
AcDb2dVertex
 10
-246.9203140731943
 20
-376.3655282332131
 30
0.0
  0
SEQEND
  5
474
330
470
100
AcDbEntity
  8
Layer 1
 62
     7
420
 16777215
370
    25
  0
POLYLINE
  5
475
330
41D
100
AcDbEntity
  8
Layer 1
 62
     7
420
 16777215
370
    25
100
AcDb2dPolyline
 66
     1
 10
0.0
 20
0.0
 30
0.0
  0
VERTEX
  5
476
330
475
100
AcDbEntity
  8
Layer 1
 62
     7
420
 16777215
370
    25
100
AcDbVertex
100
AcDb2dVertex
 10
-142.7165947476469
 20
-381.675310059511
 30
0.0
  0
VERTEX
  5
477
330
475
100
AcDbEntity
  8
Layer 1
 62
     7
420
 16777215
370
    25
100
AcDbVertex
100
AcDb2dVertex
 10
-142.7165947476469
 20
-380.3478435039081
 30
0.0
  0
SEQEND
  5
478
330
475
100
AcDbEntity
  8
Layer 1
 62
     7
420
 16777215
370
    25
  0
POLYLINE
  5
479
330
41D
100
AcDbEntity
  8
Layer 1
 62
     7
420
 16777215
370
    35
100
AcDb2dPolyline
 66
     1
 10
0.0
 20
0.0
 30
0.0
  0
VERTEX
  5
47A
330
479
100
AcDbEntity
  8
Layer 1
 62
     7
420
 16777215
370
    35
100
AcDbVertex
100
AcDb2dVertex
 10
-132.760806570912
 20
-381.675310059511
 30
0.0
  0
VERTEX
  5
47B
330
479
100
AcDbEntity
  8
Layer 1
 62
     7
420
 16777215
370
    35
100
AcDbVertex
100
AcDb2dVertex
 10
-187.8494448847655
 20
-381.675310059511
 30
0.0
  0
SEQEND
  5
47C
330
479
100
AcDbEntity
  8
Layer 1
 62
     7
420
 16777215
370
    35
  0
POLYLINE
  5
47D
330
41D
100
AcDbEntity
  8
Layer 1
 62
     7
420
 16777215
370
    35
100
AcDb2dPolyline
 66
     1
 10
0.0
 20
0.0
 30
0.0
  0
VERTEX
  5
47E
330
47D
100
AcDbEntity
  8
Layer 1
 62
     7
420
 16777215
370
    35
100
AcDbVertex
100
AcDb2dVertex
 10
-132.760806570912
 20
-380.3478435039081
 30
0.0
  0
VERTEX
  5
47F
330
47D
100
AcDbEntity
  8
Layer 1
 62
     7
420
 16777215
370
    35
100
AcDbVertex
100
AcDb2dVertex
 10
-187.8494448847655
 20
-380.3478435039081
 30
0.0
  0
SEQEND
  5
480
330
47D
100
AcDbEntity
  8
Layer 1
 62
     7
420
 16777215
370
    35
  0
POLYLINE
  5
481
330
41D
100
AcDbEntity
  8
Layer 1
 62
     7
420
 16777215
370
    25
100
AcDb2dPolyline
 66
     1
 10
0.0
 20
0.0
 30
0.0
  0
VERTEX
  5
482
330
481
100
AcDbEntity
  8
Layer 1
 62
     7
420
 16777215
370
    25
100
AcDbVertex
100
AcDb2dVertex
 10
-232.982210625765
 20
-381.675310059511
 30
0.0
  0
VERTEX
  5
483
330
481
100
AcDbEntity
  8
Layer 1
 62
     7
420
 16777215
370
    25
100
AcDbVertex
100
AcDb2dVertex
 10
-232.982210625765
 20
-380.3478435039081
 30
0.0
  0
SEQEND
  5
484
330
481
100
AcDbEntity
  8
Layer 1
 62
     7
420
 16777215
370
    25
  0
POLYLINE
  5
485
330
41D
100
AcDbEntity
  8
Layer 1
 62
     7
420
 16777215
370
    25
100
AcDb2dPolyline
 66
     1
 10
0.0
 20
0.0
 30
0.0
  0
VERTEX
  5
486
330
485
100
AcDbEntity
  8
Layer 1
 62
     7
420
 16777215
370
    25
100
AcDbVertex
100
AcDb2dVertex
 10
-242.9379988025
 20
-380.3478435039081
 30
0.0
  0
VERTEX
  5
487
330
485
100
AcDbEntity
  8
Layer 1
 62
     7
420
 16777215
370
    25
100
AcDbVertex
100
AcDb2dVertex
 10
-187.8494448847655
 20
-380.3478435039081
 30
0.0
  0
SEQEND
  5
488
330
485
100
AcDbEntity
  8
Layer 1
 62
     7
420
 16777215
370
    25
  0
POLYLINE
  5
489
330
41D
100
AcDbEntity
  8
Layer 1
 62
     7
420
 16777215
370
    35
100
AcDb2dPolyline
 66
     1
 10
0.0
 20
0.0
 30
0.0
  0
VERTEX
  5
48A
330
489
100
AcDbEntity
  8
Layer 1
 62
     7
420
 16777215
370
    35
100
AcDbVertex
100
AcDb2dVertex
 10
-130.1059578558222
 20
-377.0292193129553
 30
0.0
  0
VERTEX
  5
48B
330
489
100
AcDbEntity
  8
Layer 1
 62
     7
420
 16777215
370
    35
100
AcDbVertex
100
AcDb2dVertex
 10
-130.1059578558222
 20
-378.3566858685622
 30
0.0
  0
SEQEND
  5
48C
330
489
100
AcDbEntity
  8
Layer 1
 62
     7
420
 16777215
370
    35
  0
POLYLINE
  5
48D
330
41D
100
AcDbEntity
  8
Layer 1
 62
     7
420
 16777215
370
    35
100
AcDb2dPolyline
 66
     1
 10
0.0
 20
0.0
 30
0.0
  0
VERTEX
  5
48E
330
48D
100
AcDbEntity
  8
Layer 1
 62
     7
420
 16777215
370
    35
100
AcDbVertex
100
AcDb2dVertex
 10
-130.7696489355651
 20
-377.0292193129553
 30
0.0
  0
VERTEX
  5
48F
330
48D
100
AcDbEntity
  8
Layer 1
 62
     7
420
 16777215
370
    35
100
AcDbVertex
100
AcDb2dVertex
 10
-130.7696489355651
 20
-378.3566858685622
 30
0.0
  0
SEQEND
  5
490
330
48D
100
AcDbEntity
  8
Layer 1
 62
     7
420
 16777215
370
    35
  0
POLYLINE
  5
491
330
41D
100
AcDbEntity
  8
Layer 1
 62
     7
420
 16777215
370
    35
100
AcDb2dPolyline
 66
     1
 10
0.0
 20
0.0
 30
0.0
  0
VERTEX
  5
492
330
491
100
AcDbEntity
  8
Layer 1
 62
     7
420
 16777215
370
    35
100
AcDbVertex
100
AcDb2dVertex
 10
-128.778491300218
 20
-375.0380616776101
 30
0.0
  0
VERTEX
  5
493
330
491
100
AcDbEntity
  8
Layer 1
 62
     7
420
 16777215
370
    35
100
AcDbVertex
100
AcDb2dVertex
 10
-130.1059578558222
 20
-375.7018371534708
 30
0.0
  0
VERTEX
  5
494
330
491
100
AcDbEntity
  8
Layer 1
 62
     7
420
 16777215
370
    35
100
AcDbVertex
100
AcDb2dVertex
 10
-130.7696489355651
 20
-377.0292193129553
 30
0.0
  0
SEQEND
  5
495
330
491
100
AcDbEntity
  8
Layer 1
 62
     7
420
 16777215
370
    35
  0
POLYLINE
  5
496
330
41D
100
AcDbEntity
  8
Layer 1
 62
     7
420
 16777215
370
    35
100
AcDb2dPolyline
 66
     1
 10
0.0
 20
0.0
 30
0.0
  0
VERTEX
  5
497
330
496
100
AcDbEntity
  8
Layer 1
 62
     7
420
 16777215
370
    35
100
AcDbVertex
100
AcDb2dVertex
 10
-128.778491300218
 20
-376.3655282332131
 30
0.0
  0
VERTEX
  5
498
330
496
100
AcDbEntity
  8
Layer 1
 62
     7
420
 16777215
370
    35
100
AcDbVertex
100
AcDb2dVertex
 10
-129.4422667760799
 20
-376.3655282332131
 30
0.0
  0
VERTEX
  5
499
330
496
100
AcDbEntity
  8
Layer 1
 62
     7
420
 16777215
370
    35
100
AcDbVertex
100
AcDb2dVertex
 10
-130.1059578558222
 20
-377.0292193129553
 30
0.0
  0
SEQEND
  5
49A
330
496
100
AcDbEntity
  8
Layer 1
 62
     7
420
 16777215
370
    35
  0
POLYLINE
  5
49B
330
41D
100
AcDbEntity
  8
Layer 1
 62
     7
420
 16777215
370
    35
100
AcDb2dPolyline
 66
     1
 10
0.0
 20
0.0
 30
0.0
  0
VERTEX
  5
49C
330
49B
100
AcDbEntity
  8
Layer 1
 62
     7
420
 16777215
370
    35
100
AcDbVertex
100
AcDb2dVertex
 10
-132.760806570912
 20
-380.3478435039081
 30
0.0
  0
VERTEX
  5
49D
330
49B
100
AcDbEntity
  8
Layer 1
 62
     7
420
 16777215
370
    35
100
AcDbVertex
100
AcDb2dVertex
 10
-131.4334244114264
 20
-379.6841524241651
 30
0.0
  0
VERTEX
  5
49E
330
49B
100
AcDbEntity
  8
Layer 1
 62
     7
420
 16777215
370
    35
100
AcDbVertex
100
AcDb2dVertex
 10
-130.7696489355651
 20
-378.3566858685622
 30
0.0
  0
SEQEND
  5
49F
330
49B
100
AcDbEntity
  8
Layer 1
 62
     7
420
 16777215
370
    35
  0
POLYLINE
  5
4A0
330
41D
100
AcDbEntity
  8
Layer 1
 62
     7
420
 16777215
370
    35
100
AcDb2dPolyline
 66
     1
 10
0.0
 20
0.0
 30
0.0
  0
VERTEX
  5
4A1
330
4A0
100
AcDbEntity
  8
Layer 1
 62
     7
420
 16777215
370
    35
100
AcDbVertex
100
AcDb2dVertex
 10
-132.760806570912
 20
-381.675310059511
 30
0.0
  0
VERTEX
  5
4A2
330
4A0
100
AcDbEntity
  8
Layer 1
 62
     7
420
 16777215
370
    35
100
AcDbVertex
100
AcDb2dVertex
 10
-130.7696489355651
 20
-381.0115345836504
 30
0.0
  0
VERTEX
  5
4A3
330
4A0
100
AcDbEntity
  8
Layer 1
 62
     7
420
 16777215
370
    35
100
AcDbVertex
100
AcDb2dVertex
 10
-130.1059578558222
 20
-378.3566858685622
 30
0.0
  0
SEQEND
  5
4A4
330
4A0
100
AcDbEntity
  8
Layer 1
 62
     7
420
 16777215
370
    35
  0
POLYLINE
  5
4A5
330
41D
100
AcDbEntity
  8
Layer 1
 62
     7
420
 16777215
370
    25
100
AcDb2dPolyline
 66
     1
 10
0.0
 20
0.0
 30
0.0
  0
VERTEX
  5
4A6
330
4A5
100
AcDbEntity
  8
Layer 1
 62
     7
420
 16777215
370
    25
100
AcDbVertex
100
AcDb2dVertex
 10
-244.9291564378468
 20
-378.3566858685622
 30
0.0
  0
VERTEX
  5
4A7
330
4A5
100
AcDbEntity
  8
Layer 1
 62
     7
420
 16777215
370
    25
100
AcDbVertex
100
AcDb2dVertex
 10
-244.2654653581046
 20
-379.6841524241651
 30
0.0
  0
VERTEX
  5
4A8
330
4A5
100
AcDbEntity
  8
Layer 1
 62
     7
420
 16777215
370
    25
100
AcDbVertex
100
AcDb2dVertex
 10
-242.9379988025
 20
-380.3478435039081
 30
0.0
  0
SEQEND
  5
4A9
330
4A5
100
AcDbEntity
  8
Layer 1
 62
     7
420
 16777215
370
    25
  0
POLYLINE
  5
4AA
330
41D
100
AcDbEntity
  8
Layer 1
 62
     7
420
 16777215
370
    25
100
AcDb2dPolyline
 66
     1
 10
0.0
 20
0.0
 30
0.0
  0
VERTEX
  5
4AB
330
4AA
100
AcDbEntity
  8
Layer 1
 62
     7
420
 16777215
370
    25
100
AcDbVertex
100
AcDb2dVertex
 10
-246.2566229934517
 20
-378.3566858685622
 30
0.0
  0
VERTEX
  5
4AC
330
4AA
100
AcDbEntity
  8
Layer 1
 62
     7
420
 16777215
370
    25
100
AcDbVertex
100
AcDb2dVertex
 10
-244.9291564378468
 20
-381.0115345836504
 30
0.0
  0
VERTEX
  5
4AD
330
4AA
100
AcDbEntity
  8
Layer 1
 62
     7
420
 16777215
370
    25
100
AcDbVertex
100
AcDb2dVertex
 10
-242.9379988025
 20
-381.675310059511
 30
0.0
  0
SEQEND
  5
4AE
330
4AA
100
AcDbEntity
  8
Layer 1
 62
     7
420
 16777215
370
    25
  0
POLYLINE
  5
4AF
330
41D
100
AcDbEntity
  8
Layer 1
 62
     7
420
 16777215
370
    25
100
AcDb2dPolyline
 66
     1
 10
0.0
 20
0.0
 30
0.0
  0
VERTEX
  5
4B0
330
4AF
100
AcDbEntity
  8
Layer 1
 62
     7
420
 16777215
370
    25
100
AcDbVertex
100
AcDb2dVertex
 10
-246.2566229934517
 20
-377.0292193129553
 30
0.0
  0
VERTEX
  5
4B1
330
4AF
100
AcDbEntity
  8
Layer 1
 62
     7
420
 16777215
370
    25
100
AcDbVertex
100
AcDb2dVertex
 10
-246.2566229934517
 20
-378.3566858685622
 30
0.0
  0
SEQEND
  5
4B2
330
4AF
100
AcDbEntity
  8
Layer 1
 62
     7
420
 16777215
370
    25
  0
POLYLINE
  5
4B3
330
41D
100
AcDbEntity
  8
Layer 1
 62
     7
420
 16777215
370
    25
100
AcDb2dPolyline
 66
     1
 10
0.0
 20
0.0
 30
0.0
  0
VERTEX
  5
4B4
330
4B3
100
AcDbEntity
  8
Layer 1
 62
     7
420
 16777215
370
    25
100
AcDbVertex
100
AcDb2dVertex
 10
-244.9291564378468
 20
-377.0292193129553
 30
0.0
  0
VERTEX
  5
4B5
330
4B3
100
AcDbEntity
  8
Layer 1
 62
     7
420
 16777215
370
    25
100
AcDbVertex
100
AcDb2dVertex
 10
-244.9291564378468
 20
-378.3566858685622
 30
0.0
  0
SEQEND
  5
4B6
330
4B3
100
AcDbEntity
  8
Layer 1
 62
     7
420
 16777215
370
    25
  0
POLYLINE
  5
4B7
330
41D
100
AcDbEntity
  8
Layer 1
 62
     7
420
 16777215
370
    35
100
AcDb2dPolyline
 66
     1
 10
0.0
 20
0.0
 30
0.0
  0
VERTEX
  5
4B8
330
4B7
100
AcDbEntity
  8
Layer 1
 62
     7
420
 16777215
370
    35
100
AcDbVertex
100
AcDb2dVertex
 10
-246.9203140731943
 20
-375.0380616776101
 30
0.0
  0
VERTEX
  5
4B9
330
4B7
100
AcDbEntity
  8
Layer 1
 62
     7
420
 16777215
370
    35
100
AcDbVertex
100
AcDb2dVertex
 10
-128.778491300218
 20
-375.0380616776101
 30
0.0
  0
SEQEND
  5
4BA
330
4B7
100
AcDbEntity
  8
Layer 1
 62
     7
420
 16777215
370
    35
  0
POLYLINE
  5
4BB
330
41D
100
AcDbEntity
  8
Layer 1
 62
     7
420
 16777215
370
    35
100
AcDb2dPolyline
 66
     1
 10
0.0
 20
0.0
 30
0.0
  0
VERTEX
  5
4BC
330
4BB
100
AcDbEntity
  8
Layer 1
 62
     7
420
 16777215
370
    35
100
AcDbVertex
100
AcDb2dVertex
 10
-405.5489384347922
 20
-127.4712457954375
 30
0.0
  0
VERTEX
  5
4BD
330
4BB
100
AcDbEntity
  8
Layer 1
 62
     7
420
 16777215
370
    35
100
AcDbVertex
100
AcDb2dVertex
 10
-391.6108771854225
 20
-127.4712457954375
 30
0.0
  0
SEQEND
  5
4BE
330
4BB
100
AcDbEntity
  8
Layer 1
 62
     7
420
 16777215
370
    35
  0
POLYLINE
  5
4BF
330
41D
100
AcDbEntity
  8
Layer 1
 62
     7
420
 16777215
370
    35
100
AcDb2dPolyline
 66
     1
 10
0.0
 20
0.0
 30
0.0
  0
VERTEX
  5
4C0
330
4BF
100
AcDbEntity
  8
Layer 1
 62
     7
420
 16777215
370
    35
100
AcDbVertex
100
AcDb2dVertex
 10
-389.6197195500769
 20
-128.7987123510418
 30
0.0
  0
VERTEX
  5
4C1
330
4BF
100
AcDbEntity
  8
Layer 1
 62
     7
420
 16777215
370
    35
100
AcDbVertex
100
AcDb2dVertex
 10
-390.2834528278768
 20
-128.1349368751804
 30
0.0
  0
VERTEX
  5
4C2
330
4BF
100
AcDbEntity
  8
Layer 1
 62
     7
420
 16777215
370
    35
100
AcDbVertex
100
AcDb2dVertex
 10
-391.6108771854225
 20
-127.4712457954375
 30
0.0
  0
SEQEND
  5
4C3
330
4BF
100
AcDbEntity
  8
Layer 1
 62
     7
420
 16777215
370
    35
  0
POLYLINE
  5
4C4
330
41D
100
AcDbEntity
  8
Layer 1
 62
     7
420
 16777215
370
    35
100
AcDb2dPolyline
 66
     1
 10
0.0
 20
0.0
 30
0.0
  0
VERTEX
  5
4C5
330
4C4
100
AcDbEntity
  8
Layer 1
 62
     7
420
 16777215
370
    35
100
AcDbVertex
100
AcDb2dVertex
 10
-400.2391988065547
 20
-147.3828221489073
 30
0.0
  0
VERTEX
  5
4C6
330
4C4
100
AcDbEntity
  8
Layer 1
 62
     7
420
 16777215
370
    35
100
AcDbVertex
100
AcDb2dVertex
 10
-400.2391988065547
 20
-129.4624034307847
 30
0.0
  0
SEQEND
  5
4C7
330
4C4
100
AcDbEntity
  8
Layer 1
 62
     7
420
 16777215
370
    35
  0
POLYLINE
  5
4C8
330
41D
100
AcDbEntity
  8
Layer 1
 62
     7
420
 16777215
370
    35
100
AcDb2dPolyline
 66
     1
 10
0.0
 20
0.0
 30
0.0
  0
VERTEX
  5
4C9
330
4C8
100
AcDbEntity
  8
Layer 1
 62
     7
420
 16777215
370
    35
100
AcDbVertex
100
AcDb2dVertex
 10
-399.5755077268125
 20
-128.7987123510418
 30
0.0
  0
VERTEX
  5
4CA
330
4C8
100
AcDbEntity
  8
Layer 1
 62
     7
420
 16777215
370
    35
100
AcDbVertex
100
AcDb2dVertex
 10
-400.2391988065547
 20
-128.7987123510418
 30
0.0
  0
VERTEX
  5
4CB
330
4C8
100
AcDbEntity
  8
Layer 1
 62
     7
420
 16777215
370
    35
100
AcDbVertex
100
AcDb2dVertex
 10
-400.2391988065547
 20
-129.4624034307847
 30
0.0
  0
SEQEND
  5
4CC
330
4C8
100
AcDbEntity
  8
Layer 1
 62
     7
420
 16777215
370
    35
  0
POLYLINE
  5
4CD
330
41D
100
AcDbEntity
  8
Layer 1
 62
     7
420
 16777215
370
    35
100
AcDb2dPolyline
 66
     1
 10
0.0
 20
0.0
 30
0.0
  0
VERTEX
  5
4CE
330
4CD
100
AcDbEntity
  8
Layer 1
 62
     7
420
 16777215
370
    35
100
AcDbVertex
100
AcDb2dVertex
 10
-399.5755077268125
 20
-128.7987123510418
 30
0.0
  0
VERTEX
  5
4CF
330
4CD
100
AcDbEntity
  8
Layer 1
 62
     7
420
 16777215
370
    35
100
AcDbVertex
100
AcDb2dVertex
 10
-391.6108771854225
 20
-128.7987123510418
 30
0.0
  0
VERTEX
  5
4D0
330
4CD
100
AcDbEntity
  8
Layer 1
 62
     7
420
 16777215
370
    35
100
AcDbVertex
100
AcDb2dVertex
 10
-391.6108771854225
 20
-127.4712457954375
 30
0.0
  0
VERTEX
  5
4D1
330
4CD
100
AcDbEntity
  8
Layer 1
 62
     7
420
 16777215
370
    35
100
AcDbVertex
100
AcDb2dVertex
 10
-399.5755077268125
 20
-127.4712457954375
 30
0.0
  0
VERTEX
  5
4D2
330
4CD
100
AcDbEntity
  8
Layer 1
 62
     7
420
 16777215
370
    35
100
AcDbVertex
100
AcDb2dVertex
 10
-400.9029320843546
 20
-128.1349368751804
 30
0.0
  0
VERTEX
  5
4D3
330
4CD
100
AcDbEntity
  8
Layer 1
 62
     7
420
 16777215
370
    35
100
AcDbVertex
100
AcDb2dVertex
 10
-401.566665362158
 20
-129.4624034307847
 30
0.0
  0
VERTEX
  5
4D4
330
4CD
100
AcDbEntity
  8
Layer 1
 62
     7
420
 16777215
370
    35
100
AcDbVertex
100
AcDb2dVertex
 10
-401.566665362158
 20
-147.3828221489073
 30
0.0
  0
VERTEX
  5
4D5
330
4CD
100
AcDbEntity
  8
Layer 1
 62
     7
420
 16777215
370
    35
100
AcDbVertex
100
AcDb2dVertex
 10
-400.2391988065547
 20
-147.3828221489073
 30
0.0
  0
SEQEND
  5
4D6
330
4CD
100
AcDbEntity
  8
Layer 1
 62
     7
420
 16777215
370
    35
  0
POLYLINE
  5
4D7
330
41D
100
AcDbEntity
  8
Layer 1
 62
     7
420
 16777215
370
    35
100
AcDb2dPolyline
 66
     1
 10
0.0
 20
0.0
 30
0.0
  0
VERTEX
  5
4D8
330
4D7
100
AcDbEntity
  8
Layer 1
 62
     7
420
 16777215
370
    35
100
AcDbVertex
100
AcDb2dVertex
 10
774.5418649374228
 20
-129.4624034307847
 30
0.0
  0
VERTEX
  5
4D9
330
4D7
100
AcDbEntity
  8
Layer 1
 62
     7
420
 16777215
370
    35
100
AcDbVertex
100
AcDb2dVertex
 10
774.5418649374228
 20
-148.0465132286496
 30
0.0
  0
VERTEX
  5
4DA
330
4D7
100
AcDbEntity
  8
Layer 1
 62
     7
420
 16777215
370
    35
100
AcDbVertex
100
AcDb2dVertex
 10
775.869247096908
 20
-148.0465132286496
 30
0.0
  0
VERTEX
  5
4DB
330
4D7
100
AcDbEntity
  8
Layer 1
 62
     7
420
 16777215
370
    35
100
AcDbVertex
100
AcDb2dVertex
 10
775.869247096908
 20
-129.4624034307847
 30
0.0
  0
SEQEND
  5
4DC
330
4D7
100
AcDbEntity
  8
Layer 1
 62
     7
420
 16777215
370
    35
  0
POLYLINE
  5
4DD
330
41D
100
AcDbEntity
  8
Layer 1
 62
     7
420
 16777215
370
    35
100
AcDb2dPolyline
 66
     1
 10
0.0
 20
0.0
 30
0.0
  0
VERTEX
  5
4DE
330
4DD
100
AcDbEntity
  8
Layer 1
 62
     7
420
 16777215
370
    35
100
AcDbVertex
100
AcDb2dVertex
 10
773.8780050654406
 20
-128.1349368751804
 30
0.0
  0
VERTEX
  5
4DF
330
4DD
100
AcDbEntity
  8
Layer 1
 62
     7
420
 16777215
370
    35
100
AcDbVertex
100
AcDb2dVertex
 10
775.2055560171651
 20
-128.7987123510418
 30
0.0
  0
VERTEX
  5
4E0
330
4DD
100
AcDbEntity
  8
Layer 1
 62
     7
420
 16777215
370
    35
100
AcDbVertex
100
AcDb2dVertex
 10
775.869247096908
 20
-129.4624034307847
 30
0.0
  0
SEQEND
  5
4E1
330
4DD
100
AcDbEntity
  8
Layer 1
 62
     7
420
 16777215
370
    35
  0
POLYLINE
  5
4E2
330
41D
100
AcDbEntity
  8
Layer 1
 62
     7
420
 16777215
370
    35
100
AcDb2dPolyline
 66
     1
 10
0.0
 20
0.0
 30
0.0
  0
VERTEX
  5
4E3
330
4E2
100
AcDbEntity
  8
Layer 1
 62
     7
420
 16777215
370
    35
100
AcDbVertex
100
AcDb2dVertex
 10
773.8780050654406
 20
-128.1349368751804
 30
0.0
  0
VERTEX
  5
4E4
330
4E2
100
AcDbEntity
  8
Layer 1
 62
     7
420
 16777215
370
    35
100
AcDbVertex
100
AcDb2dVertex
 10
765.249683444312
 20
-128.1349368751804
 30
0.0
  0
VERTEX
  5
4E5
330
4E2
100
AcDbEntity
  8
Layer 1
 62
     7
420
 16777215
370
    35
100
AcDbVertex
100
AcDb2dVertex
 10
765.249683444312
 20
-129.4624034307847
 30
0.0
  0
VERTEX
  5
4E6
330
4E2
100
AcDbEntity
  8
Layer 1
 62
     7
420
 16777215
370
    35
100
AcDbVertex
100
AcDb2dVertex
 10
773.8780050654406
 20
-129.4624034307847
 30
0.0
  0
VERTEX
  5
4E7
330
4E2
100
AcDbEntity
  8
Layer 1
 62
     7
420
 16777215
370
    35
100
AcDbVertex
100
AcDb2dVertex
 10
774.5418649374228
 20
-129.4624034307847
 30
0.0
  0
SEQEND
  5
4E8
330
4E2
100
AcDbEntity
  8
Layer 1
 62
     7
420
 16777215
370
    35
  0
POLYLINE
  5
4E9
330
41D
100
AcDbEntity
  8
Layer 1
 62
     7
420
 16777215
370
    35
100
AcDb2dPolyline
 66
     1
 10
0.0
 20
0.0
 30
0.0
  0
VERTEX
  5
4EA
330
4E9
100
AcDbEntity
  8
Layer 1
 62
     7
420
 16777215
370
    35
100
AcDbVertex
100
AcDb2dVertex
 10
39.80587904005597
 20
-375.0380616776101
 30
0.0
  0
VERTEX
  5
4EB
330
4E9
100
AcDbEntity
  8
Layer 1
 62
     7
420
 16777215
370
    35
100
AcDbVertex
100
AcDb2dVertex
 10
309.2754289110446
 20
-375.0380616776101
 30
0.0
  0
SEQEND
  5
4EC
330
4E9
100
AcDbEntity
  8
Layer 1
 62
     7
420
 16777215
370
    35
  0
POLYLINE
  5
4ED
330
41D
100
AcDbEntity
  8
Layer 1
 62
     7
420
 16777215
370
    35
100
AcDb2dPolyline
 66
     1
 10
0.0
 20
0.0
 30
0.0
  0
VERTEX
  5
4EE
330
4ED
100
AcDbEntity
  8
Layer 1
 62
     7
420
 16777215
370
    35
100
AcDbVertex
100
AcDb2dVertex
 10
39.80587904005597
 20
-376.3655282332131
 30
0.0
  0
VERTEX
  5
4EF
330
4ED
100
AcDbEntity
  8
Layer 1
 62
     7
420
 16777215
370
    35
100
AcDbVertex
100
AcDb2dVertex
 10
309.2754289110446
 20
-376.3655282332131
 30
0.0
  0
SEQEND
  5
4F0
330
4ED
100
AcDbEntity
  8
Layer 1
 62
     7
420
 16777215
370
    35
  0
POLYLINE
  5
4F1
330
41D
100
AcDbEntity
  8
Layer 1
 62
     7
420
 16777215
370
    35
100
AcDb2dPolyline
 66
     1
 10
0.0
 20
0.0
 30
0.0
  0
VERTEX
  5
4F2
330
4F1
100
AcDbEntity
  8
Layer 1
 62
     7
420
 16777215
370
    35
100
AcDbVertex
100
AcDb2dVertex
 10
24.5403934331415
 20
-146.7190466730454
 30
0.0
  0
VERTEX
  5
4F3
330
4F1
100
AcDbEntity
  8
Layer 1
 62
     7
420
 16777215
370
    35
100
AcDbVertex
100
AcDb2dVertex
 10
24.5403934331415
 20
-360.4362671504369
 30
0.0
  0
VERTEX
  5
4F4
330
4F1
100
AcDbEntity
  8
Layer 1
 62
     7
420
 16777215
370
    35
100
AcDbVertex
100
AcDb2dVertex
 10
25.86777559262702
 20
-365.7460489767349
 30
0.0
  0
VERTEX
  5
4F5
330
4F1
100
AcDbEntity
  8
Layer 1
 62
     7
420
 16777215
370
    35
100
AcDbVertex
100
AcDb2dVertex
 10
29.18639978357813
 20
-371.0557464069151
 30
0.0
  0
VERTEX
  5
4F6
330
4F1
100
AcDbEntity
  8
Layer 1
 62
     7
420
 16777215
370
    35
100
AcDbVertex
100
AcDb2dVertex
 10
33.83240613401476
 20
-373.7106795181249
 30
0.0
  0
VERTEX
  5
4F7
330
4F1
100
AcDbEntity
  8
Layer 1
 62
     7
420
 16777215
370
    35
100
AcDbVertex
100
AcDb2dVertex
 10
39.80587904005597
 20
-375.0380616776101
 30
0.0
  0
SEQEND
  5
4F8
330
4F1
100
AcDbEntity
  8
Layer 1
 62
     7
420
 16777215
370
    35
  0
POLYLINE
  5
4F9
330
41D
100
AcDbEntity
  8
Layer 1
 62
     7
420
 16777215
370
    35
100
AcDb2dPolyline
 66
     1
 10
0.0
 20
0.0
 30
0.0
  0
VERTEX
  5
4FA
330
4F9
100
AcDbEntity
  8
Layer 1
 62
     7
420
 16777215
370
    35
100
AcDbVertex
100
AcDb2dVertex
 10
23.21292687753724
 20
-138.7544161316573
 30
0.0
  0
VERTEX
  5
4FB
330
4F9
100
AcDbEntity
  8
Layer 1
 62
     7
420
 16777215
370
    35
100
AcDbVertex
100
AcDb2dVertex
 10
23.21292687753724
 20
-360.4362671504369
 30
0.0
  0
VERTEX
  5
4FC
330
4F9
100
AcDbEntity
  8
Layer 1
 62
     7
420
 16777215
370
    35
100
AcDbVertex
100
AcDb2dVertex
 10
24.5403934331415
 20
-366.4097400564778
 30
0.0
  0
VERTEX
  5
4FD
330
4F9
100
AcDbEntity
  8
Layer 1
 62
     7
420
 16777215
370
    35
100
AcDbVertex
100
AcDb2dVertex
 10
27.85893322797387
 20
-371.719521882779
 30
0.0
  0
VERTEX
  5
4FE
330
4F9
100
AcDbEntity
  8
Layer 1
 62
     7
420
 16777215
370
    35
100
AcDbVertex
100
AcDb2dVertex
 10
33.16871505427248
 20
-375.0380616776101
 30
0.0
  0
VERTEX
  5
4FF
330
4F9
100
AcDbEntity
  8
Layer 1
 62
     7
420
 16777215
370
    35
100
AcDbVertex
100
AcDb2dVertex
 10
39.80587904005597
 20
-376.3655282332131
 30
0.0
  0
SEQEND
  5
500
330
4F9
100
AcDbEntity
  8
Layer 1
 62
     7
420
 16777215
370
    35
  0
POLYLINE
  5
501
330
41D
100
AcDbEntity
  8
Layer 1
 62
     7
420
 16777215
370
    35
100
AcDb2dPolyline
 66
     1
 10
0.0
 20
0.0
 30
0.0
  0
VERTEX
  5
502
330
501
100
AcDbEntity
  8
Layer 1
 62
     7
420
 16777215
370
    35
100
AcDbVertex
100
AcDb2dVertex
 10
324.5409145179588
 20
-360.4362671504369
 30
0.0
  0
VERTEX
  5
503
330
501
100
AcDbEntity
  8
Layer 1
 62
     7
420
 16777215
370
    35
100
AcDbVertex
100
AcDb2dVertex
 10
324.5409145179588
 20
-136.0995674165679
 30
0.0
  0
SEQEND
  5
504
330
501
100
AcDbEntity
  8
Layer 1
 62
     7
420
 16777215
370
    35
  0
POLYLINE
  5
505
330
41D
100
AcDbEntity
  8
Layer 1
 62
     7
420
 16777215
370
    35
100
AcDb2dPolyline
 66
     1
 10
0.0
 20
0.0
 30
0.0
  0
VERTEX
  5
506
330
505
100
AcDbEntity
  8
Layer 1
 62
     7
420
 16777215
370
    35
100
AcDbVertex
100
AcDb2dVertex
 10
309.2754289110446
 20
-375.0380616776101
 30
0.0
  0
VERTEX
  5
507
330
505
100
AcDbEntity
  8
Layer 1
 62
     7
420
 16777215
370
    35
100
AcDbVertex
100
AcDb2dVertex
 10
315.2489018170855
 20
-373.7106795181249
 30
0.0
  0
VERTEX
  5
508
330
505
100
AcDbEntity
  8
Layer 1
 62
     7
420
 16777215
370
    35
100
AcDbVertex
100
AcDb2dVertex
 10
319.8949081675221
 20
-371.0557464069151
 30
0.0
  0
VERTEX
  5
509
330
505
100
AcDbEntity
  8
Layer 1
 62
     7
420
 16777215
370
    35
100
AcDbVertex
100
AcDb2dVertex
 10
323.2135323584736
 20
-365.7460489767349
 30
0.0
  0
VERTEX
  5
50A
330
505
100
AcDbEntity
  8
Layer 1
 62
     7
420
 16777215
370
    35
100
AcDbVertex
100
AcDb2dVertex
 10
324.5409145179588
 20
-360.4362671504369
 30
0.0
  0
SEQEND
  5
50B
330
505
100
AcDbEntity
  8
Layer 1
 62
     7
420
 16777215
370
    35
  0
POLYLINE
  5
50C
330
41D
100
AcDbEntity
  8
Layer 1
 62
     7
420
 16777215
370
    35
100
AcDb2dPolyline
 66
     1
 10
0.0
 20
0.0
 30
0.0
  0
VERTEX
  5
50D
330
50C
100
AcDbEntity
  8
Layer 1
 62
     7
420
 16777215
370
    35
100
AcDbVertex
100
AcDb2dVertex
 10
325.8683810735631
 20
-360.4362671504369
 30
0.0
  0
VERTEX
  5
50E
330
50C
100
AcDbEntity
  8
Layer 1
 62
     7
420
 16777215
370
    35
100
AcDbVertex
100
AcDb2dVertex
 10
325.8683810735631
 20
-136.0995674165679
 30
0.0
  0
SEQEND
  5
50F
330
50C
100
AcDbEntity
  8
Layer 1
 62
     7
420
 16777215
370
    35
  0
POLYLINE
  5
510
330
41D
100
AcDbEntity
  8
Layer 1
 62
     7
420
 16777215
370
    35
100
AcDb2dPolyline
 66
     1
 10
0.0
 20
0.0
 30
0.0
  0
VERTEX
  5
511
330
510
100
AcDbEntity
  8
Layer 1
 62
     7
420
 16777215
370
    35
100
AcDbVertex
100
AcDb2dVertex
 10
309.2754289110446
 20
-376.3655282332131
 30
0.0
  0
VERTEX
  5
512
330
510
100
AcDbEntity
  8
Layer 1
 62
     7
420
 16777215
370
    35
100
AcDbVertex
100
AcDb2dVertex
 10
315.9125928968278
 20
-375.0380616776101
 30
0.0
  0
VERTEX
  5
513
330
510
100
AcDbEntity
  8
Layer 1
 62
     7
420
 16777215
370
    35
100
AcDbVertex
100
AcDb2dVertex
 10
321.2223747231264
 20
-371.719521882779
 30
0.0
  0
VERTEX
  5
514
330
510
100
AcDbEntity
  8
Layer 1
 62
     7
420
 16777215
370
    35
100
AcDbVertex
100
AcDb2dVertex
 10
324.5409145179588
 20
-366.4097400564778
 30
0.0
  0
VERTEX
  5
515
330
510
100
AcDbEntity
  8
Layer 1
 62
     7
420
 16777215
370
    35
100
AcDbVertex
100
AcDb2dVertex
 10
325.8683810735631
 20
-360.4362671504369
 30
0.0
  0
SEQEND
  5
516
330
510
100
AcDbEntity
  8
Layer 1
 62
     7
420
 16777215
370
    35
  0
POLYLINE
  5
517
330
41D
100
AcDbEntity
  8
Layer 1
 62
     7
420
 16777215
370
    35
100
AcDb2dPolyline
 66
     1
 10
0.0
 20
0.0
 30
0.0
  0
VERTEX
  5
518
330
517
100
AcDbEntity
  8
Layer 1
 62
     7
420
 16777215
370
    35
100
AcDbVertex
100
AcDb2dVertex
 10
201.7530853945461
 20
-381.675310059511
 30
0.0
  0
VERTEX
  5
519
330
517
100
AcDbEntity
  8
Layer 1
 62
     7
420
 16777215
370
    35
100
AcDbVertex
100
AcDb2dVertex
 10
146.6645314768116
 20
-381.675310059511
 30
0.0
  0
VERTEX
  5
51A
330
517
100
AcDbEntity
  8
Layer 1
 62
     7
420
 16777215
370
    35
100
AcDbVertex
100
AcDb2dVertex
 10
92.23958424270099
 20
-381.675310059511
 30
0.0
  0
SEQEND
  5
51B
330
517
100
AcDbEntity
  8
Layer 1
 62
     7
420
 16777215
370
    35
  0
POLYLINE
  5
51C
330
41D
100
AcDbEntity
  8
Layer 1
 62
     7
420
 16777215
370
    35
100
AcDb2dPolyline
 66
     1
 10
0.0
 20
0.0
 30
0.0
  0
VERTEX
  5
51D
330
51C
100
AcDbEntity
  8
Layer 1
 62
     7
420
 16777215
370
    35
100
AcDbVertex
100
AcDb2dVertex
 10
90.24842660735382
 20
-377.0292193129553
 30
0.0
  0
VERTEX
  5
51E
330
51C
100
AcDbEntity
  8
Layer 1
 62
     7
420
 16777215
370
    35
100
AcDbVertex
100
AcDb2dVertex
 10
89.58473552761089
 20
-375.7018371534708
 30
0.0
  0
VERTEX
  5
51F
330
51C
100
AcDbEntity
  8
Layer 1
 62
     7
420
 16777215
370
    35
100
AcDbVertex
100
AcDb2dVertex
 10
88.25726897200664
 20
-375.0380616776101
 30
0.0
  0
SEQEND
  5
520
330
51C
100
AcDbEntity
  8
Layer 1
 62
     7
420
 16777215
370
    35
  0
POLYLINE
  5
521
330
41D
100
AcDbEntity
  8
Layer 1
 62
     7
420
 16777215
370
    35
100
AcDb2dPolyline
 66
     1
 10
0.0
 20
0.0
 30
0.0
  0
VERTEX
  5
522
330
521
100
AcDbEntity
  8
Layer 1
 62
     7
420
 16777215
370
    35
100
AcDbVertex
100
AcDb2dVertex
 10
88.92104444786861
 20
-377.0292193129553
 30
0.0
  0
VERTEX
  5
523
330
521
100
AcDbEntity
  8
Layer 1
 62
     7
420
 16777215
370
    35
100
AcDbVertex
100
AcDb2dVertex
 10
88.25726897200664
 20
-376.3655282332131
 30
0.0
  0
SEQEND
  5
524
330
521
100
AcDbEntity
  8
Layer 1
 62
     7
420
 16777215
370
    35
  0
POLYLINE
  5
525
330
41D
100
AcDbEntity
  8
Layer 1
 62
     7
420
 16777215
370
    35
100
AcDb2dPolyline
 66
     1
 10
0.0
 20
0.0
 30
0.0
  0
VERTEX
  5
526
330
525
100
AcDbEntity
  8
Layer 1
 62
     7
420
 16777215
370
    35
100
AcDbVertex
100
AcDb2dVertex
 10
92.23958424270099
 20
-380.3478435039081
 30
0.0
  0
VERTEX
  5
527
330
525
100
AcDbEntity
  8
Layer 1
 62
     7
420
 16777215
370
    35
100
AcDbVertex
100
AcDb2dVertex
 10
146.6645314768116
 20
-380.3478435039081
 30
0.0
  0
SEQEND
  5
528
330
525
100
AcDbEntity
  8
Layer 1
 62
     7
420
 16777215
370
    35
  0
POLYLINE
  5
529
330
41D
100
AcDbEntity
  8
Layer 1
 62
     7
420
 16777215
370
    35
100
AcDb2dPolyline
 66
     1
 10
0.0
 20
0.0
 30
0.0
  0
VERTEX
  5
52A
330
529
100
AcDbEntity
  8
Layer 1
 62
     7
420
 16777215
370
    35
100
AcDbVertex
100
AcDb2dVertex
 10
201.7530853945461
 20
-381.675310059511
 30
0.0
  0
VERTEX
  5
52B
330
529
100
AcDbEntity
  8
Layer 1
 62
     7
420
 16777215
370
    35
100
AcDbVertex
100
AcDb2dVertex
 10
146.6645314768116
 20
-381.675310059511
 30
0.0
  0
SEQEND
  5
52C
330
529
100
AcDbEntity
  8
Layer 1
 62
     7
420
 16777215
370
    35
  0
POLYLINE
  5
52D
330
41D
100
AcDbEntity
  8
Layer 1
 62
     7
420
 16777215
370
    35
100
AcDb2dPolyline
 66
     1
 10
0.0
 20
0.0
 30
0.0
  0
VERTEX
  5
52E
330
52D
100
AcDbEntity
  8
Layer 1
 62
     7
420
 16777215
370
    35
100
AcDbVertex
100
AcDb2dVertex
 10
201.7530853945461
 20
-380.3478435039081
 30
0.0
  0
VERTEX
  5
52F
330
52D
100
AcDbEntity
  8
Layer 1
 62
     7
420
 16777215
370
    35
100
AcDbVertex
100
AcDb2dVertex
 10
146.6645314768116
 20
-380.3478435039081
 30
0.0
  0
SEQEND
  5
530
330
52D
100
AcDbEntity
  8
Layer 1
 62
     7
420
 16777215
370
    35
  0
POLYLINE
  5
531
330
41D
100
AcDbEntity
  8
Layer 1
 62
     7
420
 16777215
370
    35
100
AcDb2dPolyline
 66
     1
 10
0.0
 20
0.0
 30
0.0
  0
VERTEX
  5
532
330
531
100
AcDbEntity
  8
Layer 1
 62
     7
420
 16777215
370
    35
100
AcDbVertex
100
AcDb2dVertex
 10
191.7972972178115
 20
-381.675310059511
 30
0.0
  0
VERTEX
  5
533
330
531
100
AcDbEntity
  8
Layer 1
 62
     7
420
 16777215
370
    35
100
AcDbVertex
100
AcDb2dVertex
 10
191.7972972178115
 20
-380.3478435039081
 30
0.0
  0
SEQEND
  5
534
330
531
100
AcDbEntity
  8
Layer 1
 62
     7
420
 16777215
370
    35
  0
POLYLINE
  5
535
330
41D
100
AcDbEntity
  8
Layer 1
 62
     7
420
 16777215
370
    25
100
AcDb2dPolyline
 66
     1
 10
0.0
 20
0.0
 30
0.0
  0
VERTEX
  5
536
330
535
100
AcDbEntity
  8
Layer 1
 62
     7
420
 16777215
370
    25
100
AcDbVertex
100
AcDb2dVertex
 10
102.1953724194356
 20
-381.675310059511
 30
0.0
  0
VERTEX
  5
537
330
535
100
AcDbEntity
  8
Layer 1
 62
     7
420
 16777215
370
    25
100
AcDbVertex
100
AcDb2dVertex
 10
102.1953724194356
 20
-380.3478435039081
 30
0.0
  0
SEQEND
  5
538
330
535
100
AcDbEntity
  8
Layer 1
 62
     7
420
 16777215
370
    25
  0
POLYLINE
  5
539
330
41D
100
AcDbEntity
  8
Layer 1
 62
     7
420
 16777215
370
    35
100
AcDb2dPolyline
 66
     1
 10
0.0
 20
0.0
 30
0.0
  0
VERTEX
  5
53A
330
539
100
AcDbEntity
  8
Layer 1
 62
     7
420
 16777215
370
    35
100
AcDbVertex
100
AcDb2dVertex
 10
205.0717095854975
 20
-377.0292193129553
 30
0.0
  0
VERTEX
  5
53B
330
539
100
AcDbEntity
  8
Layer 1
 62
     7
420
 16777215
370
    35
100
AcDbVertex
100
AcDb2dVertex
 10
205.0717095854975
 20
-378.3566858685622
 30
0.0
  0
SEQEND
  5
53C
330
539
100
AcDbEntity
  8
Layer 1
 62
     7
420
 16777215
370
    35
  0
POLYLINE
  5
53D
330
41D
100
AcDbEntity
  8
Layer 1
 62
     7
420
 16777215
370
    35
100
AcDb2dPolyline
 66
     1
 10
0.0
 20
0.0
 30
0.0
  0
VERTEX
  5
53E
330
53D
100
AcDbEntity
  8
Layer 1
 62
     7
420
 16777215
370
    35
100
AcDbVertex
100
AcDb2dVertex
 10
203.7442430298933
 20
-377.0292193129553
 30
0.0
  0
VERTEX
  5
53F
330
53D
100
AcDbEntity
  8
Layer 1
 62
     7
420
 16777215
370
    35
100
AcDbVertex
100
AcDb2dVertex
 10
203.7442430298933
 20
-378.3566858685622
 30
0.0
  0
SEQEND
  5
540
330
53D
100
AcDbEntity
  8
Layer 1
 62
     7
420
 16777215
370
    35
  0
POLYLINE
  5
541
330
41D
100
AcDbEntity
  8
Layer 1
 62
     7
420
 16777215
370
    35
100
AcDb2dPolyline
 66
     1
 10
0.0
 20
0.0
 30
0.0
  0
VERTEX
  5
542
330
541
100
AcDbEntity
  8
Layer 1
 62
     7
420
 16777215
370
    35
100
AcDbVertex
100
AcDb2dVertex
 10
205.7354006652404
 20
-375.0380616776101
 30
0.0
  0
VERTEX
  5
543
330
541
100
AcDbEntity
  8
Layer 1
 62
     7
420
 16777215
370
    35
100
AcDbVertex
100
AcDb2dVertex
 10
204.4079341096355
 20
-375.7018371534708
 30
0.0
  0
VERTEX
  5
544
330
541
100
AcDbEntity
  8
Layer 1
 62
     7
420
 16777215
370
    35
100
AcDbVertex
100
AcDb2dVertex
 10
203.7442430298933
 20
-377.0292193129553
 30
0.0
  0
SEQEND
  5
545
330
541
100
AcDbEntity
  8
Layer 1
 62
     7
420
 16777215
370
    35
  0
POLYLINE
  5
546
330
41D
100
AcDbEntity
  8
Layer 1
 62
     7
420
 16777215
370
    35
100
AcDb2dPolyline
 66
     1
 10
0.0
 20
0.0
 30
0.0
  0
VERTEX
  5
547
330
546
100
AcDbEntity
  8
Layer 1
 62
     7
420
 16777215
370
    35
100
AcDbVertex
100
AcDb2dVertex
 10
205.7354006652404
 20
-376.3655282332131
 30
0.0
  0
VERTEX
  5
548
330
546
100
AcDbEntity
  8
Layer 1
 62
     7
420
 16777215
370
    35
100
AcDbVertex
100
AcDb2dVertex
 10
205.0717095854975
 20
-377.0292193129553
 30
0.0
  0
SEQEND
  5
549
330
546
100
AcDbEntity
  8
Layer 1
 62
     7
420
 16777215
370
    35
  0
POLYLINE
  5
54A
330
41D
100
AcDbEntity
  8
Layer 1
 62
     7
420
 16777215
370
    35
100
AcDb2dPolyline
 66
     1
 10
0.0
 20
0.0
 30
0.0
  0
VERTEX
  5
54B
330
54A
100
AcDbEntity
  8
Layer 1
 62
     7
420
 16777215
370
    35
100
AcDbVertex
100
AcDb2dVertex
 10
201.7530853945461
 20
-380.3478435039081
 30
0.0
  0
VERTEX
  5
54C
330
54A
100
AcDbEntity
  8
Layer 1
 62
     7
420
 16777215
370
    35
100
AcDbVertex
100
AcDb2dVertex
 10
203.0805519501503
 20
-379.6841524241651
 30
0.0
  0
VERTEX
  5
54D
330
54A
100
AcDbEntity
  8
Layer 1
 62
     7
420
 16777215
370
    35
100
AcDbVertex
100
AcDb2dVertex
 10
203.7442430298933
 20
-378.3566858685622
 30
0.0
  0
SEQEND
  5
54E
330
54A
100
AcDbEntity
  8
Layer 1
 62
     7
420
 16777215
370
    35
  0
POLYLINE
  5
54F
330
41D
100
AcDbEntity
  8
Layer 1
 62
     7
420
 16777215
370
    35
100
AcDb2dPolyline
 66
     1
 10
0.0
 20
0.0
 30
0.0
  0
VERTEX
  5
550
330
54F
100
AcDbEntity
  8
Layer 1
 62
     7
420
 16777215
370
    35
100
AcDbVertex
100
AcDb2dVertex
 10
201.7530853945461
 20
-381.675310059511
 30
0.0
  0
VERTEX
  5
551
330
54F
100
AcDbEntity
  8
Layer 1
 62
     7
420
 16777215
370
    35
100
AcDbVertex
100
AcDb2dVertex
 10
204.4079341096355
 20
-381.0115345836504
 30
0.0
  0
VERTEX
  5
552
330
54F
100
AcDbEntity
  8
Layer 1
 62
     7
420
 16777215
370
    35
100
AcDbVertex
100
AcDb2dVertex
 10
205.0717095854975
 20
-378.3566858685622
 30
0.0
  0
SEQEND
  5
553
330
54F
100
AcDbEntity
  8
Layer 1
 62
     7
420
 16777215
370
    35
  0
POLYLINE
  5
554
330
41D
100
AcDbEntity
  8
Layer 1
 62
     7
420
 16777215
370
    35
100
AcDb2dPolyline
 66
     1
 10
0.0
 20
0.0
 30
0.0
  0
VERTEX
  5
555
330
554
100
AcDbEntity
  8
Layer 1
 62
     7
420
 16777215
370
    35
100
AcDbVertex
100
AcDb2dVertex
 10
90.24842660735382
 20
-378.3566858685622
 30
0.0
  0
VERTEX
  5
556
330
554
100
AcDbEntity
  8
Layer 1
 62
     7
420
 16777215
370
    35
100
AcDbVertex
100
AcDb2dVertex
 10
90.24842660735382
 20
-379.6841524241651
 30
0.0
  0
VERTEX
  5
557
330
554
100
AcDbEntity
  8
Layer 1
 62
     7
420
 16777215
370
    35
100
AcDbVertex
100
AcDb2dVertex
 10
92.23958424270099
 20
-380.3478435039081
 30
0.0
  0
SEQEND
  5
558
330
554
100
AcDbEntity
  8
Layer 1
 62
     7
420
 16777215
370
    35
  0
POLYLINE
  5
559
330
41D
100
AcDbEntity
  8
Layer 1
 62
     7
420
 16777215
370
    35
100
AcDb2dPolyline
 66
     1
 10
0.0
 20
0.0
 30
0.0
  0
VERTEX
  5
55A
330
559
100
AcDbEntity
  8
Layer 1
 62
     7
420
 16777215
370
    35
100
AcDbVertex
100
AcDb2dVertex
 10
88.92104444786861
 20
-378.3566858685622
 30
0.0
  0
VERTEX
  5
55B
330
559
100
AcDbEntity
  8
Layer 1
 62
     7
420
 16777215
370
    35
100
AcDbVertex
100
AcDb2dVertex
 10
89.58473552761089
 20
-381.0115345836504
 30
0.0
  0
VERTEX
  5
55C
330
559
100
AcDbEntity
  8
Layer 1
 62
     7
420
 16777215
370
    35
100
AcDbVertex
100
AcDb2dVertex
 10
92.23958424270099
 20
-381.675310059511
 30
0.0
  0
SEQEND
  5
55D
330
559
100
AcDbEntity
  8
Layer 1
 62
     7
420
 16777215
370
    35
  0
POLYLINE
  5
55E
330
41D
100
AcDbEntity
  8
Layer 1
 62
     7
420
 16777215
370
    35
100
AcDb2dPolyline
 66
     1
 10
0.0
 20
0.0
 30
0.0
  0
VERTEX
  5
55F
330
55E
100
AcDbEntity
  8
Layer 1
 62
     7
420
 16777215
370
    35
100
AcDbVertex
100
AcDb2dVertex
 10
88.25726897200664
 20
-375.0380616776101
 30
0.0
  0
VERTEX
  5
560
330
55E
100
AcDbEntity
  8
Layer 1
 62
     7
420
 16777215
370
    35
100
AcDbVertex
100
AcDb2dVertex
 10
205.7354006652404
 20
-375.0380616776101
 30
0.0
  0
SEQEND
  5
561
330
55E
100
AcDbEntity
  8
Layer 1
 62
     7
420
 16777215
370
    35
  0
POLYLINE
  5
562
330
41D
100
AcDbEntity
  8
Layer 1
 62
     7
420
 16777215
370
    35
100
AcDb2dPolyline
 66
     1
 10
0.0
 20
0.0
 30
0.0
  0
VERTEX
  5
563
330
562
100
AcDbEntity
  8
Layer 1
 62
     7
420
 16777215
370
    35
100
AcDbVertex
100
AcDb2dVertex
 10
88.92104444786861
 20
-377.0292193129553
 30
0.0
  0
VERTEX
  5
564
330
562
100
AcDbEntity
  8
Layer 1
 62
     7
420
 16777215
370
    35
100
AcDbVertex
100
AcDb2dVertex
 10
88.92104444786861
 20
-378.3566858685622
 30
0.0
  0
SEQEND
  5
565
330
562
100
AcDbEntity
  8
Layer 1
 62
     7
420
 16777215
370
    35
  0
POLYLINE
  5
566
330
41D
100
AcDbEntity
  8
Layer 1
 62
     7
420
 16777215
370
    35
100
AcDb2dPolyline
 66
     1
 10
0.0
 20
0.0
 30
0.0
  0
VERTEX
  5
567
330
566
100
AcDbEntity
  8
Layer 1
 62
     7
420
 16777215
370
    35
100
AcDbVertex
100
AcDb2dVertex
 10
90.24842660735382
 20
-377.0292193129553
 30
0.0
  0
VERTEX
  5
568
330
566
100
AcDbEntity
  8
Layer 1
 62
     7
420
 16777215
370
    35
100
AcDbVertex
100
AcDb2dVertex
 10
90.24842660735382
 20
-378.3566858685622
 30
0.0
  0
SEQEND
  5
569
330
566
100
AcDbEntity
  8
Layer 1
 62
     7
420
 16777215
370
    35
  0
POLYLINE
  5
56A
330
41D
100
AcDbEntity
  8
Layer 1
 62
     7
420
 16777215
370
    35
100
AcDb2dPolyline
 66
     1
 10
0.0
 20
0.0
 30
0.0
  0
VERTEX
  5
56B
330
56A
100
AcDbEntity
  8
Layer 1
 62
     7
420
 16777215
370
    35
100
AcDbVertex
100
AcDb2dVertex
 10
24.5403934331415
 20
-139.4181916075193
 30
0.0
  0
VERTEX
  5
56C
330
56A
100
AcDbEntity
  8
Layer 1
 62
     7
420
 16777215
370
    35
100
AcDbVertex
100
AcDb2dVertex
 10
24.5403934331415
 20
-146.7190466730454
 30
0.0
  0
SEQEND
  5
56D
330
56A
100
AcDbEntity
  8
Layer 1
 62
     7
420
 16777215
370
    35
  0
POLYLINE
  5
56E
330
41D
100
AcDbEntity
  8
Layer 1
 62
     7
420
 16777215
370
     9
100
AcDb2dPolyline
 66
     1
 10
0.0
 20
0.0
 30
0.0
  0
VERTEX
  5
56F
330
56E
100
AcDbEntity
  8
Layer 1
 62
     7
420
 16777215
370
     9
100
AcDbVertex
100
AcDb2dVertex
 10
-360.416130495735
 20
-369.064673167687
 30
0.0
  0
VERTEX
  5
570
330
56E
100
AcDbEntity
  8
Layer 1
 62
     7
420
 16777215
370
     9
100
AcDbVertex
100
AcDb2dVertex
 10
-361.7435548532772
 20
-370.3920553271728
 30
0.0
  0
SEQEND
  5
571
330
56E
100
AcDbEntity
  8
Layer 1
 62
     7
420
 16777215
370
     9
  0
POLYLINE
  5
572
330
41D
100
AcDbEntity
  8
Layer 1
 62
     7
420
 16777215
370
    35
100
AcDb2dPolyline
 66
     1
 10
0.0
 20
0.0
 30
0.0
  0
VERTEX
  5
573
330
572
100
AcDbEntity
  8
Layer 1
 62
     7
420
 16777215
370
    35
100
AcDbVertex
100
AcDb2dVertex
 10
-9.309286367756668
 20
-361.7637337060438
 30
0.0
  0
VERTEX
  5
574
330
572
100
AcDbEntity
  8
Layer 1
 62
     7
420
 16777215
370
    35
100
AcDbVertex
100
AcDb2dVertex
 10
23.21292687753724
 20
-361.7637337060438
 30
0.0
  0
VERTEX
  5
575
330
572
100
AcDbEntity
  8
Layer 1
 62
     7
420
 16777215
370
    35
100
AcDbVertex
100
AcDb2dVertex
 10
23.21292687753724
 20
-344.5070904637811
 30
0.0
  0
VERTEX
  5
576
330
572
100
AcDbEntity
  8
Layer 1
 62
     7
420
 16777215
370
    35
100
AcDbVertex
100
AcDb2dVertex
 10
-9.309286367756668
 20
-344.5070904637811
 30
0.0
  0
VERTEX
  5
577
330
572
100
AcDbEntity
  8
Layer 1
 62
     7
420
 16777215
370
    35
100
AcDbVertex
100
AcDb2dVertex
 10
-9.309286367756668
 20
-361.7637337060438
 30
0.0
  0
SEQEND
  5
578
330
572
100
AcDbEntity
  8
Layer 1
 62
     7
420
 16777215
370
    35
  0
POLYLINE
  5
579
330
41D
100
AcDbEntity
  8
Layer 1
 62
     7
420
 16777215
370
    35
100
AcDb2dPolyline
 66
     1
 10
0.0
 20
0.0
 30
0.0
  0
VERTEX
  5
57A
330
579
100
AcDbEntity
  8
Layer 1
 62
     7
420
 16777215
370
    35
100
AcDbVertex
100
AcDb2dVertex
 10
779.8515623676024
 20
-126.1437792398332
 30
0.0
  0
VERTEX
  5
57B
330
579
100
AcDbEntity
  8
Layer 1
 62
     7
420
 16777215
370
    35
100
AcDbVertex
100
AcDb2dVertex
 10
787.1525018292463
 20
-130.7898699863889
 30
0.0
  0
SEQEND
  5
57C
330
579
100
AcDbEntity
  8
Layer 1
 62
     7
420
 16777215
370
    35
  0
POLYLINE
  5
57D
330
41D
100
AcDbEntity
  8
Layer 1
 62
     7
420
 16777215
370
    35
100
AcDb2dPolyline
 66
     1
 10
0.0
 20
0.0
 30
0.0
  0
VERTEX
  5
57E
330
57D
100
AcDbEntity
  8
Layer 1
 62
     7
420
 16777215
370
    35
100
AcDbVertex
100
AcDb2dVertex
 10
779.8515623676024
 20
-127.4712457954375
 30
0.0
  0
VERTEX
  5
57F
330
57D
100
AcDbEntity
  8
Layer 1
 62
     7
420
 16777215
370
    35
100
AcDbVertex
100
AcDb2dVertex
 10
786.488810749504
 20
-131.4535610661312
 30
0.0
  0
VERTEX
  5
580
330
57D
100
AcDbEntity
  8
Layer 1
 62
     7
420
 16777215
370
    35
100
AcDbVertex
100
AcDb2dVertex
 10
787.1525018292463
 20
-130.7898699863889
 30
0.0
  0
SEQEND
  5
581
330
57D
100
AcDbEntity
  8
Layer 1
 62
     7
420
 16777215
370
    35
  0
POLYLINE
  5
582
330
41D
100
AcDbEntity
  8
Layer 1
 62
     7
420
 16777215
370
    35
100
AcDb2dPolyline
 66
     1
 10
0.0
 20
0.0
 30
0.0
  0
VERTEX
  5
583
330
582
100
AcDbEntity
  8
Layer 1
 62
     7
420
 16777215
370
    35
100
AcDbVertex
100
AcDb2dVertex
 10
-406.2126717125953
 20
-126.1437792398332
 30
0.0
  0
VERTEX
  5
584
330
582
100
AcDbEntity
  8
Layer 1
 62
     7
420
 16777215
370
    35
100
AcDbVertex
100
AcDb2dVertex
 10
-412.8498356983785
 20
-130.7898699863889
 30
0.0
  0
SEQEND
  5
585
330
582
100
AcDbEntity
  8
Layer 1
 62
     7
420
 16777215
370
    35
  0
POLYLINE
  5
586
330
41D
100
AcDbEntity
  8
Layer 1
 62
     7
420
 16777215
370
    35
100
AcDb2dPolyline
 66
     1
 10
0.0
 20
0.0
 30
0.0
  0
VERTEX
  5
587
330
586
100
AcDbEntity
  8
Layer 1
 62
     7
420
 16777215
370
    35
100
AcDbVertex
100
AcDb2dVertex
 10
-405.5489384347922
 20
-127.4712457954375
 30
0.0
  0
VERTEX
  5
588
330
586
100
AcDbEntity
  8
Layer 1
 62
     7
420
 16777215
370
    35
100
AcDbVertex
100
AcDb2dVertex
 10
-412.1861446186359
 20
-131.4535610661312
 30
0.0
  0
VERTEX
  5
589
330
586
100
AcDbEntity
  8
Layer 1
 62
     7
420
 16777215
370
    35
100
AcDbVertex
100
AcDb2dVertex
 10
-412.8498356983785
 20
-130.7898699863889
 30
0.0
  0
SEQEND
  5
58A
330
586
100
AcDbEntity
  8
Layer 1
 62
     7
420
 16777215
370
    35
  0
POLYLINE
  5
58B
330
41D
100
AcDbEntity
  8
Layer 1
 62
     7
420
 16777215
370
    35
100
AcDb2dPolyline
 66
     1
 10
0.0
 20
0.0
 30
0.0
  0
VERTEX
  5
58C
330
58B
100
AcDbEntity
  8
Layer 1
 62
     7
420
 16777215
370
    35
100
AcDbVertex
100
AcDb2dVertex
 10
-388.2922951925312
 20
-128.1349368751804
 30
0.0
  0
VERTEX
  5
58D
330
58B
100
AcDbEntity
  8
Layer 1
 62
     7
420
 16777215
370
    35
100
AcDbVertex
100
AcDb2dVertex
 10
-385.6374042793822
 20
-140.0818826872622
 30
0.0
  0
VERTEX
  5
58E
330
58B
100
AcDbEntity
  8
Layer 1
 62
     7
420
 16777215
370
    35
100
AcDbVertex
100
AcDb2dVertex
 10
-384.9737131996396
 20
-140.7455737670045
 30
0.0
  0
VERTEX
  5
58F
330
58B
100
AcDbEntity
  8
Layer 1
 62
     7
420
 16777215
370
    35
100
AcDbVertex
100
AcDb2dVertex
 10
-383.6462466440363
 20
-141.4093492428665
 30
0.0
  0
SEQEND
  5
590
330
58B
100
AcDbEntity
  8
Layer 1
 62
     7
420
 16777215
370
    35
  0
POLYLINE
  5
591
330
41D
100
AcDbEntity
  8
Layer 1
 62
     7
420
 16777215
370
    35
100
AcDb2dPolyline
 66
     1
 10
0.0
 20
0.0
 30
0.0
  0
VERTEX
  5
592
330
591
100
AcDbEntity
  8
Layer 1
 62
     7
420
 16777215
370
    35
100
AcDbVertex
100
AcDb2dVertex
 10
-389.6197195500769
 20
-128.7987123510418
 30
0.0
  0
VERTEX
  5
593
330
591
100
AcDbEntity
  8
Layer 1
 62
     7
420
 16777215
370
    35
100
AcDbVertex
100
AcDb2dVertex
 10
-386.3011375571853
 20
-141.4093492428665
 30
0.0
  0
VERTEX
  5
594
330
591
100
AcDbEntity
  8
Layer 1
 62
     7
420
 16777215
370
    35
100
AcDbVertex
100
AcDb2dVertex
 10
-385.6374042793822
 20
-142.0730403226094
 30
0.0
  0
VERTEX
  5
595
330
591
100
AcDbEntity
  8
Layer 1
 62
     7
420
 16777215
370
    35
100
AcDbVertex
100
AcDb2dVertex
 10
-384.3099799218362
 20
-142.7367314023516
 30
0.0
  0
SEQEND
  5
596
330
591
100
AcDbEntity
  8
Layer 1
 62
     7
420
 16777215
370
    35
  0
POLYLINE
  5
597
330
41D
100
AcDbEntity
  8
Layer 1
 62
     7
420
 16777215
370
     9
100
AcDb2dPolyline
 66
     1
 10
0.0
 20
0.0
 30
0.0
  0
VERTEX
  5
598
330
597
100
AcDbEntity
  8
Layer 1
 62
     7
420
 16777215
370
     9
100
AcDbVertex
100
AcDb2dVertex
 10
462.5942292482857
 20
-137.4270339721727
 30
0.0
  0
VERTEX
  5
599
330
597
100
AcDbEntity
  8
Layer 1
 62
     7
420
 16777215
370
     9
100
AcDbVertex
100
AcDb2dVertex
 10
462.5942292482857
 20
-135.4358763368256
 30
0.0
  0
SEQEND
  5
59A
330
597
100
AcDbEntity
  8
Layer 1
 62
     7
420
 16777215
370
     9
  0
POLYLINE
  5
59B
330
41D
100
AcDbEntity
  8
Layer 1
 62
     7
420
 16777215
370
     9
100
AcDb2dPolyline
 66
     1
 10
0.0
 20
0.0
 30
0.0
  0
VERTEX
  5
59C
330
59B
100
AcDbEntity
  8
Layer 1
 62
     7
420
 16777215
370
     9
100
AcDbVertex
100
AcDb2dVertex
 10
327.8595387089102
 20
-272.8254999874095
 30
0.0
  0
VERTEX
  5
59D
330
59B
100
AcDbEntity
  8
Layer 1
 62
     7
420
 16777215
370
     9
100
AcDbVertex
100
AcDb2dVertex
 10
325.8683810735631
 20
-272.8254999874095
 30
0.0
  0
SEQEND
  5
59E
330
59B
100
AcDbEntity
  8
Layer 1
 62
     7
420
 16777215
370
     9
  0
MTEXT
  5
59F
330
41D
100
AcDbEntity
  8
Layer 1
 62
     7
420
 16777215
100
AcDbMText
 10
-500.2583966170144
 20
-271.4244679620138
 30
0.0
 40
20.77763607929859
 41
0.0
 46
0.0
 71
     7
 72
     1
  1
\fMyriad Pro|b0|i0|c0|p34;\W1;200
 11
6.123233995736766E-17
 21
1.0
 31
0.0
 73
     1
 44
1.0
  0
POLYLINE
  5
5A0
330
41D
100
AcDbEntity
  8
Layer 1
 62
     7
420
 16777215
370
    20
100
AcDb2dPolyline
 66
     1
 10
0.0
 20
0.0
 30
0.0
  0
VERTEX
  5
5A1
330
5A0
100
AcDbEntity
  8
Layer 1
 62
     7
420
 16777215
370
    20
100
AcDbVertex
100
AcDb2dVertex
 10
-432.6145419834289
 20
-124.29429157982
 30
0.0
  0
VERTEX
  5
5A2
330
5A0
100
AcDbEntity
  8
Layer 1
 62
     7
420
 16777215
370
    20
100
AcDbVertex
100
AcDb2dVertex
 10
-516.6282316305834
 20
-124.2942915992686
 30
0.0
  0
SEQEND
  5
5A3
330
5A0
100
AcDbEntity
  8
Layer 1
 62
     7
420
 16777215
370
    20
  0
POLYLINE
  5
5A4
330
41D
100
AcDbEntity
  8
Layer 1
 62
     7
420
 16777215
370
    20
100
AcDb2dPolyline
 66
     1
 10
0.0
 20
0.0
 30
0.0
  0
VERTEX
  5
5A5
330
5A4
100
AcDbEntity
  8
Layer 1
 62
     7
420
 16777215
370
    20
100
AcDbVertex
100
AcDb2dVertex
 10
-432.6145419834289
 20
-374.3582024699225
 30
0.0
  0
VERTEX
  5
5A6
330
5A4
100
AcDbEntity
  8
Layer 1
 62
     7
420
 16777215
370
    20
100
AcDbVertex
100
AcDb2dVertex
 10
-516.6282316013309
 20
-374.3582024870007
 30
0.0
  0
SEQEND
  5
5A7
330
5A4
100
AcDbEntity
  8
Layer 1
 62
     7
420
 16777215
370
    20
  0
INSERT
  5
5A9
330
41D
100
AcDbEntity
  8
Layer 1
100
AcDbBlockReference
  2
block 54
 10
0.0
 20
0.0
 30
0.0
  0
INSERT
  5
5BC
330
41D
100
AcDbEntity
  8
Layer 1
100
AcDbBlockReference
  2
block 56
 10
0.0
 20
0.0
 30
0.0
  0
POLYLINE
  5
5CE
330
41D
100
AcDbEntity
  8
Layer 1
 62
     7
420
 16777215
370
    25
100
AcDb2dPolyline
 66
     1
 10
0.0
 20
0.0
 30
0.0
  0
VERTEX
  5
5CF
330
5CE
100
AcDbEntity
  8
Layer 1
 62
     7
420
 16777215
370
    25
100
AcDbVertex
100
AcDb2dVertex
 10
787.8851741961704
 20
-104.4270276702462
 30
0.0
  0
VERTEX
  5
5D0
330
5CE
100
AcDbEntity
  8
Layer 1
 62
     7
420
 16777215
370
    25
100
AcDbVertex
100
AcDb2dVertex
 10
805.641389684246
 20
-104.4270276702462
 30
0.0
  0
SEQEND
  5
5D1
330
5CE
100
AcDbEntity
  8
Layer 1
 62
     7
420
 16777215
370
    25
  0
POLYLINE
  5
5D2
330
41D
100
AcDbEntity
  8
Layer 1
 62
     7
420
 16777215
370
    25
100
AcDb2dPolyline
 66
     1
 10
0.0
 20
0.0
 30
0.0
  0
VERTEX
  5
5D3
330
5D2
100
AcDbEntity
  8
Layer 1
 62
     7
420
 16777215
370
    25
100
AcDbVertex
100
AcDb2dVertex
 10
780.8418956726294
 20
-122.0350747128227
 30
0.0
  0
VERTEX
  5
5D4
330
5D2
100
AcDbEntity
  8
Layer 1
 62
     7
420
 16777215
370
    25
100
AcDbVertex
100
AcDb2dVertex
 10
780.8418956726294
 20
-104.4270276702462
 30
0.0
  0
SEQEND
  5
5D5
330
5D2
100
AcDbEntity
  8
Layer 1
 62
     7
420
 16777215
370
    25
  0
POLYLINE
  5
5D6
330
41D
100
AcDbEntity
  8
Layer 1
 62
     7
420
 16777215
370
    25
100
AcDb2dPolyline
 66
     1
 10
0.0
 20
0.0
 30
0.0
  0
VERTEX
  5
5D7
330
5D6
100
AcDbEntity
  8
Layer 1
 62
     7
420
 16777215
370
    25
100
AcDbVertex
100
AcDb2dVertex
 10
787.8851741961704
 20
-122.0350747128227
 30
0.0
  0
VERTEX
  5
5D8
330
5D6
100
AcDbEntity
  8
Layer 1
 62
     7
420
 16777215
370
    25
100
AcDbVertex
100
AcDb2dVertex
 10
787.8851741961704
 20
-104.4270276702462
 30
0.0
  0
SEQEND
  5
5D9
330
5D6
100
AcDbEntity
  8
Layer 1
 62
     7
420
 16777215
370
    25
  0
MTEXT
  5
5DA
330
41D
100
AcDbEntity
  8
Layer 1
 62
     7
420
 16777215
100
AcDbMText
 10
789.8752578456085
 20
-102.1543050722533
 30
0.0
 40
20.77763607929859
 41
0.0
 46
0.0
 71
     7
 72
     1
  1
\fMyriad Pro|b0|i0|c0|p34;\W1;7
 73
     1
 44
1.0
  0
INSERT
  5
5DC
330
41D
100
AcDbEntity
  8
Layer 1
100
AcDbBlockReference
  2
block 58
 10
0.0
 20
0.0
 30
0.0
  0
INSERT
  5
5EA
330
41D
100
AcDbEntity
  8
Layer 1
100
AcDbBlockReference
  2
block 60
 10
0.0
 20
0.0
 30
0.0
  0
ENDBLK
  5
420
330
41D
100
AcDbEntity
  8
0
100
AcDbBlockEnd
  0
BLOCK
  5
5AA
330
5A8
100
AcDbEntity
  8
0
100
AcDbBlockBegin
  2
block 54
 70
     0
 10
0.0
 20
0.0
 30
0.0
  3
block 54
  1

  0
POLYLINE
  5
5AC
330
5A8
100
AcDbEntity
  8
Layer 1
 62
     7
420
 16777215
370
    20
100
AcDb2dPolyline
 66
     1
 10
0.0
 20
0.0
 30
0.0
  0
VERTEX
  5
5AD
330
5AC
100
AcDbEntity
  8
Layer 1
 62
     7
420
 16777215
370
    20
100
AcDbVertex
100
AcDb2dVertex
 10
-508.4109251315668
 20
-138.6319051352631
 30
0.0
  0
VERTEX
  5
5AE
330
5AC
100
AcDbEntity
  8
Layer 1
 62
     7
420
 16777215
370
    20
100
AcDbVertex
100
AcDb2dVertex
 10
-508.4109251315668
 20
-214.6779761972233
 30
0.0
  0
SEQEND
  5
5AF
330
5AC
100
AcDbEntity
  8
Layer 1
 62
     7
420
 16777215
370
    20
  0
INSERT
  5
5B1
330
5A8
100
AcDbEntity
  8
Layer 1
100
AcDbBlockReference
  2
block 55
 10
0.0
 20
0.0
 30
0.0
  0
ENDBLK
  5
5AB
330
5A8
100
AcDbEntity
  8
0
100
AcDbBlockEnd
  0
BLOCK
  5
5B2
330
5B0
100
AcDbEntity
  8
0
100
AcDbBlockBegin
  2
block 55
 70
     0
 10
0.0
 20
0.0
 30
0.0
  3
block 55
  1

  0
POLYLINE
  5
5B4
330
5B0
100
AcDbEntity
  8
Layer 1
370
     0
100
AcDb2dPolyline
 66
     1
 10
0.0
 20
0.0
 30
0.0
  0
VERTEX
  5
5B5
330
5B4
100
AcDbEntity
  8
Layer 1
370
     0
100
AcDbVertex
100
AcDb2dVertex
 10
-512.4390062112632
 20
-141.3791509544846
 30
0.0
  0
VERTEX
  5
5B6
330
5B4
100
AcDbEntity
  8
Layer 1
370
     0
100
AcDbVertex
100
AcDb2dVertex
 10
-508.4109251315668
 20
-126.3487086078724
 30
0.0
  0
VERTEX
  5
5B7
330
5B4
100
AcDbEntity
  8
Layer 1
370
     0
100
AcDbVertex
100
AcDb2dVertex
 10
-504.3828627101602
 20
-141.3791509544846
 30
0.0
  0
VERTEX
  5
5B8
330
5B4
100
AcDbEntity
  8
Layer 1
370
     0
100
AcDbVertex
100
AcDb2dVertex
 10
-512.4390062112632
 20
-141.3791509544846
 30
0.0
  0
SEQEND
  5
5BA
330
5B4
100
AcDbEntity
  8
Layer 1
370
     0
  0
HATCH
  5
5B9
330
5B0
100
AcDbEntity
  8
Layer 1
 62
     7
420
 16777215
100
AcDbHatch
 10
0.0
 20
0.0
 30
0.0
210
0.0
220
0.0
230
1.0
  2
SOLID
 70
     1
 71
     0
 91
        1
 92
        1
 93
        3
 72
     1
 10
-512.4390062112632
 20
-141.3791509544846
 11
-508.4109251315668
 21
-126.3487086078724
 72
     1
 10
-508.4109251315668
 20
-126.3487086078724
 11
-504.3828627101602
 21
-141.3791509544846
 72
     1
 10
-504.3828627101602
 20
-141.3791509544846
 11
-512.4390062112632
 21
-141.3791509544846
 97
        0
 75
     2
 76
     1
 98
        0
  0
ENDBLK
  5
5B3
330
5B0
100
AcDbEntity
  8
0
100
AcDbBlockEnd
  0
BLOCK
  5
5BD
330
5BB
100
AcDbEntity
  8
0
100
AcDbBlockBegin
  2
block 56
 70
     0
 10
0.0
 20
0.0
 30
0.0
  3
block 56
  1

  0
POLYLINE
  5
5BF
330
5BB
100
AcDbEntity
  8
Layer 1
 62
     7
420
 16777215
370
    20
100
AcDb2dPolyline
 66
     1
 10
0.0
 20
0.0
 30
0.0
  0
VERTEX
  5
5C0
330
5BF
100
AcDbEntity
  8
Layer 1
 62
     7
420
 16777215
370
    20
100
AcDbVertex
100
AcDb2dVertex
 10
-508.4109251315668
 20
-360.0098766453023
 30
0.0
  0
VERTEX
  5
5C1
330
5BF
100
AcDbEntity
  8
Layer 1
 62
     7
420
 16777215
370
    20
100
AcDbVertex
100
AcDb2dVertex
 10
-508.4109251315668
 20
-277.4478288398669
 30
0.0
  0
SEQEND
  5
5C2
330
5BF
100
AcDbEntity
  8
Layer 1
 62
     7
420
 16777215
370
    20
  0
INSERT
  5
5C4
330
5BB
100
AcDbEntity
  8
Layer 1
100
AcDbBlockReference
  2
block 57
 10
0.0
 20
0.0
 30
0.0
  0
ENDBLK
  5
5BE
330
5BB
100
AcDbEntity
  8
0
100
AcDbBlockEnd
  0
BLOCK
  5
5C5
330
5C3
100
AcDbEntity
  8
0
100
AcDbBlockBegin
  2
block 57
 70
     0
 10
0.0
 20
0.0
 30
0.0
  3
block 57
  1

  0
POLYLINE
  5
5C7
330
5C3
100
AcDbEntity
  8
Layer 1
370
     0
100
AcDb2dPolyline
 66
     1
 10
0.0
 20
0.0
 30
0.0
  0
VERTEX
  5
5C8
330
5C7
100
AcDbEntity
  8
Layer 1
370
     0
100
AcDbVertex
100
AcDb2dVertex
 10
-504.3828627101602
 20
-357.2627054592186
 30
0.0
  0
VERTEX
  5
5C9
330
5C7
100
AcDbEntity
  8
Layer 1
370
     0
100
AcDbVertex
100
AcDb2dVertex
 10
-508.4109251315668
 20
-372.2931478058315
 30
0.0
  0
VERTEX
  5
5CA
330
5C7
100
AcDbEntity
  8
Layer 1
370
     0
100
AcDbVertex
100
AcDb2dVertex
 10
-512.4390062112632
 20
-357.2627054592186
 30
0.0
  0
VERTEX
  5
5CB
330
5C7
100
AcDbEntity
  8
Layer 1
370
     0
100
AcDbVertex
100
AcDb2dVertex
 10
-504.3828627101602
 20
-357.2627054592186
 30
0.0
  0
SEQEND
  5
5CD
330
5C7
100
AcDbEntity
  8
Layer 1
370
     0
  0
HATCH
  5
5CC
330
5C3
100
AcDbEntity
  8
Layer 1
 62
     7
420
 16777215
100
AcDbHatch
 10
0.0
 20
0.0
 30
0.0
210
0.0
220
0.0
230
1.0
  2
SOLID
 70
     1
 71
     0
 91
        1
 92
        1
 93
        3
 72
     1
 10
-504.3828627101602
 20
-357.2627054592186
 11
-508.4109251315668
 21
-372.2931478058315
 72
     1
 10
-508.4109251315668
 20
-372.2931478058315
 11
-512.4390062112632
 21
-357.2627054592186
 72
     1
 10
-512.4390062112632
 20
-357.2627054592186
 11
-504.3828627101602
 21
-357.2627054592186
 97
        0
 75
     2
 76
     1
 98
        0
  0
ENDBLK
  5
5C6
330
5C3
100
AcDbEntity
  8
0
100
AcDbBlockEnd
  0
BLOCK
  5
5DD
330
5DB
100
AcDbEntity
  8
0
100
AcDbBlockBegin
  2
block 58
 70
     0
 10
0.0
 20
0.0
 30
0.0
  3
block 58
  1

  0
POLYLINE
  5
5DF
330
5DB
100
AcDbEntity
  8
Layer 1
 62
     7
420
 16777215
370
    20
100
AcDb2dPolyline
 66
     1
 10
0.0
 20
0.0
 30
0.0
  0
VERTEX
  5
5E0
330
5DF
100
AcDbEntity
  8
Layer 1
 62
     7
420
 16777215
370
    20
100
AcDbVertex
100
AcDb2dVertex
 10
786.5191745087808
 20
-104.8749771869004
 30
0.0
  0
VERTEX
  5
5E1
330
5DF
100
AcDbEntity
  8
Layer 1
 62
     7
420
 16777215
370
    20
100
AcDbVertex
100
AcDb2dVertex
 10
783.6221767267867
 20
-104.8749771869004
 30
0.0
  0
SEQEND
  5
5E2
330
5DF
100
AcDbEntity
  8
Layer 1
 62
     7
420
 16777215
370
    20
  0
INSERT
  5
5E4
330
5DB
100
AcDbEntity
  8
Layer 1
100
AcDbBlockReference
  2
block 59
 10
0.0
 20
0.0
 30
0.0
  0
ENDBLK
  5
5DE
330
5DB
100
AcDbEntity
  8
0
100
AcDbBlockEnd
  0
BLOCK
  5
5E5
330
5E3
100
AcDbEntity
  8
0
100
AcDbBlockBegin
  2
block 59
 70
     0
 10
0.0
 20
0.0
 30
0.0
  3
block 59
  1

  0
SPLINE
  5
5E7
330
5E3
100
AcDbEntity
  8
Layer 1
370
     0
100
AcDbSpline
210
0.0
220
0.0
230
1.0
 70
    11
 71
     3
 72
    23
 73
    19
 74
     0
 42
0.0000000001
 43
0.0000000001
 12
1.0
 22
0.0
 32
0.0
 13
1.0
 23
0.0
 33
0.0
 40
0.0
 40
0.0
 40
0.0
 40
0.0
 40
1.0
 40
1.0
 40
1.0
 40
2.0
 40
2.0
 40
2.0
 40
3.0
 40
3.0
 40
3.0
 40
4.0
 40
4.0
 40
4.0
 40
5.0
 40
5.0
 40
5.0
 40
6.0
 40
6.0
 40
6.0
 40
6.0
 10
786.646350459248
 20
-104.5429832248117
 30
0.0
 10
786.646350459248
 20
-104.5429832248117
 30
0.0
 10
786.6463521307585
 20
-104.5429836727613
 30
0.0
 10
786.6463521307585
 20
-104.5429836727613
 30
0.0
 10
786.9860041509104
 20
-104.6340073986464
 30
0.0
 10
786.9860052672723
 20
-105.1159511407759
 30
0.0
 10
786.6463536688096
 20
-105.2069764401789
 30
0.0
 10
786.6463536688096
 20
-105.2069764401789
 30
0.0
 10
786.6463519973024
 20
-105.2069768881368
 30
0.0
 10
786.6463519973024
 20
-105.2069768881368
 30
0.0
 10
786.4280494492139
 20
-105.2654811168535
 30
0.0
 10
786.2136665562047
 20
-105.1009867884922
 30
0.0
 10
786.2136665562047
 20
-104.8749807105218
 30
0.0
 10
786.2136665562047
 20
-104.8749807105218
 30
0.0
 10
786.2136665562047
 20
-104.874979814615
 30
0.0
 10
786.2136665562047
 20
-104.874979814615
 30
0.0
 10
786.2136665562047
 20
-104.6489743965076
 30
0.0
 10
786.4280482775009
 20
-104.4844801782445
 30
0.0
 10
786.646350459248
 20
-104.5429832248117
 30
0.0
  0
HATCH
  5
5E8
330
5E3
100
AcDbEntity
  8
Layer 1
 62
     7
420
 16777215
100
AcDbHatch
 10
0.0
 20
0.0
 30
0.0
210
0.0
220
0.0
230
1.0
  2
SOLID
 70
     1
 71
     0
 91
        1
 92
        1
 93
        1
 72
     4
 94
        3
 73
     0
 74
     1
 95
       23
 96
       19
 40
0.0
 40
0.0
 40
0.0
 40
0.0
 40
1.0
 40
1.0
 40
1.0
 40
2.0
 40
2.0
 40
2.0
 40
3.0
 40
3.0
 40
3.0
 40
4.0
 40
4.0
 40
4.0
 40
5.0
 40
5.0
 40
5.0
 40
6.0
 40
6.0
 40
6.0
 40
6.0
 10
786.646350459248
 20
-104.5429832248117
 10
786.646350459248
 20
-104.5429832248117
 10
786.6463521307585
 20
-104.5429836727613
 10
786.6463521307585
 20
-104.5429836727613
 10
786.9860041509104
 20
-104.6340073986464
 10
786.9860052672723
 20
-105.1159511407759
 10
786.6463536688096
 20
-105.2069764401789
 10
786.6463536688096
 20
-105.2069764401789
 10
786.6463519973024
 20
-105.2069768881368
 10
786.6463519973024
 20
-105.2069768881368
 10
786.4280494492139
 20
-105.2654811168535
 10
786.2136665562047
 20
-105.1009867884922
 10
786.2136665562047
 20
-104.8749807105218
 10
786.2136665562047
 20
-104.8749807105218
 10
786.2136665562047
 20
-104.874979814615
 10
786.2136665562047
 20
-104.874979814615
 10
786.2136665562047
 20
-104.6489743965076
 10
786.4280482775009
 20
-104.4844801782445
 10
786.646350459248
 20
-104.5429832248117
 97
        0
 97
        0
 75
     2
 76
     1
 98
        0
  0
ENDBLK
  5
5E6
330
5E3
100
AcDbEntity
  8
0
100
AcDbBlockEnd
  0
BLOCK
  5
5EB
330
5E9
100
AcDbEntity
  8
0
100
AcDbBlockBegin
  2
block 60
 70
     0
 10
0.0
 20
0.0
 30
0.0
  3
block 60
  1

  0
POLYLINE
  5
5ED
330
5E9
100
AcDbEntity
  8
Layer 1
 62
     7
420
 16777215
370
    20
100
AcDb2dPolyline
 66
     1
 10
0.0
 20
0.0
 30
0.0
  0
VERTEX
  5
5EE
330
5ED
100
AcDbEntity
  8
Layer 1
 62
     7
420
 16777215
370
    20
100
AcDbVertex
100
AcDb2dVertex
 10
782.2982466025353
 20
-104.8749854866486
 30
0.0
  0
VERTEX
  5
5EF
330
5ED
100
AcDbEntity
  8
Layer 1
 62
     7
420
 16777215
370
    20
100
AcDbVertex
100
AcDb2dVertex
 10
785.19524438453
 20
-104.8749854869085
 30
0.0
  0
SEQEND
  5
5F0
330
5ED
100
AcDbEntity
  8
Layer 1
 62
     7
420
 16777215
370
    20
  0
INSERT
  5
5F2
330
5E9
100
AcDbEntity
  8
Layer 1
100
AcDbBlockReference
  2
block 61
 10
0.0
 20
0.0
 30
0.0
  0
ENDBLK
  5
5EC
330
5E9
100
AcDbEntity
  8
0
100
AcDbBlockEnd
  0
BLOCK
  5
5F3
330
5F1
100
AcDbEntity
  8
0
100
AcDbBlockBegin
  2
block 61
 70
     0
 10
0.0
 20
0.0
 30
0.0
  3
block 61
  1

  0
SPLINE
  5
5F5
330
5F1
100
AcDbEntity
  8
Layer 1
370
     0
100
AcDbSpline
210
0.0
220
0.0
230
1.0
 70
    11
 71
     3
 72
    23
 73
    19
 74
     0
 42
0.0000000001
 43
0.0000000001
 12
1.0
 22
0.0
 32
0.0
 13
1.0
 23
0.0
 33
0.0
 40
0.0
 40
0.0
 40
0.0
 40
0.0
 40
1.0
 40
1.0
 40
1.0
 40
2.0
 40
2.0
 40
2.0
 40
3.0
 40
3.0
 40
3.0
 40
4.0
 40
4.0
 40
4.0
 40
5.0
 40
5.0
 40
5.0
 40
6.0
 40
6.0
 40
6.0
 40
6.0
 10
782.1710706520399
 20
-105.2069794487265
 30
0.0
 10
782.1710706520399
 20
-105.2069794487265
 30
0.0
 10
782.1710689805294
 20
-105.2069790007763
 30
0.0
 10
782.1710689805294
 20
-105.2069790007763
 30
0.0
 10
781.8314169603852
 20
-105.115955274861
 30
0.0
 10
781.8314158440689
 20
-104.6340115327315
 30
0.0
 10
782.1710674425385
 20
-104.5429862333586
 30
0.0
 10
782.1710674425385
 20
-104.5429862333586
 30
0.0
 10
782.1710691140458
 20
-104.5429857854007
 30
0.0
 10
782.1710691140458
 20
-104.5429857854007
 30
0.0
 10
782.3893716621413
 20
-104.4844815567039
 30
0.0
 10
782.6037545551333
 20
-104.6489758850845
 30
0.0
 10
782.6037545551153
 20
-104.8749819630548
 30
0.0
 10
782.6037545551153
 20
-104.8749819630548
 30
0.0
 10
782.6037545551153
 20
-104.8749828589623
 30
0.0
 10
782.6037545551153
 20
-104.8749828589623
 30
0.0
 10
782.603754555094
 20
-105.1009882770697
 30
0.0
 10
782.3893728337837
 20
-105.2654824953129
 30
0.0
 10
782.1710706520399
 20
-105.2069794487265
 30
0.0
  0
HATCH
  5
5F6
330
5F1
100
AcDbEntity
  8
Layer 1
 62
     7
420
 16777215
100
AcDbHatch
 10
0.0
 20
0.0
 30
0.0
210
0.0
220
0.0
230
1.0
  2
SOLID
 70
     1
 71
     0
 91
        1
 92
        1
 93
        1
 72
     4
 94
        3
 73
     0
 74
     1
 95
       23
 96
       19
 40
0.0
 40
0.0
 40
0.0
 40
0.0
 40
1.0
 40
1.0
 40
1.0
 40
2.0
 40
2.0
 40
2.0
 40
3.0
 40
3.0
 40
3.0
 40
4.0
 40
4.0
 40
4.0
 40
5.0
 40
5.0
 40
5.0
 40
6.0
 40
6.0
 40
6.0
 40
6.0
 10
782.1710706520399
 20
-105.2069794487265
 10
782.1710706520399
 20
-105.2069794487265
 10
782.1710689805294
 20
-105.2069790007763
 10
782.1710689805294
 20
-105.2069790007763
 10
781.8314169603852
 20
-105.115955274861
 10
781.8314158440689
 20
-104.6340115327315
 10
782.1710674425385
 20
-104.5429862333586
 10
782.1710674425385
 20
-104.5429862333586
 10
782.1710691140458
 20
-104.5429857854007
 10
782.1710691140458
 20
-104.5429857854007
 10
782.3893716621413
 20
-104.4844815567039
 10
782.6037545551333
 20
-104.6489758850845
 10
782.6037545551153
 20
-104.8749819630548
 10
782.6037545551153
 20
-104.8749819630548
 10
782.6037545551153
 20
-104.8749828589623
 10
782.6037545551153
 20
-104.8749828589623
 10
782.603754555094
 20
-105.1009882770697
 10
782.3893728337837
 20
-105.2654824953129
 10
782.1710706520399
 20
-105.2069794487265
 97
        0
 97
        0
 75
     2
 76
     1
 98
        0
  0
ENDBLK
  5
5F4
330
5F1
100
AcDbEntity
  8
0
100
AcDbBlockEnd
  0
ENDSEC
  0
SECTION
  2
ENTITIES
  0
POLYLINE
  5
41
330
1F
100
AcDbEntity
  8
Layer 1
 62
     7
420
 16777215
370
    35
100
AcDb2dPolyline
 66
     1
 10
0.0
 20
0.0
 30
0.0
  0
VERTEX
  5
42
330
41
100
AcDbEntity
  8
Layer 1
 62
     7
420
 16777215
370
    35
100
AcDbVertex
100
AcDb2dVertex
 10
-406.2126717125953
 20
678.9001750425583
 30
0.0
  0
VERTEX
  5
43
330
41
100
AcDbEntity
  8
Layer 1
 62
     7
420
 16777215
370
    35
100
AcDbVertex
100
AcDb2dVertex
 10
-412.8498356983785
 20
686.2011145042054
 30
0.0
  0
SEQEND
  5
44
330
41
100
AcDbEntity
  8
Layer 1
 62
     7
420
 16777215
370
    35
  0
POLYLINE
  5
45
330
1F
100
AcDbEntity
  8
Layer 1
 62
     7
420
 16777215
370
    35
100
AcDb2dPolyline
 66
     1
 10
0.0
 20
0.0
 30
0.0
  0
VERTEX
  5
46
330
45
100
AcDbEntity
  8
Layer 1
 62
     7
420
 16777215
370
    35
100
AcDbVertex
100
AcDb2dVertex
 10
-406.2126717125953
 20
193.058555979088
 30
0.0
  0
VERTEX
  5
47
330
45
100
AcDbEntity
  8
Layer 1
 62
     7
420
 16777215
370
    35
100
AcDbVertex
100
AcDb2dVertex
 10
-412.8498356983785
 20
186.4213919933042
 30
0.0
  0
SEQEND
  5
48
330
45
100
AcDbEntity
  8
Layer 1
 62
     7
420
 16777215
370
    35
  0
POLYLINE
  5
49
330
1F
100
AcDbEntity
  8
Layer 1
 62
     7
420
 16777215
370
    35
100
AcDb2dPolyline
 66
     1
 10
0.0
 20
0.0
 30
0.0
  0
VERTEX
  5
4A
330
49
100
AcDbEntity
  8
Layer 1
 62
     7
420
 16777215
370
    35
100
AcDbVertex
100
AcDb2dVertex
 10
779.8515623676024
 20
193.058555979088
 30
0.0
  0
VERTEX
  5
4B
330
49
100
AcDbEntity
  8
Layer 1
 62
     7
420
 16777215
370
    35
100
AcDbVertex
100
AcDb2dVertex
 10
787.1525018292463
 20
186.4213919933042
 30
0.0
  0
SEQEND
  5
4C
330
49
100
AcDbEntity
  8
Layer 1
 62
     7
420
 16777215
370
    35
  0
POLYLINE
  5
4D
330
1F
100
AcDbEntity
  8
Layer 1
 62
     7
420
 16777215
370
    35
100
AcDb2dPolyline
 66
     1
 10
0.0
 20
0.0
 30
0.0
  0
VERTEX
  5
4E
330
4D
100
AcDbEntity
  8
Layer 1
 62
     7
420
 16777215
370
    35
100
AcDbVertex
100
AcDb2dVertex
 10
779.8515623676024
 20
678.9001750425583
 30
0.0
  0
VERTEX
  5
4F
330
4D
100
AcDbEntity
  8
Layer 1
 62
     7
420
 16777215
370
    35
100
AcDbVertex
100
AcDb2dVertex
 10
787.1525018292463
 20
686.2011145042054
 30
0.0
  0
SEQEND
  5
50
330
4D
100
AcDbEntity
  8
Layer 1
 62
     7
420
 16777215
370
    35
  0
POLYLINE
  5
51
330
1F
100
AcDbEntity
  8
Layer 1
 62
     7
420
 16777215
370
    35
100
AcDb2dPolyline
 66
     1
 10
0.0
 20
0.0
 30
0.0
  0
VERTEX
  5
52
330
51
100
AcDbEntity
  8
Layer 1
 62
     7
420
 16777215
370
    35
100
AcDbVertex
100
AcDb2dVertex
 10
339.806484520992
 20
208.9878170618638
 30
0.0
  0
VERTEX
  5
53
330
51
100
AcDbEntity
  8
Layer 1
 62
     7
420
 16777215
370
    35
100
AcDbVertex
100
AcDb2dVertex
 10
-375.6816583007075
 20
208.9878170618638
 30
0.0
  0
SEQEND
  5
54
330
51
100
AcDbEntity
  8
Layer 1
 62
     7
420
 16777215
370
    35
  0
INSERT
  5
56
330
1F
100
AcDbEntity
  8
Layer 1
100
AcDbBlockReference
  2
block 2
 10
0.0
 20
0.0
 30
0.0
  0
INSERT
  5
3B6
330
1F
100
AcDbEntity
  8
Layer 1
100
AcDbBlockReference
  2
block 37
 10
0.0
 20
0.0
 30
0.0
  0
INSERT
  5
3BB
330
1F
100
AcDbEntity
  8
Layer 1
100
AcDbBlockReference
  2
block 38
 10
0.0
 20
0.0
 30
0.0
  0
INSERT
  5
3C0
330
1F
100
AcDbEntity
  8
Layer 1
100
AcDbBlockReference
  2
block 39
 10
0.0
 20
0.0
 30
0.0
  0
INSERT
  5
3C6
330
1F
100
AcDbEntity
  8
Layer 1
100
AcDbBlockReference
  2
block 40
 10
0.0
 20
0.0
 30
0.0
  0
INSERT
  5
3CB
330
1F
100
AcDbEntity
  8
Layer 1
100
AcDbBlockReference
  2
block 41
 10
0.0
 20
0.0
 30
0.0
  0
INSERT
  5
3D0
330
1F
100
AcDbEntity
  8
Layer 1
100
AcDbBlockReference
  2
block 42
 10
0.0
 20
0.0
 30
0.0
  0
INSERT
  5
3D5
330
1F
100
AcDbEntity
  8
Layer 1
100
AcDbBlockReference
  2
block 43
 10
0.0
 20
0.0
 30
0.0
  0
INSERT
  5
3DA
330
1F
100
AcDbEntity
  8
Layer 1
100
AcDbBlockReference
  2
block 44
 10
0.0
 20
0.0
 30
0.0
  0
INSERT
  5
3DF
330
1F
100
AcDbEntity
  8
Layer 1
100
AcDbBlockReference
  2
block 45
 10
0.0
 20
0.0
 30
0.0
  0
INSERT
  5
3E4
330
1F
100
AcDbEntity
  8
Layer 1
100
AcDbBlockReference
  2
block 46
 10
0.0
 20
0.0
 30
0.0
  0
INSERT
  5
3E9
330
1F
100
AcDbEntity
  8
Layer 1
100
AcDbBlockReference
  2
block 47
 10
0.0
 20
0.0
 30
0.0
  0
INSERT
  5
3F5
330
1F
100
AcDbEntity
  8
Layer 1
100
AcDbBlockReference
  2
block 48
 10
0.0
 20
0.0
 30
0.0
  0
INSERT
  5
3FA
330
1F
100
AcDbEntity
  8
Layer 1
100
AcDbBlockReference
  2
block 49
 10
0.0
 20
0.0
 30
0.0
  0
INSERT
  5
3FF
330
1F
100
AcDbEntity
  8
Layer 1
100
AcDbBlockReference
  2
block 50
 10
0.0
 20
0.0
 30
0.0
  0
INSERT
  5
404
330
1F
100
AcDbEntity
  8
Layer 1
100
AcDbBlockReference
  2
block 51
 10
0.0
 20
0.0
 30
0.0
  0
INSERT
  5
409
330
1F
100
AcDbEntity
  8
Layer 1
100
AcDbBlockReference
  2
block 52
 10
0.0
 20
0.0
 30
0.0
  0
POLYLINE
  5
411
330
1F
100
AcDbEntity
  8
Layer 1
 62
     7
420
 16777215
370
    35
100
AcDb2dPolyline
 66
     1
 10
0.0
 20
0.0
 30
0.0
  0
VERTEX
  5
412
330
411
100
AcDbEntity
  8
Layer 1
 62
     7
420
 16777215
370
    35
100
AcDbVertex
100
AcDb2dVertex
 10
763.258610205084
 20
-126.1437792398332
 30
0.0
  0
VERTEX
  5
413
330
411
100
AcDbEntity
  8
Layer 1
 62
     7
420
 16777215
370
    35
100
AcDbVertex
100
AcDb2dVertex
 10
779.8515623676024
 20
-126.1437792398332
 30
0.0
  0
SEQEND
  5
414
330
411
100
AcDbEntity
  8
Layer 1
 62
     7
420
 16777215
370
    35
  0
POLYLINE
  5
415
330
1F
100
AcDbEntity
  8
Layer 1
 62
     7
420
 16777215
370
    35
100
AcDb2dPolyline
 66
     1
 10
0.0
 20
0.0
 30
0.0
  0
VERTEX
  5
416
330
415
100
AcDbEntity
  8
Layer 1
 62
     7
420
 16777215
370
    35
100
AcDbVertex
100
AcDb2dVertex
 10
763.258610205084
 20
-127.4712457954375
 30
0.0
  0
VERTEX
  5
417
330
415
100
AcDbEntity
  8
Layer 1
 62
     7
420
 16777215
370
    35
100
AcDbVertex
100
AcDb2dVertex
 10
759.9399860141319
 20
-132.1172521458741
 30
0.0
  0
SEQEND
  5
418
330
415
100
AcDbEntity
  8
Layer 1
 62
     7
420
 16777215
370
    35
  0
POLYLINE
  5
419
330
1F
100
AcDbEntity
  8
Layer 1
 62
     7
420
 16777215
370
    35
100
AcDb2dPolyline
 66
     1
 10
0.0
 20
0.0
 30
0.0
  0
VERTEX
  5
41A
330
419
100
AcDbEntity
  8
Layer 1
 62
     7
420
 16777215
370
    35
100
AcDbVertex
100
AcDb2dVertex
 10
763.258610205084
 20
-126.1437792398332
 30
0.0
  0
VERTEX
  5
41B
330
419
100
AcDbEntity
  8
Layer 1
 62
     7
420
 16777215
370
    35
100
AcDbVertex
100
AcDb2dVertex
 10
759.2762949343896
 20
-130.7898699863889
 30
0.0
  0
SEQEND
  5
41C
330
419
100
AcDbEntity
  8
Layer 1
 62
     7
420
 16777215
370
    35
  0
INSERT
  5
41E
330
1F
100
AcDbEntity
  8
Layer 1
100
AcDbBlockReference
  2
block 53
 10
0.0
 20
0.0
 30
0.0
  0
POLYLINE
  5
5F7
330
1F
100
AcDbEntity
  8
Layer 1
 62
     7
420
 16777215
370
    35
100
AcDb2dPolyline
 66
     1
 10
0.0
 20
0.0
 30
0.0
  0
VERTEX
  5
5F8
330
5F7
100
AcDbEntity
  8
Layer 1
 62
     7
420
 16777215
370
    35
100
AcDbVertex
100
AcDb2dVertex
 10
763.258610205084
 20
-126.1437792398332
 30
0.0
  0
VERTEX
  5
5F9
330
5F7
100
AcDbEntity
  8
Layer 1
 62
     7
420
 16777215
370
    35
100
AcDbVertex
100
AcDb2dVertex
 10
-390.2834528278768
 20
-126.1437792398332
 30
0.0
  0
SEQEND
  5
5FA
330
5F7
100
AcDbEntity
  8
Layer 1
 62
     7
420
 16777215
370
    35
  0
POLYLINE
  5
5FB
330
1F
100
AcDbEntity
  8
Layer 1
 62
     7
420
 16777215
370
    35
100
AcDb2dPolyline
 66
     1
 10
0.0
 20
0.0
 30
0.0
  0
VERTEX
  5
5FC
330
5FB
100
AcDbEntity
  8
Layer 1
 62
     7
420
 16777215
370
    35
100
AcDbVertex
100
AcDb2dVertex
 10
763.258610205084
 20
-126.1437792398332
 30
0.0
  0
VERTEX
  5
5FD
330
5FB
100
AcDbEntity
  8
Layer 1
 62
     7
420
 16777215
370
    35
100
AcDbVertex
100
AcDb2dVertex
 10
779.8515623676024
 20
-126.1437792398332
 30
0.0
  0
SEQEND
  5
5FE
330
5FB
100
AcDbEntity
  8
Layer 1
 62
     7
420
 16777215
370
    35
  0
POLYLINE
  5
5FF
330
1F
100
AcDbEntity
  8
Layer 1
 62
     7
420
 16777215
370
    35
100
AcDb2dPolyline
 66
     1
 10
0.0
 20
0.0
 30
0.0
  0
VERTEX
  5
600
330
5FF
100
AcDbEntity
  8
Layer 1
 62
     7
420
 16777215
370
    35
100
AcDbVertex
100
AcDb2dVertex
 10
763.258610205084
 20
-127.4712457954375
 30
0.0
  0
VERTEX
  5
601
330
5FF
100
AcDbEntity
  8
Layer 1
 62
     7
420
 16777215
370
    35
100
AcDbVertex
100
AcDb2dVertex
 10
759.9399860141319
 20
-132.1172521458741
 30
0.0
  0
SEQEND
  5
602
330
5FF
100
AcDbEntity
  8
Layer 1
 62
     7
420
 16777215
370
    35
  0
POLYLINE
  5
603
330
1F
100
AcDbEntity
  8
Layer 1
 62
     7
420
 16777215
370
    35
100
AcDb2dPolyline
 66
     1
 10
0.0
 20
0.0
 30
0.0
  0
VERTEX
  5
604
330
603
100
AcDbEntity
  8
Layer 1
 62
     7
420
 16777215
370
    35
100
AcDbVertex
100
AcDb2dVertex
 10
763.258610205084
 20
-126.1437792398332
 30
0.0
  0
VERTEX
  5
605
330
603
100
AcDbEntity
  8
Layer 1
 62
     7
420
 16777215
370
    35
100
AcDbVertex
100
AcDb2dVertex
 10
759.2762949343896
 20
-130.7898699863889
 30
0.0
  0
SEQEND
  5
606
330
603
100
AcDbEntity
  8
Layer 1
 62
     7
420
 16777215
370
    35
  0
ENDSEC
  0
SECTION
  2
OBJECTS
  0
DICTIONARY
  5
C
330
0
100
AcDbDictionary
281
     1
  3
ACAD_GROUP
350
D
  3
ACAD_LAYOUT
350
1A
  3
ACAD_MATERIAL
350
3B
  3
ACAD_MLEADERSTYLE
350
608
  3
ACAD_MLINESTYLE
350
17
  3
ACAD_PLOTSETTINGS
350
19
  3
ACAD_PLOTSTYLENAME
350
E
  3
ACAD_TABLESTYLE
350
607
  3
ACAD_VISUALSTYLE
350
2A
  0
SUN
  5
3F
330
29
100
AcDbSun
 90
        1
290
     0
 63
     7
421
 16777215
 40
1.0
291
     1
 91
  2455826
 92
 54000000
292
     0
 70
     2
 71
   256
280
     1
  0
DICTIONARY
  5
D
102
{ACAD_REACTORS
330
C
102
}
330
C
100
AcDbDictionary
281
     1
  0
DICTIONARY
  5
1A
102
{ACAD_REACTORS
330
C
102
}
330
C
100
AcDbDictionary
281
     1
  3
Layout1
350
1E
  3
Layout2
350
26
  3
Model
350
22
  0
DICTIONARY
  5
3B
102
{ACAD_REACTORS
330
C
102
}
330
C
100
AcDbDictionary
281
     1
  3
ByBlock
350
3D
  3
ByLayer
350
3C
  3
Global
350
3E
  0
DICTIONARY
  5
608
102
{ACAD_REACTORS
330
C
102
}
330
C
100
AcDbDictionary
281
     1
  0
DICTIONARY
  5
17
102
{ACAD_REACTORS
330
C
102
}
330
C
100
AcDbDictionary
281
     1
  3
Standard
350
18
  0
DICTIONARY
  5
19
102
{ACAD_REACTORS
330
C
102
}
330
C
100
AcDbDictionary
281
     1
  0
ACDBDICTIONARYWDFLT
  5
E
102
{ACAD_REACTORS
330
C
102
}
330
C
100
AcDbDictionary
281
     1
  3
Normal
350
F
100
AcDbDictionaryWithDefault
340
F
  0
DICTIONARY
  5
607
102
{ACAD_REACTORS
330
C
102
}
330
C
100
AcDbDictionary
281
     1
  0
DICTIONARY
  5
2A
102
{ACAD_REACTORS
330
C
102
}
330
C
100
AcDbDictionary
281
     1
  3
2dWireframe
350
2F
  3
3D Hidden
350
31
  3
3dWireframe
350
30
  3
Basic
350
32
  3
Brighten
350
36
  3
ColorChange
350
3A
  3
Conceptual
350
34
  3
Dim
350
35
  3
Facepattern
350
39
  3
Flat
350
2B
  3
FlatWithEdges
350
2C
  3
Gouraud
350
2D
  3
GouraudWithEdges
350
2E
  3
Linepattern
350
38
  3
Realistic
350
33
  3
Thicken
350
37
  0
LAYOUT
  5
1E
102
{ACAD_REACTORS
330
1A
102
}
330
1A
100
AcDbPlotSettings
  1

  2
none_device
  4

  6

 40
0.0
 41
0.0
 42
0.0
 43
0.0
 44
0.0
 45
0.0
 46
0.0
 47
0.0
 48
0.0
 49
0.0
140
0.0
141
0.0
142
1.0
143
1.0
 70
   688
 72
     0
 73
     0
 74
     5
  7

 75
    16
 76
     0
 77
     2
 78
   300
147
1.0
148
0.0
149
0.0
100
AcDbLayout
  1
Layout1
 70
     1
 71
     1
 10
0.0
 20
0.0
 11
12.0
 21
9.0
 12
0.0
 22
0.0
 32
0.0
 14
1.000000000000000E+20
 24
1.000000000000000E+20
 34
1.000000000000000E+20
 15
-1.000000000000000E+20
 25
-1.000000000000000E+20
 35
-1.000000000000000E+20
146
0.0
 13
0.0
 23
0.0
 33
0.0
 16
1.0
 26
0.0
 36
0.0
 17
0.0
 27
1.0
 37
0.0
 76
     0
330
1B
  0
LAYOUT
  5
26
102
{ACAD_REACTORS
330
1A
102
}
330
1A
100
AcDbPlotSettings
  1

  2
none_device
  4

  6

 40
0.0
 41
0.0
 42
0.0
 43
0.0
 44
0.0
 45
0.0
 46
0.0
 47
0.0
 48
0.0
 49
0.0
140
0.0
141
0.0
142
1.0
143
1.0
 70
   688
 72
     0
 73
     0
 74
     5
  7

 75
    16
 76
     0
 77
     2
 78
   300
147
1.0
148
0.0
149
0.0
100
AcDbLayout
  1
Layout2
 70
     1
 71
     2
 10
0.0
 20
0.0
 11
0.0
 21
0.0
 12
0.0
 22
0.0
 32
0.0
 14
0.0
 24
0.0
 34
0.0
 15
0.0
 25
0.0
 35
0.0
146
0.0
 13
0.0
 23
0.0
 33
0.0
 16
1.0
 26
0.0
 36
0.0
 17
0.0
 27
1.0
 37
0.0
 76
     0
330
23
  0
LAYOUT
  5
22
102
{ACAD_REACTORS
330
1A
102
}
330
1A
100
AcDbPlotSettings
  1

  2
none_device
  4

  6

 40
0.0
 41
0.0
 42
0.0
 43
0.0
 44
0.0
 45
0.0
 46
0.0
 47
0.0
 48
0.0
 49
0.0
140
0.0
141
0.0
142
1.0
143
1.0
 70
  1712
 72
     0
 73
     0
 74
     0
  7

 75
     0
 76
     0
 77
     2
 78
   300
147
1.0
148
0.0
149
0.0
100
AcDbLayout
  1
Model
 70
     1
 71
     0
 10
0.0
 20
0.0
 11
12.0
 21
9.0
 12
0.0
 22
0.0
 32
0.0
 14
1.000000000000000E+20
 24
1.000000000000000E+20
 34
1.000000000000000E+20
 15
-1.000000000000000E+20
 25
-1.000000000000000E+20
 35
-1.000000000000000E+20
146
0.0
 13
0.0
 23
0.0
 33
0.0
 16
1.0
 26
0.0
 36
0.0
 17
0.0
 27
1.0
 37
0.0
 76
     0
330
1F
331
29
  0
MATERIAL
  5
3D
102
{ACAD_REACTORS
330
3B
102
}
330
3B
100
AcDbMaterial
  1
ByBlock
 72
     1
 94
      127
  0
MATERIAL
  5
3C
102
{ACAD_REACTORS
330
3B
102
}
330
3B
100
AcDbMaterial
  1
ByLayer
 72
     1
 94
      127
  0
MATERIAL
  5
3E
102
{ACAD_REACTORS
330
3B
102
}
330
3B
100
AcDbMaterial
  1
Global
 72
     1
 94
      127
  0
MLINESTYLE
  5
18
102
{ACAD_REACTORS
330
17
102
}
330
17
100
AcDbMlineStyle
  2
Standard
 70
     0
  3

 62
   256
 51
90.0
 52
90.0
 71
     2
 49
0.5
 62
   256
  6
BYLAYER
 49
-0.5
 62
   256
  6
BYLAYER
  0
ACDBPLACEHOLDER
  5
F
102
{ACAD_REACTORS
330
E
102
}
330
E
  0
VISUALSTYLE
  5
2F
102
{ACAD_REACTORS
330
2A
102
}
330
2A
100
AcDbVisualStyle
  2
2dWireframe
 70
     4
177
     2
291
     0
 71
     0
176
     1
 72
     2
176
     1
 73
     0
176
     1
 90
        0
176
     1
 40
-0.6
176
     1
 41
-30.0
176
     1
 62
     5
 63
     7
421
 16777215
176
     1
 74
     1
176
     1
 91
        4
176
     1
 64
     7
176
     1
 65
   257
176
     1
 75
     1
176
     1
175
     1
176
     1
 42
1.0
176
     1
 92
        0
176
     1
 66
   257
176
     1
 43
1.0
176
     1
 76
     1
176
     1
 77
     6
176
     1
 78
     2
176
     1
 67
     7
176
     1
 79
     5
176
     1
170
     0
176
     1
171
     0
176
     1
290
     0
176
     1
 93
        1
176
     1
 44
0.0
176
     1
173
     0
176
     1
  0
VISUALSTYLE
  5
31
102
{ACAD_REACTORS
330
2A
102
}
330
2A
100
AcDbVisualStyle
  2
3D Hidden
 70
     6
177
     2
291
     0
 71
     1
176
     1
 72
     2
176
     1
 73
     2
176
     1
 90
        0
176
     1
 40
-0.6
176
     1
 41
-30.0
176
     1
 62
     5
 63
     7
421
 16777215
176
     1
 74
     2
176
     1
 91
        2
176
     1
 64
     7
176
     1
 65
   257
176
     1
 75
     2
176
     1
175
     1
176
     1
 42
40.0
176
     1
 92
        0
176
     1
 66
   257
176
     1
 43
1.0
176
     1
 76
     1
176
     1
 77
     6
176
     1
 78
     2
176
     1
 67
     7
176
     1
 79
     3
176
     1
170
     0
176
     1
171
     0
176
     1
290
     0
176
     1
 93
        1
176
     1
 44
0.0
176
     1
173
     0
176
     1
  0
VISUALSTYLE
  5
30
102
{ACAD_REACTORS
330
2A
102
}
330
2A
100
AcDbVisualStyle
  2
3dWireframe
 70
     5
177
     2
291
     0
 71
     0
176
     1
 72
     2
176
     1
 73
     0
176
     1
 90
        0
176
     1
 40
-0.6
176
     1
 41
-30.0
176
     1
 62
     5
 63
     7
421
 16777215
176
     1
 74
     1
176
     1
 91
        4
176
     1
 64
     7
176
     1
 65
   257
176
     1
 75
     1
176
     1
175
     1
176
     1
 42
1.0
176
     1
 92
        0
176
     1
 66
   257
176
     1
 43
1.0
176
     1
 76
     1
176
     1
 77
     6
176
     1
 78
     2
176
     1
 67
     7
176
     1
 79
     5
176
     1
170
     0
176
     1
171
     0
176
     1
290
     0
176
     1
 93
        1
176
     1
 44
0.0
176
     1
173
     0
176
     1
  0
VISUALSTYLE
  5
32
102
{ACAD_REACTORS
330
2A
102
}
330
2A
100
AcDbVisualStyle
  2
Basic
 70
     7
177
     2
291
     1
 71
     1
176
     1
 72
     0
176
     1
 73
     1
176
     1
 90
        0
176
     1
 40
-0.6
176
     1
 41
-30.0
176
     1
 62
     5
 63
     7
421
 16777215
176
     1
 74
     0
176
     1
 91
        4
176
     1
 64
     7
176
     1
 65
   257
176
     1
 75
     1
176
     1
175
     1
176
     1
 42
1.0
176
     1
 92
        8
176
     1
 66
     7
176
     1
 43
1.0
176
     1
 76
     1
176
     1
 77
     6
176
     1
 78
     2
176
     1
 67
     7
176
     1
 79
     5
176
     1
170
     0
176
     1
171
     0
176
     1
290
     0
176
     1
 93
        1
176
     1
 44
0.0
176
     1
173
     0
176
     1
  0
VISUALSTYLE
  5
36
102
{ACAD_REACTORS
330
2A
102
}
330
2A
100
AcDbVisualStyle
  2
Brighten
 70
    12
177
     2
291
     1
 71
     2
176
     1
 72
     2
176
     1
 73
     0
176
     1
 90
        0
176
     1
 40
-0.6
176
     1
 41
-30.0
176
     1
 62
     5
 63
     7
421
 16777215
176
     1
 74
     1
176
     1
 91
        4
176
     1
 64
     7
176
     1
 65
   257
176
     1
 75
     1
176
     1
175
     1
176
     1
 42
1.0
176
     1
 92
        8
176
     1
 66
     7
176
     1
 43
1.0
176
     1
 76
     1
176
     1
 77
     6
176
     1
 78
     2
176
     1
 67
     7
176
     1
 79
     5
176
     1
170
     0
176
     1
171
     0
176
     1
290
     0
176
     1
 93
        1
176
     1
 44
50.0
176
     1
173
     0
176
     1
  0
VISUALSTYLE
  5
3A
102
{ACAD_REACTORS
330
2A
102
}
330
2A
100
AcDbVisualStyle
  2
ColorChange
 70
    16
177
     2
291
     1
 71
     2
176
     1
 72
     2
176
     1
 73
     3
176
     1
 90
        0
176
     1
 40
-0.6
176
     1
 41
-30.0
176
     1
 62
     5
 63
     8
421
  8421504
176
     1
 74
     1
176
     1
 91
        4
176
     1
 64
     7
176
     1
 65
   257
176
     1
 75
     1
176
     1
175
     1
176
     1
 42
1.0
176
     1
 92
        8
176
     1
 66
     8
424
  8421504
176
     1
 43
1.0
176
     1
 76
     1
176
     1
 77
     6
176
     1
 78
     2
176
     1
 67
     7
176
     1
 79
     5
176
     1
170
     0
176
     1
171
     0
176
     1
290
     0
176
     1
 93
        1
176
     1
 44
0.0
176
     1
173
     0
176
     1
  0
VISUALSTYLE
  5
34
102
{ACAD_REACTORS
330
2A
102
}
330
2A
100
AcDbVisualStyle
  2
Conceptual
 70
     9
177
     2
291
     0
 71
     3
176
     1
 72
     2
176
     1
 73
     0
176
     1
 90
        0
176
     1
 40
-0.6
176
     1
 41
-30.0
176
     1
 62
     5
 63
     7
421
 16777215
176
     1
 74
     2
176
     1
 91
        2
176
     1
 64
     7
176
     1
 65
   257
176
     1
 75
     1
176
     1
175
     1
176
     1
 42
40.0
176
     1
 92
        8
176
     1
 66
     7
176
     1
 43
1.0
176
     1
 76
     1
176
     1
 77
     6
176
     1
 78
     2
176
     1
 67
     7
176
     1
 79
     3
176
     1
170
     0
176
     1
171
     0
176
     1
290
     0
176
     1
 93
        1
176
     1
 44
0.0
176
     1
173
     0
176
     1
  0
VISUALSTYLE
  5
35
102
{ACAD_REACTORS
330
2A
102
}
330
2A
100
AcDbVisualStyle
  2
Dim
 70
    11
177
     2
291
     1
 71
     2
176
     1
 72
     2
176
     1
 73
     0
176
     1
 90
        0
176
     1
 40
-0.6
176
     1
 41
-30.0
176
     1
 62
     5
 63
     7
421
 16777215
176
     1
 74
     1
176
     1
 91
        4
176
     1
 64
     7
176
     1
 65
   257
176
     1
 75
     1
176
     1
175
     1
176
     1
 42
1.0
176
     1
 92
        8
176
     1
 66
     7
176
     1
 43
1.0
176
     1
 76
     1
176
     1
 77
     6
176
     1
 78
     2
176
     1
 67
     7
176
     1
 79
     5
176
     1
170
     0
176
     1
171
     0
176
     1
290
     0
176
     1
 93
        1
176
     1
 44
-50.0
176
     1
173
     0
176
     1
  0
VISUALSTYLE
  5
39
102
{ACAD_REACTORS
330
2A
102
}
330
2A
100
AcDbVisualStyle
  2
Facepattern
 70
    15
177
     2
291
     1
 71
     2
176
     1
 72
     2
176
     1
 73
     0
176
     1
 90
        0
176
     1
 40
-0.6
176
     1
 41
-30.0
176
     1
 62
     5
 63
     7
421
 16777215
176
     1
 74
     1
176
     1
 91
        4
176
     1
 64
     7
176
     1
 65
   257
176
     1
 75
     1
176
     1
175
     1
176
     1
 42
1.0
176
     1
 92
        8
176
     1
 66
     7
176
     1
 43
1.0
176
     1
 76
     1
176
     1
 77
     6
176
     1
 78
     2
176
     1
 67
     7
176
     1
 79
     5
176
     1
170
     0
176
     1
171
     0
176
     1
290
     0
176
     1
 93
        1
176
     1
 44
0.0
176
     1
173
     0
176
     1
  0
VISUALSTYLE
  5
2B
102
{ACAD_REACTORS
330
2A
102
}
330
2A
100
AcDbVisualStyle
  2
Flat
 70
     0
177
     2
291
     1
 71
     2
176
     1
 72
     1
176
     1
 73
     1
176
     1
 90
        2
176
     1
 40
-0.6
176
     1
 41
30.0
176
     1
 62
     5
 63
     7
421
 16777215
176
     1
 74
     0
176
     1
 91
        4
176
     1
 64
     7
176
     1
 65
   257
176
     1
 75
     1
176
     1
175
     1
176
     1
 42
1.0
176
     1
 92
        8
176
     1
 66
     7
176
     1
 43
1.0
176
     1
 76
     1
176
     1
 77
     6
176
     1
 78
     2
176
     1
 67
     7
176
     1
 79
     5
176
     1
170
     0
176
     1
171
     0
176
     1
290
     0
176
     1
 93
       13
176
     1
 44
0.0
176
     1
173
     0
176
     1
  0
VISUALSTYLE
  5
2C
102
{ACAD_REACTORS
330
2A
102
}
330
2A
100
AcDbVisualStyle
  2
FlatWithEdges
 70
     1
177
     2
291
     1
 71
     2
176
     1
 72
     1
176
     1
 73
     1
176
     1
 90
        2
176
     1
 40
-0.6
176
     1
 41
30.0
176
     1
 62
     5
 63
     7
421
 16777215
176
     1
 74
     1
176
     1
 91
        4
176
     1
 64
     7
176
     1
 65
   257
176
     1
 75
     1
176
     1
175
     1
176
     1
 42
1.0
176
     1
 92
        0
176
     1
 66
   257
176
     1
 43
1.0
176
     1
 76
     1
176
     1
 77
     6
176
     1
 78
     2
176
     1
 67
     7
176
     1
 79
     5
176
     1
170
     0
176
     1
171
     0
176
     1
290
     0
176
     1
 93
       13
176
     1
 44
0.0
176
     1
173
     0
176
     1
  0
VISUALSTYLE
  5
2D
102
{ACAD_REACTORS
330
2A
102
}
330
2A
100
AcDbVisualStyle
  2
Gouraud
 70
     2
177
     2
291
     1
 71
     2
176
     1
 72
     2
176
     1
 73
     1
176
     1
 90
        2
176
     1
 40
-0.6
176
     1
 41
30.0
176
     1
 62
     5
 63
     7
421
 16777215
176
     1
 74
     0
176
     1
 91
        4
176
     1
 64
     7
176
     1
 65
   257
176
     1
 75
     1
176
     1
175
     1
176
     1
 42
1.0
176
     1
 92
        0
176
     1
 66
     7
176
     1
 43
1.0
176
     1
 76
     1
176
     1
 77
     6
176
     1
 78
     2
176
     1
 67
     7
176
     1
 79
     5
176
     1
170
     0
176
     1
171
     0
176
     1
290
     0
176
     1
 93
       13
176
     1
 44
0.0
176
     1
173
     0
176
     1
  0
VISUALSTYLE
  5
2E
102
{ACAD_REACTORS
330
2A
102
}
330
2A
100
AcDbVisualStyle
  2
GouraudWithEdges
 70
     3
177
     2
291
     1
 71
     2
176
     1
 72
     2
176
     1
 73
     1
176
     1
 90
        2
176
     1
 40
-0.6
176
     1
 41
30.0
176
     1
 62
     5
 63
     7
421
 16777215
176
     1
 74
     1
176
     1
 91
        4
176
     1
 64
     7
176
     1
 65
   257
176
     1
 75
     1
176
     1
175
     1
176
     1
 42
1.0
176
     1
 92
        0
176
     1
 66
   257
176
     1
 43
1.0
176
     1
 76
     1
176
     1
 77
     6
176
     1
 78
     2
176
     1
 67
     7
176
     1
 79
     5
176
     1
170
     0
176
     1
171
     0
176
     1
290
     0
176
     1
 93
       13
176
     1
 44
0.0
176
     1
173
     0
176
     1
  0
VISUALSTYLE
  5
38
102
{ACAD_REACTORS
330
2A
102
}
330
2A
100
AcDbVisualStyle
  2
Linepattern
 70
    14
177
     2
291
     1
 71
     2
176
     1
 72
     2
176
     1
 73
     0
176
     1
 90
        0
176
     1
 40
-0.6
176
     1
 41
-30.0
176
     1
 62
     5
 63
     7
421
 16777215
176
     1
 74
     1
176
     1
 91
        4
176
     1
 64
     7
176
     1
 65
   257
176
     1
 75
     7
176
     1
175
     7
176
     1
 42
1.0
176
     1
 92
        8
176
     1
 66
     7
176
     1
 43
1.0
176
     1
 76
     1
176
     1
 77
     6
176
     1
 78
     2
176
     1
 67
     7
176
     1
 79
     5
176
     1
170
     0
176
     1
171
     0
176
     1
290
     0
176
     1
 93
        1
176
     1
 44
0.0
176
     1
173
     0
176
     1
  0
VISUALSTYLE
  5
33
102
{ACAD_REACTORS
330
2A
102
}
330
2A
100
AcDbVisualStyle
  2
Realistic
 70
     8
177
     2
291
     0
 71
     2
176
     1
 72
     2
176
     1
 73
     0
176
     1
 90
        0
176
     1
 40
-0.6
176
     1
 41
-30.0
176
     1
 62
     5
 63
     7
421
 16777215
176
     1
 74
     1
176
     1
 91
        0
176
     1
 64
     7
176
     1
 65
   257
176
     1
 75
     1
176
     1
175
     1
176
     1
 42
1.0
176
     1
 92
        8
176
     1
 66
     8
424
  7895160
176
     1
 43
1.0
176
     1
 76
     1
176
     1
 77
     6
176
     1
 78
     2
176
     1
 67
     7
176
     1
 79
     5
176
     1
170
     0
176
     1
171
     0
176
     1
290
     0
176
     1
 93
       13
176
     1
 44
0.0
176
     1
173
     0
176
     1
  0
VISUALSTYLE
  5
37
102
{ACAD_REACTORS
330
2A
102
}
330
2A
100
AcDbVisualStyle
  2
Thicken
 70
    13
177
     2
291
     1
 71
     2
176
     1
 72
     2
176
     1
 73
     0
176
     1
 90
        0
176
     1
 40
-0.6
176
     1
 41
-30.0
176
     1
 62
     5
 63
     7
421
 16777215
176
     1
 74
     1
176
     1
 91
        4
176
     1
 64
     7
176
     1
 65
   257
176
     1
 75
     1
176
     1
175
     1
176
     1
 42
1.0
176
     1
 92
       12
176
     1
 66
     7
176
     1
 43
1.0
176
     1
 76
     1
176
     1
 77
     6
176
     1
 78
     2
176
     1
 67
     7
176
     1
 79
     5
176
     1
170
     0
176
     1
171
     0
176
     1
290
     0
176
     1
 93
        1
176
     1
 44
0.0
176
     1
173
     0
176
     1
  0
ENDSEC
  0
EOF
